  0
SECTION
  2
HEADER
  9
$ACADVER
  1
AC1009
  9
$DWGCODEPAGE
  3
dos932
  9
$INSBASE
 10
0.0
 20
0.0
 30
0.0
  9
$EXTMIN
 10
-381.58262475810989
 20
-490.9057500666313
 30
-0.0030516297567118
  9
$EXTMAX
 10
940.81422045223007
 20
729.30909021444313
 30
0.0007631257219032
  9
$LIMMIN
 10
-2970.0
 20
-2100.0
  9
$LIMMAX
 10
2970.0
 20
2100.0
  9
$ORTHOMODE
 70
     1
  9
$REGENMODE
 70
     1
  9
$FILLMODE
 70
     1
  9
$QTEXTMODE
 70
     0
  9
$MIRRTEXT
 70
     0
  9
$LTSCALE
 40
20.0
  9
$ATTMODE
 70
     1
  9
$TEXTSIZE
 40
64.0
  9
$TRACEWID
 40
0.05
  9
$TEXTSTYLE
  7
STANDARD
  9
$CLAYER
  8
SIZE
  9
$CELTYPE
  6
CONTINUOUS
  9
$CECOLOR
 62
     7
  9
$DIMSCALE
 40
1.0
  9
$DIMASZ
 40
12.0
  9
$DIMEXO
 40
20.0
  9
$DIMDLI
 40
200.0
  9
$DIMRND
 40
0.0
  9
$DIMDLE
 40
0.0
  9
$DIMEXE
 40
20.0
  9
$DIMTP
 40
0.0
  9
$DIMTM
 40
0.0
  9
$DIMTXT
 40
64.0
  9
$DIMCEN
 40
0.09
  9
$DIMTSZ
 40
0.0
  9
$DIMTOL
 70
     0
  9
$DIMLIM
 70
     0
  9
$DIMTIH
 70
     0
  9
$DIMTOH
 70
     0
  9
$DIMSE1
 70
     0
  9
$DIMSE2
 70
     0
  9
$DIMTAD
 70
     1
  9
$DIMZIN
 70
     8
  9
$DIMBLK
  1

  9
$DIMASO
 70
     1
  9
$DIMSHO
 70
     0
  9
$DIMPOST
  1

  9
$DIMAPOST
  1

  9
$DIMALT
 70
     0
  9
$DIMALTD
 70
     2
  9
$DIMALTF
 40
25.399999999999999
  9
$DIMLFAC
 40
1.0
  9
$DIMTOFL
 70
     1
  9
$DIMTVP
 40
0.0
  9
$DIMTIX
 70
     1
  9
$DIMSOXD
 70
     0
  9
$DIMSAH
 70
     0
  9
$DIMBLK1
  1

  9
$DIMBLK2
  1

  9
$DIMSTYLE
  2
STANDARD
  9
$DIMCLRD
 70
     7
  9
$DIMCLRE
 70
     7
  9
$DIMCLRT
 70
     7
  9
$DIMTFAC
 40
1.0
  9
$DIMGAP
 40
25.0
  9
$LUNITS
 70
     2
  9
$LUPREC
 70
     4
  9
$SKETCHINC
 40
0.1
  9
$FILLETRAD
 40
3.0
  9
$AUNITS
 70
     1
  9
$AUPREC
 70
     3
  9
$MENU
  1
ACAD
  9
$ELEVATION
 40
0.0
  9
$PELEVATION
 40
0.0
  9
$THICKNESS
 40
0.0
  9
$LIMCHECK
 70
     0
  9
$CHAMFERA
 40
0.0
  9
$CHAMFERB
 40
0.0
  9
$SKPOLY
 70
     0
  9
$TDCREATE
 40
2453019.62301037
  9
$TDUPDATE
 40
2459268.676211435
  9
$TDINDWG
 40
1.7195530208
  9
$TDUSRTIMER
 40
1.7195530208
  9
$USRTIMER
 70
     1
  9
$ANGBASE
 50
0.0
  9
$ANGDIR
 70
     0
  9
$PDMODE
 70
     3
  9
$PDSIZE
 40
-2.0
  9
$PLINEWID
 40
0.0
  9
$SPLFRAME
 70
     0
  9
$SPLINETYPE
 70
     6
  9
$SPLINESEGS
 70
     8
  9
$SURFTAB1
 70
     6
  9
$SURFTAB2
 70
     6
  9
$SURFTYPE
 70
     6
  9
$SURFU
 70
     6
  9
$SURFV
 70
     6
  9
$UCSNAME
  2

  9
$UCSORG
 10
0.0
 20
0.0
 30
0.0
  9
$UCSXDIR
 10
1.0
 20
0.0
 30
0.0
  9
$UCSYDIR
 10
0.0
 20
1.0
 30
0.0
  9
$PUCSNAME
  2

  9
$PUCSORG
 10
0.0
 20
0.0
 30
0.0
  9
$PUCSXDIR
 10
1.0
 20
0.0
 30
0.0
  9
$PUCSYDIR
 10
0.0
 20
1.0
 30
0.0
  9
$USERI1
 70
     0
  9
$USERI2
 70
     0
  9
$USERI3
 70
     0
  9
$USERI4
 70
     0
  9
$USERI5
 70
     0
  9
$USERR1
 40
20.0
  9
$USERR2
 40
0.0
  9
$USERR3
 40
0.0
  9
$USERR4
 40
0.0
  9
$USERR5
 40
0.0
  9
$WORLDVIEW
 70
     1
  9
$SHADEDGE
 70
     3
  9
$SHADEDIF
 70
    70
  9
$TILEMODE
 70
     1
  9
$MAXACTVP
 70
    48
  9
$PINSBASE
 10
0.0
 20
0.0
 30
0.0
  9
$PLIMCHECK
 70
     0
  9
$PEXTMIN
 10
-100000000000000000000.0
 20
-100000000000000000000.0
 30
-100000000000000000000.0
  9
$PEXTMAX
 10
100000000000000000000.0
 20
100000000000000000000.0
 30
100000000000000000000.0
  9
$PLIMMIN
 10
0.0
 20
0.0
  9
$PLIMMAX
 10
12.0
 20
9.0
  9
$UNITMODE
 70
     0
  9
$VISRETAIN
 70
     0
  9
$PLINEGEN
 70
     0
  9
$PSLTSCALE
 70
     0
  9
$TREEDEPTH
 70
  3020
  9
$ATTDIA
 70
     0
  9
$ATTREQ
 70
     1
  9
$BLIPMODE
 70
     1
  9
$COORDS
 70
     1
  9
$DRAGMODE
 70
     2
  9
$OSMODE
 70
     0
  9
$HANDLING
 70
     0
  9
$HANDSEED
  5
10653
  0
ENDSEC
  0
SECTION
  2
TABLES
  0
TABLE
  2
LTYPE
 70
     2
  0
LTYPE
  2
CONTINUOUS
 70
     0
  3
実線
 72
    65
 73
     0
 40
0.0
  0
LTYPE
  2
DASHDOT
 70
     0
  3
____ _ ____ _ ____ _ ____ _ ____ _ ____ _ ____
 72
    65
 73
     4
 40
5.5
 49
4.0
 49
-0.6
 49
0.3
 49
-0.6
  0
ENDTAB
  0
TABLE
  2
LAYER
 70
    12
  0
LAYER
  2
0
 70
     0
 62
     7
  6
CONTINUOUS
  0
LAYER
  2
BASIS
 70
     0
 62
     6
  6
DASHDOT
  0
LAYER
  2
OUTLINE
 70
     0
 62
     3
  6
CONTINUOUS
  0
LAYER
  2
DETAIL
 70
     0
 62
     5
  6
CONTINUOUS
  0
LAYER
  2
SIZE
 70
     0
 62
    30
  6
CONTINUOUS
  0
LAYER
  2
ARRANGE
 70
     0
 62
     1
  6
CONTINUOUS
  0
LAYER
  2
DEFPOINTS
 70
     0
 62
     7
  6
CONTINUOUS
  0
LAYER
  2
ETC
 70
     0
 62
    61
  6
CONTINUOUS
  0
LAYER
  2
FIX
 70
     0
 62
    11
  6
CONTINUOUS
  0
LAYER
  2
NOTE
 70
     0
 62
     4
  6
CONTINUOUS
  0
LAYER
  2
SERVICESPACE
 70
    64
 62
     2
  6
DASHDOT
  0
LAYER
  2
SYMBOLLINE
 70
    64
 62
    15
  6
CONTINUOUS
  0
ENDTAB
  0
TABLE
  2
STYLE
 70
     1
  0
STYLE
  2
STANDARD
 70
     0
 40
64.0
 41
0.9
 50
0.0
 71
     0
 42
64.0
  3
SIMPLEX.shx
  4
BIGFONT.shx
  0
ENDTAB
  0
TABLE
  2
APPID
 70
    19
  0
APPID
  2
ACAD
 70
     0
  0
APPID
  2
AUTOCAD_POSTSCRIPT_FIGURE
 70
     0
  0
APPID
  2
ACAD_EXEMPT_FROM_CAD_STANDARDS
 70
     0
  0
APPID
  2
ACAD_PSEXT
 70
     0
  0
APPID
  2
ACAUTHENVIRON
 70
     0
  0
APPID
  2
GENIUS_GENOENT_13
 70
     0
  0
APPID
  2
GENIUS_GENCFG_13
 70
     0
  0
APPID
  2
GENIUS_GENCFG0_13
 70
     0
  0
APPID
  2
GENIUS_GENCFG1_13
 70
     0
  0
APPID
  2
GENIUS_GENCFG2_13
 70
     0
  0
APPID
  2
GENIUS_GENCFG3_13
 70
     0
  0
APPID
  2
GENIUS_GENCFG4_13
 70
     0
  0
APPID
  2
GENIUS_GEVCFG0_13
 70
     0
  0
APPID
  2
CONTENTBLOCKICON
 70
     0
  0
APPID
  2
CONTENTBLOCKDESCRIPTION
 70
     0
  0
APPID
  2
ACAD_NAV_VCDISPLAY
 70
     0
  0
APPID
  2
ACAD_MLEADERVER
 70
     0
  0
APPID
  2
ACDBDYNAMICBLOCKTRUENAME
 70
     0
  0
APPID
  2
ACDBDYNAMICBLOCKGUID
 70
     0
  0
ENDTAB
  0
TABLE
  2
DIMSTYLE
 70
     1
  0
DIMSTYLE
  2
STANDARD
 70
     0
  3

  4

  5
_ORIGIN
  6

  7

 40
1.0
 41
12.0
 42
20.0
 43
200.0
 44
20.0
 45
0.0
 46
0.0
 47
0.0
 48
0.0
140
64.0
141
0.09
142
0.0
143
25.399999999999999
144
1.0
145
0.0
146
1.0
147
25.0
 71
     0
 72
     0
 73
     0
 74
     0
 75
     0
 76
     0
 77
     1
 78
     8
170
     0
171
     2
172
     1
173
     0
174
     1
175
     0
176
     7
177
     7
178
     7
  0
ENDTAB
  0
TABLE
  2
VIEW
 70
     1
  0
VIEW
  2
ALL
 70
     0
 40
4282.6198079999986
 10
0.0
 20
41.309904000000003
 41
5940.0
 11
0.0
 21
0.0
 31
1.0
 12
0.0
 22
0.0
 32
0.0
 42
50.0
 43
0.0
 44
0.0
 50
0.0
 71
     0
  0
ENDTAB
  0
TABLE
  2
UCS
 70
     0
  0
ENDTAB
  0
TABLE
  2
VPORT
 70
     1
  0
VPORT
  2
*ACTIVE
 70
     0
 10
0.0
 20
0.0
 11
1.0
 21
1.0
 12
279.61579784705998
 22
119.2016700739059
 13
0.0
 23
0.0
 14
1.0
 24
1.0
 15
0.0
 25
0.0
 16
0.0
 26
0.0
 36
1.0
 17
0.0
 27
0.0
 37
0.0
 40
779.58479246086563
 41
2.2504409171075839
 42
50.0
 43
0.0
 44
0.0
 50
0.0
 51
0.0
 71
     0
 72
  1000
 73
     1
 74
     3
 75
     0
 76
     0
 77
     0
 78
     0
  0
ENDTAB
  0
ENDSEC
  0
SECTION
  2
BLOCKS
  0
BLOCK
  8
0
  2
_ORIGIN
 70
     0
 10
0.0
 20
0.0
 30
0.0
  3
_ORIGIN
  1
_ORIGIN
  0
CIRCLE
  8
SIZE
  6
CONTINUOUS
 62
    30
 10
0.0
 20
0.0
 30
0.0
 40
0.5
  0
LINE
  8
SIZE
  6
CONTINUOUS
 62
    30
 10
0.0
 20
0.0
 30
0.0
 11
-1.0
 21
0.0
 31
0.0
  0
ENDBLK
  8
0
  0
ENDSEC
  0
SECTION
  2
ENTITIES
  0
TEXT
  8
ETC
  6
CONTINUOUS
 62
    61
 10
282.18515092328028
 20
665.20991264167822
 30
0.0
 40
64.0
  1
BFS-100TKA2_3
 41
0.9
  0
TEXT
  8
ETC
  6
CONTINUOUS
 62
    61
 10
277.99915692327983
 20
547.2546026268468
 30
0.0
 40
64.0
  1
産業扇
 41
0.9
  0
CIRCLE
  8
ARRANGE
  6
CONTINUOUS
 62
     1
 10
0.0
 20
0.0
 30
0.0
 40
40.0
  0
POINT
  8
ARRANGE
  6
CONTINUOUS
 62
     1
 10
0.0
 20
0.0
 30
0.0
  0
LINE
  8
BASIS
  6
DASHDOT
 62
     6
 10
0.0
 20
-363.75231139240128
 30
0.0
 11
0.0
 21
69.690279017961984
 31
0.0
  0
LINE
  8
BASIS
  6
DASHDOT
 62
     6
 10
-273.60539698812983
 20
-175.23499464270941
 30
0.0
 11
273.10539698812988
 21
-175.23499464270941
 31
0.0
  0
TEXT
  8
ETC
  6
CONTINUOUS
 62
    61
 10
328.70055517183567
 20
439.10582974062157
 30
0.0
 40
40.0
  1
BFS-100TKA2
 41
0.9
  0
LINE
  8
SIZE
  6
CONTINUOUS
 62
    30
 10
-181.85023142870409
 20
16.48250923162459
 30
0.0
 11
-181.85023142870409
 21
133.77453330651949
 31
0.0
  0
LINE
  8
SIZE
  6
CONTINUOUS
 62
    30
 10
181.2103753754013
 20
17.201995979701451
 30
0.0
 11
181.2103753754013
 21
133.77453330651949
 31
0.0
  0
LINE
  8
SIZE
  6
CONTINUOUS
 62
    30
 10
-169.85023142870409
 20
113.7745333065195
 30
0.0
 11
169.2103753754013
 21
113.7745333065195
 31
0.0
  0
CIRCLE
  8
SIZE
  6
CONTINUOUS
 62
    30
 10
-181.85023142870409
 20
113.7745333065195
 30
0.0
 40
6.0
  0
LINE
  8
SIZE
  6
CONTINUOUS
 62
    30
 10
-181.85023142870409
 20
113.7745333065195
 30
0.0
 11
-169.85023142870409
 21
113.7745333065195
 31
0.0
  0
CIRCLE
  8
SIZE
  6
CONTINUOUS
 62
    30
 10
181.2103753754013
 20
113.7745333065195
 30
0.0
 40
6.0
  0
LINE
  8
SIZE
  6
CONTINUOUS
 62
    30
 10
181.2103753754013
 20
113.7745333065195
 30
0.0
 11
169.2103753754013
 21
113.7745333065195
 31
0.0
  0
TEXT
  8
SIZE
  6
CONTINUOUS
 62
    30
 10
-73.632137631092874
 20
138.77453330651949
 30
0.0
 40
64.0
  1
363
 41
0.9
 72
     1
 11
0.4250052260499615
 21
138.77453330651949
 31
0.0
  0
POINT
  8
DEFPOINTS
  6
CONTINUOUS
 62
    30
 10
-181.85023142870409
 20
-3.51749076837541
 30
0.0
  0
POINT
  8
DEFPOINTS
  6
CONTINUOUS
 62
    30
 10
181.2103753754013
 20
-2.7980040202985492
 30
0.0
  0
POINT
  8
DEFPOINTS
  6
CONTINUOUS
 62
    30
 10
181.2103753754013
 20
113.7745333065195
 30
0.0
  0
CIRCLE
  8
FIX
  6
CONTINUOUS
 62
    11
 10
219.9896682015324
 20
-164.76246530959131
 30
0.0
 40
5.0
  0
LINE
  8
NOTE
  6
CONTINUOUS
 62
     4
 10
219.9896682015324
 20
-188.0858469761084
 30
0.0
 11
219.9896682015324
 21
-141.43908364307421
 31
0.0
  0
LINE
  8
NOTE
  6
CONTINUOUS
 62
     4
 10
249.3626910126161
 20
-164.76246530959131
 30
0.0
 11
191.1166453904485
 21
-164.76246530959131
 31
0.0
  0
CIRCLE
  8
FIX
  6
CONTINUOUS
 62
    11
 10
-220.0
 20
-164.76246530959131
 30
0.0
 40
5.0
  0
LINE
  8
NOTE
  6
CONTINUOUS
 62
     4
 10
-220.0
 20
-188.0858469761084
 30
0.0
 11
-220.0
 21
-141.43908364307421
 31
0.0
  0
LINE
  8
NOTE
  6
CONTINUOUS
 62
     4
 10
-191.37697718891619
 20
-164.76246530959131
 30
0.0
 11
-249.12302281108381
 21
-164.76246530959131
 31
0.0
  0
LINE
  8
SIZE
  6
CONTINUOUS
 62
    30
 10
-220.0
 20
-121.49613948493609
 30
0.0
 11
-219.99999999999989
 21
286.23040875037799
 31
0.0
  0
LINE
  8
SIZE
  6
CONTINUOUS
 62
    30
 10
219.9896682015324
 20
-121.51234462319211
 30
0.0
 11
219.9896682015324
 21
286.23040875037799
 31
0.0
  0
LINE
  8
SIZE
  6
CONTINUOUS
 62
    30
 10
-207.99999999999989
 20
266.23040875037799
 30
0.0
 11
207.9896682015324
 21
266.23040875037799
 31
0.0
  0
CIRCLE
  8
SIZE
  6
CONTINUOUS
 62
    30
 10
-219.99999999999989
 20
266.23040875037799
 30
0.0
 40
6.0
  0
LINE
  8
SIZE
  6
CONTINUOUS
 62
    30
 10
-219.99999999999989
 20
266.23040875037799
 30
0.0
 11
-207.99999999999989
 21
266.23040875037799
 31
0.0
  0
CIRCLE
  8
SIZE
  6
CONTINUOUS
 62
    30
 10
219.9896682015324
 20
266.23040875037799
 30
0.0
 40
6.0
  0
LINE
  8
SIZE
  6
CONTINUOUS
 62
    30
 10
219.9896682015324
 20
266.23040875037799
 30
0.0
 11
207.9896682015324
 21
266.23040875037799
 31
0.0
  0
TEXT
  8
SIZE
  6
CONTINUOUS
 62
    30
 10
-74.057142857142821
 20
291.23040875037799
 30
0.0
 40
64.0
  1
440
 41
0.9
 72
     1
 11
0.0000000000000284
 21
291.23040875037799
 31
0.0
  0
POINT
  8
DEFPOINTS
  6
CONTINUOUS
 62
    30
 10
-220.0
 20
-141.49613948493609
 30
0.0
  0
POINT
  8
DEFPOINTS
  6
CONTINUOUS
 62
    30
 10
219.9896682015324
 20
-141.51234462319209
 30
0.0
  0
POINT
  8
DEFPOINTS
  6
CONTINUOUS
 62
    30
 10
219.9896682015324
 20
266.23040875037799
 30
0.0
  0
LINE
  8
SIZE
  6
CONTINUOUS
 62
    30
 10
240.00914413757209
 20
-144.76246530959131
 30
0.0
 11
240.00914413757209
 21
425.36489992355752
 31
0.0
  0
LINE
  8
SIZE
  6
CONTINUOUS
 62
    30
 10
-239.92951344279851
 20
-144.76246530959131
 30
0.0
 11
-239.9295134427984
 21
425.36489992355752
 31
0.0
  0
LINE
  8
SIZE
  6
CONTINUOUS
 62
    30
 10
228.00914413757209
 20
405.36489992355752
 30
0.0
 11
-227.9295134427984
 21
405.36489992355752
 31
0.0
  0
CIRCLE
  8
SIZE
  6
CONTINUOUS
 62
    30
 10
240.00914413757209
 20
405.36489992355752
 30
0.0
 40
6.0
  0
LINE
  8
SIZE
  6
CONTINUOUS
 62
    30
 10
240.00914413757209
 20
405.36489992355752
 30
0.0
 11
228.00914413757209
 21
405.36489992355752
 31
0.0
  0
CIRCLE
  8
SIZE
  6
CONTINUOUS
 62
    30
 10
-239.9295134427984
 20
405.36489992355752
 30
0.0
 40
6.0
  0
LINE
  8
SIZE
  6
CONTINUOUS
 62
    30
 10
-239.9295134427984
 20
405.36489992355752
 30
0.0
 11
-227.9295134427984
 21
405.36489992355752
 31
0.0
  0
TEXT
  8
SIZE
  6
CONTINUOUS
 62
    30
 10
-74.082141115126134
 20
430.36489992355752
 30
0.0
 40
64.0
  1
480
 41
0.9
 72
     1
 11
-0.0249982579832988
 21
430.36489992355752
 31
0.0
  0
POINT
  8
DEFPOINTS
  6
CONTINUOUS
 62
    30
 10
240.00914413757209
 20
-164.76246530959131
 30
0.0
  0
POINT
  8
DEFPOINTS
  6
CONTINUOUS
 62
    30
 10
-239.92951344279851
 20
-164.76246530959131
 30
0.0
  0
POINT
  8
DEFPOINTS
  6
CONTINUOUS
 62
    30
 10
-239.9295134427984
 20
405.36489992355752
 30
0.0
  0
LINE
  8
SIZE
  6
CONTINUOUS
 62
    30
 10
-189.9387285994319
 20
0.0
 30
0.0
 11
-312.17579164878958
 21
0.0000000000000568
 31
0.0
  0
LINE
  8
SIZE
  6
CONTINUOUS
 62
    30
 10
-199.93160010049951
 20
-349.59061659332542
 30
0.0
 11
-312.17579164878958
 21
-349.59061659332542
 31
0.0
  0
LINE
  8
SIZE
  6
CONTINUOUS
 62
    30
 10
-292.17579164878958
 20
-11.99999999999994
 30
0.0
 11
-292.17579164878958
 21
-337.59061659332542
 31
0.0
  0
CIRCLE
  8
SIZE
  6
CONTINUOUS
 62
    30
 10
-292.17579164878958
 20
0.0000000000000568
 30
0.0
 40
6.0
  0
LINE
  8
SIZE
  6
CONTINUOUS
 62
    30
 10
-292.17579164878958
 20
0.0000000000000568
 30
0.0
 11
-292.17579164878958
 21
-11.99999999999994
 31
0.0
  0
CIRCLE
  8
SIZE
  6
CONTINUOUS
 62
    30
 10
-292.17579164878958
 20
-349.59061659332542
 30
0.0
 40
6.0
  0
LINE
  8
SIZE
  6
CONTINUOUS
 62
    30
 10
-292.17579164878958
 20
-349.59061659332542
 30
0.0
 11
-292.17579164878958
 21
-337.59061659332542
 31
0.0
  0
TEXT
  8
SIZE
  6
CONTINUOUS
 62
    30
 10
-317.17579164878958
 20
-248.84710179733949
 30
0.0
 40
64.0
  1
350
 50
90.0
 41
0.9
 72
     1
 11
-317.17579164878958
 21
-174.7899589401967
 31
0.0
  0
POINT
  8
DEFPOINTS
  6
CONTINUOUS
 62
    30
 10
-169.9387285994319
 20
0.0
 30
0.0
  0
POINT
  8
DEFPOINTS
  6
CONTINUOUS
 62
    30
 10
-179.93160010049951
 20
-349.59061659332542
 30
0.0
  0
POINT
  8
DEFPOINTS
  6
CONTINUOUS
 62
    30
 10
-292.17579164878958
 20
-349.59061659332542
 30
0.0
  0
TEXT
  8
NOTE
  6
CONTINUOUS
 62
     4
 10
291.06854892364748
 20
54.300646847476401
 30
0.0
 40
64.0
  1
AH
 41
0.9
  0
LINE
  8
NOTE
  6
CONTINUOUS
 62
     4
 10
223.32902578322691
 20
-159.5247759114331
 30
0.0
 11
219.9896682015324
 21
-164.76246530959131
 31
0.0
  0
LINE
  8
NOTE
  6
CONTINUOUS
 62
     4
 10
219.9896682015324
 20
-164.76246530959131
 30
0.0
 11
220.26278264895379
 21
-158.55681403123151
 31
0.0
  0
LINE
  8
NOTE
  6
CONTINUOUS
 62
     4
 10
219.9896682015324
 20
-164.76246530959131
 30
0.0
 11
223.60214023064839
 21
-153.31912463307319
 31
0.0
  0
LINE
  8
NOTE
  6
CONTINUOUS
 62
     4
 10
223.60214023064839
 20
-153.31912463307319
 30
0.0
 11
284.33058220553181
 21
37.468395485975861
 31
0.0
  0
LINE
  8
NOTE
  6
CONTINUOUS
 62
     4
 10
284.33058220553181
 20
37.468395485975861
 30
0.0
 11
420.07343934838877
 21
37.468395485975861
 31
0.0
  0
TEXT
  8
NOTE
  6
CONTINUOUS
 62
     4
 10
-50.042905919323793
 20
-208.43476105769099
 30
0.0
 40
64.0
  1
RA
 41
0.9
 72
     1
 11
0.6999512235333611
 21
-208.43476105769099
 31
0.0
  0
LINE
  8
SIZE
  6
CONTINUOUS
 62
    30
 10
549.52971485861735
 20
-106.7840525366904
 30
0.0
 11
115.1104174946682
 21
-160.89652247154669
 31
0.0
  0
LINE
  8
SIZE
  6
CONTINUOUS
 62
    30
 10
-115.1104174946682
 20
-189.57346681387199
 30
0.0
 11
-127.01839171825451
 21
-191.05675703847501
 31
0.0
  0
TEXT
  8
SIZE
  6
CONTINUOUS
 62
    30
 10
308.7847137074906
 20
-111.5787141439033
 30
0.0
 40
64.0
  1
φ208
 50
7.1003488549216058
 41
0.9
 72
     1
 11
422.28471945001661
 21
-97.440839317401299
 31
0.0
  0
LINE
  8
SIZE
  6
CONTINUOUS
 62
    30
 10
-103.2024432710818
 20
-188.09017658926899
 30
0.0
 11
103.2024432710818
 21
-162.3798126961498
 31
0.0
  0
CIRCLE
  8
SIZE
  6
CONTINUOUS
 62
    30
 10
-103.2024432710818
 20
-188.09017658926899
 30
0.0
 40
6.0
  0
LINE
  8
SIZE
  6
CONTINUOUS
 62
    30
 10
-103.2024432710818
 20
-188.09017658926899
 30
0.0
 11
-115.1104174946682
 21
-189.57346681387199
 31
0.0
  0
CIRCLE
  8
SIZE
  6
CONTINUOUS
 62
    30
 10
103.2024432710818
 20
-162.3798126961498
 30
0.0
 40
6.0
  0
LINE
  8
SIZE
  6
CONTINUOUS
 62
    30
 10
103.2024432710818
 20
-162.3798126961498
 30
0.0
 11
115.1104174946681
 21
-160.89652247154669
 31
0.0
  0
POINT
  8
DEFPOINTS
  6
CONTINUOUS
 62
    30
 10
103.2024432710818
 20
-162.3798126961498
 30
0.0
  0
POINT
  8
DEFPOINTS
  6
CONTINUOUS
 62
    30
 10
-103.2024432710818
 20
-188.09017658926899
 30
0.0
  0
LINE
  8
SIZE
  6
CONTINUOUS
 62
    30
 10
489.27237520268
 20
-348.77539155535112
 30
0.0
 11
101.78694127970461
 21
-211.33788351495841
 31
0.0
  0
LINE
  8
SIZE
  6
CONTINUOUS
 62
    30
 10
-101.78694127970461
 20
-139.1321057704603
 30
0.0
 11
-113.09660142189411
 21
-135.12067367354379
 31
0.0
  0
TEXT
  8
SIZE
  6
CONTINUOUS
 62
    30
 10
282.25589743016269
 20
-248.8225610268421
 30
0.0
 40
64.0
  1
φ192
 50
340.47087367878862
 41
0.9
 72
     1
 11
384.88298489185848
 21
-285.22344199771919
 31
0.0
  0
LINE
  8
SIZE
  6
CONTINUOUS
 62
    30
 10
-90.477281137515234
 20
-143.14353786737689
 30
0.0
 11
90.477281137515263
 21
-207.3264514180419
 31
0.0
  0
CIRCLE
  8
SIZE
  6
CONTINUOUS
 62
    30
 10
-90.477281137515234
 20
-143.14353786737689
 30
0.0
 40
6.0
  0
LINE
  8
SIZE
  6
CONTINUOUS
 62
    30
 10
-90.477281137515234
 20
-143.14353786737689
 30
0.0
 11
-101.78694127970461
 21
-139.1321057704603
 31
0.0
  0
CIRCLE
  8
SIZE
  6
CONTINUOUS
 62
    30
 10
90.477281137515263
 20
-207.3264514180419
 30
0.0
 40
6.0
  0
LINE
  8
SIZE
  6
CONTINUOUS
 62
    30
 10
90.477281137515263
 20
-207.3264514180419
 30
0.0
 11
101.78694127970461
 21
-211.33788351495849
 31
0.0
  0
POINT
  8
DEFPOINTS
  6
CONTINUOUS
 62
    30
 10
90.477281137515263
 20
-207.3264514180419
 30
0.0
  0
POINT
  8
DEFPOINTS
  6
CONTINUOUS
 62
    30
 10
-90.477281137515234
 20
-143.14353786737689
 30
0.0
  0
LINE
  8
DETAIL
  6
CONTINUOUS
 62
     5
 10
74.986507744006531
 20
-263.17226385209869
 30
0.0
 11
75.46616557605762
 21
-263.41209276812418
 31
0.0
  0
LINE
  8
DETAIL
  6
CONTINUOUS
 62
     5
 10
76.745253128194008
 20
-263.65192168414973
 30
0.0
 11
76.505424212168464
 21
-263.97169357218399
 31
0.0
  0
LINE
  8
DETAIL
  6
CONTINUOUS
 62
     5
 10
76.505424212168464
 20
-263.97169357218399
 30
0.0
 11
76.265595296142919
 21
-263.97169357218399
 31
0.0
  0
LINE
  8
DETAIL
  6
CONTINUOUS
 62
     5
 10
76.265595296142919
 20
-263.97169357218399
 30
0.0
 11
76.02576638011692
 21
-263.97169357218399
 31
0.0
  0
LINE
  8
DETAIL
  6
CONTINUOUS
 62
     5
 10
76.02576638011692
 20
-263.97169357218399
 30
0.0
 11
75.705994492083164
 21
-263.65192168414973
 31
0.0
  0
LINE
  8
DETAIL
  6
CONTINUOUS
 62
     5
 10
75.705994492083164
 20
-263.65192168414973
 30
0.0
 11
75.46616557605762
 21
-263.41209276812418
 31
0.0
  0
LINE
  8
DETAIL
  6
CONTINUOUS
 62
     5
 10
74.027192079903898
 20
-264.85106626427802
 30
0.0
 11
74.027192079903898
 21
-265.17083815231189
 31
0.0
  0
LINE
  8
DETAIL
  6
CONTINUOUS
 62
     5
 10
74.027192079903898
 20
-265.17083815231189
 30
0.0
 11
74.027192079903898
 21
-265.33072409632888
 31
0.0
  0
LINE
  8
DETAIL
  6
CONTINUOUS
 62
     5
 10
74.027192079903898
 20
-265.33072409632888
 30
0.0
 11
74.027192079903898
 21
-265.65049598436298
 31
0.0
  0
LINE
  8
DETAIL
  6
CONTINUOUS
 62
     5
 10
74.027192079903898
 20
-265.65049598436298
 30
0.0
 11
74.027192079903898
 21
-265.97026787239719
 31
0.0
  0
LINE
  8
DETAIL
  6
CONTINUOUS
 62
     5
 10
74.027192079903898
 20
-265.97026787239719
 30
0.0
 11
73.787363163878354
 21
-266.13015381641412
 31
0.0
  0
LINE
  8
DETAIL
  6
CONTINUOUS
 62
     5
 10
73.547534247852809
 20
-264.45135140423508
 30
0.0
 11
73.547534247852809
 21
-264.13157951620087
 31
0.0
  0
LINE
  8
DETAIL
  6
CONTINUOUS
 62
     5
 10
73.547534247852809
 20
-264.13157951620087
 30
0.0
 11
73.227762359818826
 21
-263.97169357218399
 31
0.0
  0
LINE
  8
DETAIL
  6
CONTINUOUS
 62
     5
 10
73.227762359818826
 20
-263.97169357218399
 30
0.0
 11
73.547534247852809
 21
-263.65192168414973
 31
0.0
  0
LINE
  8
DETAIL
  6
CONTINUOUS
 62
     5
 10
73.547534247852809
 20
-263.65192168414973
 30
0.0
 11
73.547534247852809
 21
-263.17226385209869
 31
0.0
  0
LINE
  8
DETAIL
  6
CONTINUOUS
 62
     5
 10
73.547534247852809
 20
-263.17226385209869
 30
0.0
 11
73.787363163878354
 21
-262.85249196406431
 31
0.0
  0
LINE
  8
DETAIL
  6
CONTINUOUS
 62
     5
 10
73.787363163878354
 20
-262.85249196406431
 30
0.0
 11
74.027192079903898
 21
-262.85249196406431
 31
0.0
  0
LINE
  8
DETAIL
  6
CONTINUOUS
 62
     5
 10
74.027192079903898
 20
-262.85249196406431
 30
0.0
 11
74.267020995929443
 21
-262.85249196406431
 31
0.0
  0
LINE
  8
DETAIL
  6
CONTINUOUS
 62
     5
 10
74.267020995929443
 20
-262.85249196406431
 30
0.0
 11
74.426906939946775
 21
-262.85249196406431
 31
0.0
  0
LINE
  8
DETAIL
  6
CONTINUOUS
 62
     5
 10
74.426906939946775
 20
-262.85249196406431
 30
0.0
 11
74.986507744006531
 21
-262.85249196406431
 31
0.0
  0
LINE
  8
DETAIL
  6
CONTINUOUS
 62
     5
 10
74.986507744006531
 20
-262.85249196406431
 30
0.0
 11
74.986507744006531
 21
-263.17226385209869
 31
0.0
  0
LINE
  8
DETAIL
  6
CONTINUOUS
 62
     5
 10
73.547534247852809
 20
-264.45135140423508
 30
0.0
 11
74.027192079903898
 21
-264.85106626427802
 31
0.0
  0
LINE
  8
DETAIL
  6
CONTINUOUS
 62
     5
 10
-75.066450716014515
 20
-263.17226385209869
 30
0.0
 11
-74.746678827980759
 21
-262.85249196406431
 31
0.0
  0
LINE
  8
DETAIL
  6
CONTINUOUS
 62
     5
 10
-74.746678827980759
 20
-262.85249196406431
 30
0.0
 11
-74.586792883963426
 21
-262.85249196406431
 31
0.0
  0
LINE
  8
DETAIL
  6
CONTINUOUS
 62
     5
 10
-74.586792883963426
 20
-262.85249196406431
 30
0.0
 11
-74.027192079903671
 21
-262.85249196406431
 31
0.0
  0
LINE
  8
DETAIL
  6
CONTINUOUS
 62
     5
 10
-74.027192079903671
 20
-262.85249196406431
 30
0.0
 11
-73.787363163878126
 21
-262.85249196406431
 31
0.0
  0
LINE
  8
DETAIL
  6
CONTINUOUS
 62
     5
 10
-73.787363163878126
 20
-262.85249196406431
 30
0.0
 11
-73.46759127584437
 21
-263.17226385209869
 31
0.0
  0
LINE
  8
DETAIL
  6
CONTINUOUS
 62
     5
 10
-73.46759127584437
 20
-263.17226385209869
 30
0.0
 11
-73.227762359818826
 21
-263.41209276812418
 31
0.0
  0
LINE
  8
DETAIL
  6
CONTINUOUS
 62
     5
 10
-73.227762359818826
 20
-263.41209276812418
 30
0.0
 11
-73.227762359818826
 21
-263.97169357218399
 31
0.0
  0
LINE
  8
DETAIL
  6
CONTINUOUS
 62
     5
 10
-73.227762359818826
 20
-263.97169357218399
 30
0.0
 11
-73.227762359818826
 21
-264.13157951620087
 31
0.0
  0
LINE
  8
DETAIL
  6
CONTINUOUS
 62
     5
 10
-73.227762359818826
 20
-264.13157951620087
 30
0.0
 11
-73.46759127584437
 21
-264.45135140423508
 31
0.0
  0
LINE
  8
DETAIL
  6
CONTINUOUS
 62
     5
 10
-75.066450716014515
 20
-263.17226385209869
 30
0.0
 11
-75.226336660031848
 21
-263.41209276812418
 31
0.0
  0
LINE
  8
DETAIL
  6
CONTINUOUS
 62
     5
 10
-75.226336660031848
 20
-263.41209276812418
 30
0.0
 11
-75.466165576057392
 21
-263.65192168414973
 31
0.0
  0
LINE
  8
DETAIL
  6
CONTINUOUS
 62
     5
 10
-75.466165576057392
 20
-263.65192168414973
 30
0.0
 11
-75.945823408108481
 21
-263.97169357218399
 31
0.0
  0
LINE
  8
DETAIL
  6
CONTINUOUS
 62
     5
 10
-75.945823408108481
 20
-263.97169357218399
 30
0.0
 11
-76.265595296142692
 21
-263.97169357218399
 31
0.0
  0
LINE
  8
DETAIL
  6
CONTINUOUS
 62
     5
 10
-76.265595296142692
 20
-263.97169357218399
 30
0.0
 11
-76.585367184176903
 21
-263.97169357218399
 31
0.0
  0
LINE
  8
DETAIL
  6
CONTINUOUS
 62
     5
 10
-76.585367184176903
 20
-263.97169357218399
 30
0.0
 11
-76.745253128193781
 21
-263.65192168414973
 31
0.0
  0
LINE
  8
DETAIL
  6
CONTINUOUS
 62
     5
 10
-73.46759127584437
 20
-264.45135140423508
 30
0.0
 11
-73.787363163878126
 21
-264.85106626427802
 31
0.0
  0
LINE
  8
DETAIL
  6
CONTINUOUS
 62
     5
 10
-73.787363163878126
 20
-266.13015381641412
 30
0.0
 11
-74.027192079903671
 21
-265.97026787239719
 31
0.0
  0
LINE
  8
DETAIL
  6
CONTINUOUS
 62
     5
 10
-74.027192079903671
 20
-265.97026787239719
 30
0.0
 11
-74.027192079903671
 21
-265.65049598436298
 31
0.0
  0
LINE
  8
DETAIL
  6
CONTINUOUS
 62
     5
 10
-74.027192079903671
 20
-265.65049598436298
 30
0.0
 11
-74.027192079903671
 21
-265.33072409632888
 31
0.0
  0
LINE
  8
DETAIL
  6
CONTINUOUS
 62
     5
 10
-74.027192079903671
 20
-265.33072409632888
 30
0.0
 11
-74.027192079903671
 21
-265.17083815231189
 31
0.0
  0
LINE
  8
DETAIL
  6
CONTINUOUS
 62
     5
 10
-74.027192079903671
 20
-265.17083815231189
 30
0.0
 11
-73.787363163878126
 21
-264.85106626427802
 31
0.0
  0
LINE
  8
DETAIL
  6
CONTINUOUS
 62
     5
 10
74.986507744006531
 20
-87.217782461312026
 30
0.0
 11
75.46616557605762
 21
-86.977953545286482
 31
0.0
  0
LINE
  8
DETAIL
  6
CONTINUOUS
 62
     5
 10
75.46616557605762
 20
-86.977953545286482
 30
0.0
 11
75.705994492083164
 21
-86.73812462926071
 31
0.0
  0
LINE
  8
DETAIL
  6
CONTINUOUS
 62
     5
 10
75.705994492083164
 20
-86.73812462926071
 30
0.0
 11
76.02576638011692
 21
-86.578238685243832
 31
0.0
  0
LINE
  8
DETAIL
  6
CONTINUOUS
 62
     5
 10
76.02576638011692
 20
-86.578238685243832
 30
0.0
 11
76.265595296142919
 21
-86.578238685243832
 31
0.0
  0
LINE
  8
DETAIL
  6
CONTINUOUS
 62
     5
 10
76.265595296142919
 20
-86.578238685243832
 30
0.0
 11
76.505424212168464
 21
-86.73812462926071
 31
0.0
  0
LINE
  8
DETAIL
  6
CONTINUOUS
 62
     5
 10
76.505424212168464
 20
-86.73812462926071
 30
0.0
 11
76.745253128194008
 21
-86.73812462926071
 31
0.0
  0
LINE
  8
DETAIL
  6
CONTINUOUS
 62
     5
 10
73.787363163878354
 20
-84.259892496996372
 30
0.0
 11
74.027192079903898
 21
-84.41977844101325
 31
0.0
  0
LINE
  8
DETAIL
  6
CONTINUOUS
 62
     5
 10
74.027192079903898
 20
-84.41977844101325
 30
0.0
 11
74.027192079903898
 21
-84.739550329047461
 31
0.0
  0
LINE
  8
DETAIL
  6
CONTINUOUS
 62
     5
 10
74.027192079903898
 20
-84.739550329047461
 30
0.0
 11
74.027192079903898
 21
-85.059322217081444
 31
0.0
  0
LINE
  8
DETAIL
  6
CONTINUOUS
 62
     5
 10
74.027192079903898
 20
-85.059322217081444
 30
0.0
 11
74.027192079903898
 21
-85.21920816109855
 31
0.0
  0
LINE
  8
DETAIL
  6
CONTINUOUS
 62
     5
 10
74.027192079903898
 20
-85.21920816109855
 30
0.0
 11
74.027192079903898
 21
-85.778808965158305
 31
0.0
  0
LINE
  8
DETAIL
  6
CONTINUOUS
 62
     5
 10
74.986507744006531
 20
-87.217782461312026
 30
0.0
 11
74.986507744006531
 21
-87.537554349346237
 31
0.0
  0
LINE
  8
DETAIL
  6
CONTINUOUS
 62
     5
 10
74.986507744006531
 20
-87.537554349346237
 30
0.0
 11
74.426906939946775
 21
-87.697440293363115
 31
0.0
  0
LINE
  8
DETAIL
  6
CONTINUOUS
 62
     5
 10
74.426906939946775
 20
-87.697440293363115
 30
0.0
 11
74.267020995929443
 21
-87.697440293363115
 31
0.0
  0
LINE
  8
DETAIL
  6
CONTINUOUS
 62
     5
 10
74.267020995929443
 20
-87.697440293363115
 30
0.0
 11
74.027192079903898
 21
-87.537554349346237
 31
0.0
  0
LINE
  8
DETAIL
  6
CONTINUOUS
 62
     5
 10
74.027192079903898
 20
-87.537554349346237
 30
0.0
 11
73.787363163878354
 21
-87.537554349346237
 31
0.0
  0
LINE
  8
DETAIL
  6
CONTINUOUS
 62
     5
 10
73.787363163878354
 20
-87.537554349346237
 30
0.0
 11
73.547534247852809
 21
-87.217782461312026
 31
0.0
  0
LINE
  8
DETAIL
  6
CONTINUOUS
 62
     5
 10
73.547534247852809
 20
-87.217782461312026
 30
0.0
 11
73.547534247852809
 21
-86.977953545286482
 31
0.0
  0
LINE
  8
DETAIL
  6
CONTINUOUS
 62
     5
 10
73.547534247852809
 20
-86.977953545286482
 30
0.0
 11
73.227762359818826
 21
-86.578238685243832
 31
0.0
  0
LINE
  8
DETAIL
  6
CONTINUOUS
 62
     5
 10
73.227762359818826
 20
-86.578238685243832
 30
0.0
 11
73.547534247852809
 21
-86.258466797209621
 31
0.0
  0
LINE
  8
DETAIL
  6
CONTINUOUS
 62
     5
 10
73.547534247852809
 20
-86.258466797209621
 30
0.0
 11
73.547534247852809
 21
-85.93869490917541
 31
0.0
  0
LINE
  8
DETAIL
  6
CONTINUOUS
 62
     5
 10
73.547534247852809
 20
-85.93869490917541
 30
0.0
 11
74.027192079903898
 21
-85.778808965158305
 31
0.0
  0
LINE
  8
DETAIL
  6
CONTINUOUS
 62
     5
 10
-73.787363163878126
 20
-85.778808965158305
 30
0.0
 11
-74.027192079903671
 21
-85.21920816109855
 31
0.0
  0
LINE
  8
DETAIL
  6
CONTINUOUS
 62
     5
 10
-74.027192079903671
 20
-85.21920816109855
 30
0.0
 11
-74.027192079903671
 21
-85.059322217081444
 31
0.0
  0
LINE
  8
DETAIL
  6
CONTINUOUS
 62
     5
 10
-74.027192079903671
 20
-85.059322217081444
 30
0.0
 11
-74.027192079903671
 21
-84.739550329047461
 31
0.0
  0
LINE
  8
DETAIL
  6
CONTINUOUS
 62
     5
 10
-74.027192079903671
 20
-84.739550329047461
 30
0.0
 11
-74.027192079903671
 21
-84.41977844101325
 31
0.0
  0
LINE
  8
DETAIL
  6
CONTINUOUS
 62
     5
 10
-74.027192079903671
 20
-84.41977844101325
 30
0.0
 11
-73.787363163878126
 21
-84.259892496996372
 31
0.0
  0
LINE
  8
DETAIL
  6
CONTINUOUS
 62
     5
 10
-76.745253128193781
 20
-86.73812462926071
 30
0.0
 11
-76.585367184176903
 21
-86.73812462926071
 31
0.0
  0
LINE
  8
DETAIL
  6
CONTINUOUS
 62
     5
 10
-76.585367184176903
 20
-86.73812462926071
 30
0.0
 11
-76.265595296142692
 21
-86.578238685243832
 31
0.0
  0
LINE
  8
DETAIL
  6
CONTINUOUS
 62
     5
 10
-76.265595296142692
 20
-86.578238685243832
 30
0.0
 11
-75.945823408108481
 21
-86.578238685243832
 31
0.0
  0
LINE
  8
DETAIL
  6
CONTINUOUS
 62
     5
 10
-75.945823408108481
 20
-86.578238685243832
 30
0.0
 11
-75.466165576057392
 21
-86.73812462926071
 31
0.0
  0
LINE
  8
DETAIL
  6
CONTINUOUS
 62
     5
 10
-75.466165576057392
 20
-86.73812462926071
 30
0.0
 11
-75.226336660031848
 21
-86.977953545286482
 31
0.0
  0
LINE
  8
DETAIL
  6
CONTINUOUS
 62
     5
 10
-73.46759127584437
 20
-85.93869490917541
 30
0.0
 11
-73.227762359818826
 21
-86.258466797209621
 31
0.0
  0
LINE
  8
DETAIL
  6
CONTINUOUS
 62
     5
 10
-73.227762359818826
 20
-86.258466797209621
 30
0.0
 11
-73.227762359818826
 21
-86.73812462926071
 31
0.0
  0
LINE
  8
DETAIL
  6
CONTINUOUS
 62
     5
 10
-73.227762359818826
 20
-86.73812462926071
 30
0.0
 11
-73.227762359818826
 21
-86.977953545286482
 31
0.0
  0
LINE
  8
DETAIL
  6
CONTINUOUS
 62
     5
 10
-73.227762359818826
 20
-86.977953545286482
 30
0.0
 11
-73.46759127584437
 21
-87.217782461312026
 31
0.0
  0
LINE
  8
DETAIL
  6
CONTINUOUS
 62
     5
 10
-73.46759127584437
 20
-87.217782461312026
 30
0.0
 11
-73.787363163878126
 21
-87.537554349346237
 31
0.0
  0
LINE
  8
DETAIL
  6
CONTINUOUS
 62
     5
 10
-73.787363163878126
 20
-87.537554349346237
 30
0.0
 11
-74.027192079903671
 21
-87.697440293363115
 31
0.0
  0
LINE
  8
DETAIL
  6
CONTINUOUS
 62
     5
 10
-74.027192079903671
 20
-87.697440293363115
 30
0.0
 11
-74.586792883963426
 21
-87.697440293363115
 31
0.0
  0
LINE
  8
DETAIL
  6
CONTINUOUS
 62
     5
 10
-74.586792883963426
 20
-87.697440293363115
 30
0.0
 11
-74.746678827980759
 21
-87.537554349346237
 31
0.0
  0
LINE
  8
DETAIL
  6
CONTINUOUS
 62
     5
 10
-74.746678827980759
 20
-87.537554349346237
 30
0.0
 11
-75.066450716014515
 21
-87.217782461312026
 31
0.0
  0
LINE
  8
DETAIL
  6
CONTINUOUS
 62
     5
 10
-73.46759127584437
 20
-85.93869490917541
 30
0.0
 11
-73.787363163878126
 21
-85.778808965158305
 31
0.0
  0
LINE
  8
DETAIL
  6
CONTINUOUS
 62
     5
 10
-75.066450716014515
 20
-87.217782461312026
 30
0.0
 11
-75.226336660031848
 21
-86.977953545286482
 31
0.0
  0
LINE
  8
DETAIL
  6
CONTINUOUS
 62
     5
 10
-33.576048243584857
 20
-63.154947886743003
 30
0.0
 11
-32.856561495507783
 21
-62.835175998708557
 31
0.0
  0
LINE
  8
DETAIL
  6
CONTINUOUS
 62
     5
 10
-32.856561495507783
 20
-62.835175998708557
 30
0.0
 11
-32.376903663456687
 21
-63.154947886743003
 31
0.0
  0
LINE
  8
DETAIL
  6
CONTINUOUS
 62
     5
 10
-32.376903663456687
 20
-63.154947886743003
 30
0.0
 11
-31.65741691538005
 21
-63.314833830759881
 31
0.0
  0
LINE
  8
DETAIL
  6
CONTINUOUS
 62
     5
 10
-31.65741691538005
 20
-63.314833830759881
 30
0.0
 11
-31.417587999354051
 21
-63.794491662811197
 31
0.0
  0
LINE
  8
DETAIL
  6
CONTINUOUS
 62
     5
 10
-31.417587999354051
 20
-63.794491662811197
 30
0.0
 11
-31.09781611131984
 21
-64.51397841088783
 31
0.0
  0
LINE
  8
DETAIL
  6
CONTINUOUS
 62
     5
 10
-19.4261421980741
 20
-61.79591736259772
 30
0.0
 11
-19.4261421980741
 21
-61.316259530546397
 31
0.0
  0
LINE
  8
DETAIL
  6
CONTINUOUS
 62
     5
 10
-19.4261421980741
 20
-61.316259530546397
 30
0.0
 11
-19.266256254057229
 21
-60.59677278246977
 31
0.0
  0
LINE
  8
DETAIL
  6
CONTINUOUS
 62
     5
 10
-19.266256254057229
 20
-60.59677278246977
 30
0.0
 11
-18.946484366023011
 21
-60.117114950418447
 31
0.0
  0
LINE
  8
DETAIL
  6
CONTINUOUS
 62
     5
 10
-18.946484366023011
 20
-60.117114950418447
 30
0.0
 11
-18.466826533971929
 21
-59.557514146358933
 31
0.0
  0
LINE
  8
DETAIL
  6
CONTINUOUS
 62
     5
 10
-18.466826533971929
 20
-59.557514146358933
 30
0.0
 11
-17.747339785894841
 21
-59.557514146358933
 31
0.0
  0
LINE
  8
DETAIL
  6
CONTINUOUS
 62
     5
 10
106.6439246593864
 20
-195.54050953287739
 30
0.0
 11
106.4040957433604
 21
-196.1800533089457
 31
0.0
  0
LINE
  8
DETAIL
  6
CONTINUOUS
 62
     5
 10
106.4040957433604
 20
-204.01446456578239
 30
0.0
 11
106.6439246593864
 21
-204.81389428586769
 31
0.0
  0
LINE
  8
DETAIL
  6
CONTINUOUS
 62
     5
 10
-106.48403871536949
 20
-224.31997945595029
 30
0.0
 11
-106.6439246593864
 21
-223.6004927078736
 31
0.0
  0
LINE
  8
DETAIL
  6
CONTINUOUS
 62
     5
 10
-106.6439246593864
 20
-223.6004927078736
 30
0.0
 11
-106.6439246593864
 21
-222.96094893180501
 31
0.0
  0
LINE
  8
DETAIL
  6
CONTINUOUS
 62
     5
 10
-106.6439246593864
 20
-127.4290973816055
 30
0.0
 11
-106.6439246593864
 21
-126.78955360553709
 31
0.0
  0
LINE
  8
DETAIL
  6
CONTINUOUS
 62
     5
 10
-106.6439246593864
 20
-126.78955360553709
 30
0.0
 11
-106.48403871536949
 21
-126.0700668574602
 31
0.0
  0
LINE
  8
DETAIL
  6
CONTINUOUS
 62
     5
 10
106.4040957433604
 20
-126.0700668574602
 30
0.0
 11
106.6439246593864
 21
-126.78955360553709
 31
0.0
  0
LINE
  8
DETAIL
  6
CONTINUOUS
 62
     5
 10
106.6439246593864
 20
-126.78955360553709
 30
0.0
 11
106.6439246593864
 21
-127.4290973816055
 31
0.0
  0
LINE
  8
DETAIL
  6
CONTINUOUS
 62
     5
 10
106.6439246593864
 20
-222.96094893180501
 30
0.0
 11
106.6439246593864
 21
-223.6004927078736
 31
0.0
  0
LINE
  8
DETAIL
  6
CONTINUOUS
 62
     5
 10
106.6439246593864
 20
-223.6004927078736
 30
0.0
 11
106.4040957433604
 21
-224.31997945595029
 31
0.0
  0
LINE
  8
DETAIL
  6
CONTINUOUS
 62
     5
 10
-17.747339785894841
 20
-59.557514146358933
 30
0.0
 11
-7.9942972008529978
 21
-58.358369566230749
 31
0.0
  0
LINE
  8
DETAIL
  6
CONTINUOUS
 62
     5
 10
-7.9942972008529978
 20
-58.358369566230749
 30
0.0
 11
1.758745384187705
 21
-58.118540650204977
 31
0.0
  0
LINE
  8
DETAIL
  6
CONTINUOUS
 62
     5
 10
1.758745384187705
 20
-58.118540650204977
 30
0.0
 11
11.431844997220651
 21
-58.518255510247847
 31
0.0
  0
LINE
  8
DETAIL
  6
CONTINUOUS
 62
     5
 10
11.431844997220651
 20
-58.518255510247847
 30
0.0
 11
21.264830554270929
 21
-60.117114950418447
 31
0.0
  0
LINE
  8
DETAIL
  6
CONTINUOUS
 62
     5
 10
21.264830554270929
 20
-60.117114950418447
 30
0.0
 11
30.61815827926921
 21
-62.035746278623257
 31
0.0
  0
LINE
  8
DETAIL
  6
CONTINUOUS
 62
     5
 10
30.61815827926921
 20
-62.035746278623257
 30
0.0
 11
39.891543032259051
 21
-65.073579214947586
 31
0.0
  0
LINE
  8
DETAIL
  6
CONTINUOUS
 62
     5
 10
39.891543032259051
 20
-65.073579214947586
 30
0.0
 11
48.845155897215363
 21
-68.830898899348995
 31
0.0
  0
LINE
  8
DETAIL
  6
CONTINUOUS
 62
     5
 10
48.845155897215363
 20
-68.830898899348995
 30
0.0
 11
57.47899687413701
 21
-73.30770533182681
 31
0.0
  0
LINE
  8
DETAIL
  6
CONTINUOUS
 62
     5
 10
57.47899687413701
 20
-73.30770533182681
 30
0.0
 11
66.112837851058885
 21
-78.503998512381486
 31
0.0
  0
LINE
  8
DETAIL
  6
CONTINUOUS
 62
     5
 10
66.112837851058885
 20
-78.503998512381486
 30
0.0
 11
73.787363163878354
 21
-84.259892496996372
 31
0.0
  0
LINE
  8
DETAIL
  6
CONTINUOUS
 62
     5
 10
-73.787363163878126
 20
-84.259892496996372
 30
0.0
 11
-66.272723795075763
 21
-78.743827428407258
 31
0.0
  0
LINE
  8
DETAIL
  6
CONTINUOUS
 62
     5
 10
-66.272723795075763
 20
-78.743827428407258
 30
0.0
 11
-58.518255510248309
 21
-73.787363163878354
 31
0.0
  0
LINE
  8
DETAIL
  6
CONTINUOUS
 62
     5
 10
-58.518255510248309
 20
-73.787363163878354
 30
0.0
 11
-50.523958309394402
 21
-69.470442675416962
 31
0.0
  0
LINE
  8
DETAIL
  6
CONTINUOUS
 62
     5
 10
-50.523958309394402
 20
-69.470442675416962
 30
0.0
 11
-42.129946248498072
 21
-66.032894879049991
 31
0.0
  0
LINE
  8
DETAIL
  6
CONTINUOUS
 62
     5
 10
-42.129946248498072
 20
-66.032894879049991
 30
0.0
 11
-33.576048243584857
 21
-63.154947886743003
 31
0.0
  0
LINE
  8
DETAIL
  6
CONTINUOUS
 62
     5
 10
-76.745253128193781
 20
-263.65192168414973
 30
0.0
 11
-84.0200635809706
 21
-256.6968831194074
 31
0.0
  0
LINE
  8
DETAIL
  6
CONTINUOUS
 62
     5
 10
-84.0200635809706
 20
-256.6968831194074
 30
0.0
 11
-90.735273229687209
 21
-249.5020156386388
 31
0.0
  0
LINE
  8
DETAIL
  6
CONTINUOUS
 62
     5
 10
-90.735273229687209
 20
-249.5020156386388
 30
0.0
 11
-96.49116721430164
 21
-241.5077184377856
 31
0.0
  0
LINE
  8
DETAIL
  6
CONTINUOUS
 62
     5
 10
-96.49116721430164
 20
-241.5077184377856
 30
0.0
 11
-101.9272893108823
 21
-232.95382043287191
 31
0.0
  0
LINE
  8
DETAIL
  6
CONTINUOUS
 62
     5
 10
-101.9272893108823
 20
-232.95382043287191
 30
0.0
 11
-106.48403871536949
 21
-224.31997945595029
 31
0.0
  0
LINE
  8
DETAIL
  6
CONTINUOUS
 62
     5
 10
73.787363163878354
 20
-266.13015381641412
 30
0.0
 11
65.793065963025128
 21
-272.12587671705438
 31
0.0
  0
LINE
  8
DETAIL
  6
CONTINUOUS
 62
     5
 10
65.793065963025128
 20
-272.12587671705438
 30
0.0
 11
57.319110930120132
 21
-277.32216989760917
 31
0.0
  0
LINE
  8
DETAIL
  6
CONTINUOUS
 62
     5
 10
57.319110930120132
 20
-277.32216989760917
 30
0.0
 11
48.365498065164267
 21
-281.87891930209571
 31
0.0
  0
LINE
  8
DETAIL
  6
CONTINUOUS
 62
     5
 10
48.365498065164267
 20
-281.87891930209571
 30
0.0
 11
39.172056284182418
 21
-285.55629601448851
 31
0.0
  0
LINE
  8
DETAIL
  6
CONTINUOUS
 62
     5
 10
39.172056284182418
 20
-285.55629601448851
 30
0.0
 11
29.578899643158142
 21
-288.59412895081277
 31
0.0
  0
LINE
  8
DETAIL
  6
CONTINUOUS
 62
     5
 10
29.578899643158142
 20
-288.59412895081277
 30
0.0
 11
19.905800030125189
 21
-290.59270325102631
 31
0.0
  0
LINE
  8
DETAIL
  6
CONTINUOUS
 62
     5
 10
19.905800030125189
 20
-290.59270325102631
 30
0.0
 11
9.992871501066702
 21
-291.87179080316258
 31
0.0
  0
LINE
  8
DETAIL
  6
CONTINUOUS
 62
     5
 10
9.992871501066702
 20
-291.87179080316258
 30
0.0
 11
0.0
 21
-292.27150566320529
 31
0.0
  0
LINE
  8
DETAIL
  6
CONTINUOUS
 62
     5
 10
0.0
 20
-292.27150566320529
 30
0.0
 11
-9.9928715010664746
 21
-291.87179080316258
 31
0.0
  0
LINE
  8
DETAIL
  6
CONTINUOUS
 62
     5
 10
-9.9928715010664746
 20
-291.87179080316258
 30
0.0
 11
-19.745914086108311
 21
-290.59270325102631
 31
0.0
  0
LINE
  8
DETAIL
  6
CONTINUOUS
 62
     5
 10
-19.745914086108311
 20
-290.59270325102631
 30
0.0
 11
-29.738785587174789
 21
-288.59412895081277
 31
0.0
  0
LINE
  8
DETAIL
  6
CONTINUOUS
 62
     5
 10
-29.738785587174789
 20
-288.59412895081277
 30
0.0
 11
-39.172056284182418
 21
-285.55629601448851
 31
0.0
  0
LINE
  8
DETAIL
  6
CONTINUOUS
 62
     5
 10
-39.172056284182418
 20
-285.55629601448851
 30
0.0
 11
-48.365498065164047
 21
-281.87891930209571
 31
0.0
  0
LINE
  8
DETAIL
  6
CONTINUOUS
 62
     5
 10
-48.365498065164047
 20
-281.87891930209571
 30
0.0
 11
-57.319110930119678
 21
-277.32216989760917
 31
0.0
  0
LINE
  8
DETAIL
  6
CONTINUOUS
 62
     5
 10
-57.319110930119678
 20
-277.32216989760917
 30
0.0
 11
-65.793065963024674
 21
-272.12587671705438
 31
0.0
  0
LINE
  8
DETAIL
  6
CONTINUOUS
 62
     5
 10
-65.793065963024674
 20
-272.12587671705438
 30
0.0
 11
-73.787363163878126
 21
-266.13015381641412
 31
0.0
  0
LINE
  8
DETAIL
  6
CONTINUOUS
 62
     5
 10
76.745253128194008
 20
-86.73812462926071
 30
0.0
 11
84.020063580971055
 21
-93.693163194003318
 31
0.0
  0
LINE
  8
DETAIL
  6
CONTINUOUS
 62
     5
 10
84.020063580971055
 20
-93.693163194003318
 30
0.0
 11
90.655330257679452
 21
-100.8880306747717
 31
0.0
  0
LINE
  8
DETAIL
  6
CONTINUOUS
 62
     5
 10
90.655330257679452
 20
-100.8880306747717
 30
0.0
 11
96.651053158319655
 21
-108.9622708476336
 31
0.0
  0
LINE
  8
DETAIL
  6
CONTINUOUS
 62
     5
 10
96.651053158319655
 20
-108.9622708476336
 30
0.0
 11
101.8473463388743
 21
-117.4362258805384
 31
0.0
  0
LINE
  8
DETAIL
  6
CONTINUOUS
 62
     5
 10
101.8473463388743
 20
-117.4362258805384
 30
0.0
 11
106.4040957433604
 21
-126.0700668574602
 31
0.0
  0
LINE
  8
DETAIL
  6
CONTINUOUS
 62
     5
 10
106.4040957433604
 20
-204.01446456578239
 30
0.0
 11
105.36483710725
 21
-202.81531998565401
 31
0.0
  0
LINE
  8
DETAIL
  6
CONTINUOUS
 62
     5
 10
105.36483710725
 20
-202.81531998565401
 30
0.0
 11
104.88517927519889
 21
-201.136517573475
 31
0.0
  0
LINE
  8
DETAIL
  6
CONTINUOUS
 62
     5
 10
104.88517927519889
 20
-201.136517573475
 30
0.0
 11
104.88517927519889
 21
-199.3777721892873
 31
0.0
  0
LINE
  8
DETAIL
  6
CONTINUOUS
 62
     5
 10
104.88517927519889
 20
-199.3777721892873
 30
0.0
 11
105.36483710725
 21
-197.6989697771082
 31
0.0
  0
LINE
  8
DETAIL
  6
CONTINUOUS
 62
     5
 10
105.36483710725
 20
-197.6989697771082
 30
0.0
 11
106.4040957433604
 21
-196.1800533089457
 31
0.0
  0
LINE
  8
DETAIL
  6
CONTINUOUS
 62
     5
 10
-31.09781611131984
 20
-64.51397841088783
 30
0.0
 11
-30.618158279268751
 21
-65.793065963024446
 31
0.0
  0
LINE
  8
DETAIL
  6
CONTINUOUS
 62
     5
 10
-19.266256254057229
 20
-63.314833830759881
 30
0.0
 11
-18.946484366023011
 21
-65.313408130973357
 31
0.0
  0
LINE
  8
DETAIL
  6
CONTINUOUS
 62
     5
 10
-18.946484366023011
 20
-65.313408130973357
 30
0.0
 11
-19.745914086108311
 21
-67.311982431186834
 31
0.0
  0
LINE
  8
DETAIL
  6
CONTINUOUS
 62
     5
 10
-19.745914086108311
 20
-67.311982431186834
 30
0.0
 11
-20.94505866623604
 21
-68.830898899348995
 31
0.0
  0
LINE
  8
DETAIL
  6
CONTINUOUS
 62
     5
 10
-20.94505866623604
 20
-68.830898899348995
 30
0.0
 11
-22.703804050423511
 21
-69.7902145634514
 31
0.0
  0
LINE
  8
DETAIL
  6
CONTINUOUS
 62
     5
 10
-22.703804050423511
 20
-69.7902145634514
 30
0.0
 11
-24.702378350636991
 21
-70.269872395502716
 31
0.0
  0
LINE
  8
DETAIL
  6
CONTINUOUS
 62
     5
 10
-24.702378350636991
 20
-70.269872395502716
 30
0.0
 11
-26.700952650850919
 21
-70.109986451485383
 31
0.0
  0
LINE
  8
DETAIL
  6
CONTINUOUS
 62
     5
 10
-26.700952650850919
 20
-70.109986451485383
 30
0.0
 11
-28.379755063030188
 21
-69.310556731400084
 31
0.0
  0
LINE
  8
DETAIL
  6
CONTINUOUS
 62
     5
 10
-28.379755063030188
 20
-69.310556731400084
 30
0.0
 11
-29.898671531192122
 21
-67.791640263237923
 31
0.0
  0
LINE
  8
DETAIL
  6
CONTINUOUS
 62
     5
 10
-29.898671531192122
 20
-67.791640263237923
 30
0.0
 11
-30.618158279268751
 21
-65.793065963024446
 31
0.0
  0
LINE
  8
DETAIL
  6
CONTINUOUS
 62
     5
 10
-19.4261421980741
 20
-61.79591736259772
 30
0.0
 11
-19.266256254057229
 21
-63.314833830759881
 31
0.0
  0
LINE
  8
DETAIL
  6
CONTINUOUS
 62
     5
 10
-90.735273229687209
 20
-175.23499464270941
 30
0.0
 11
-90.175672425627909
 21
-165.4819520576682
 31
0.0
  0
LINE
  8
DETAIL
  6
CONTINUOUS
 62
     5
 10
-90.175672425627909
 20
-165.4819520576682
 30
0.0
 11
-88.416927041440431
 21
-155.72890947262681
 31
0.0
  0
LINE
  8
DETAIL
  6
CONTINUOUS
 62
     5
 10
-88.416927041440431
 20
-155.72890947262681
 30
0.0
 11
-85.93869490917541
 21
-146.3755817476283
 31
0.0
  0
LINE
  8
DETAIL
  6
CONTINUOUS
 62
     5
 10
-85.93869490917541
 20
-146.3755817476283
 30
0.0
 11
-82.261318196782668
 21
-137.10219699463821
 31
0.0
  0
LINE
  8
DETAIL
  6
CONTINUOUS
 62
     5
 10
-82.261318196782668
 20
-137.10219699463821
 30
0.0
 11
-77.704568792295959
 21
-128.30847007369931
 31
0.0
  0
LINE
  8
DETAIL
  6
CONTINUOUS
 62
     5
 10
-77.704568792295959
 20
-128.30847007369931
 30
0.0
 11
-72.268446695716193
 21
-120.3941158448542
 31
0.0
  0
LINE
  8
DETAIL
  6
CONTINUOUS
 62
     5
 10
-72.268446695716193
 20
-120.3941158448542
 30
0.0
 11
-65.793065963024674
 21
-112.9594194480608
 31
0.0
  0
LINE
  8
DETAIL
  6
CONTINUOUS
 62
     5
 10
-65.793065963024674
 20
-112.9594194480608
 30
0.0
 11
-58.838027398282073
 21
-106.1642668273348
 31
0.0
  0
LINE
  8
DETAIL
  6
CONTINUOUS
 62
     5
 10
-58.838027398282073
 20
-106.1642668273348
 30
0.0
 11
-50.843730197428158
 21
-100.1685439266948
 31
0.0
  0
LINE
  8
DETAIL
  6
CONTINUOUS
 62
     5
 10
-50.843730197428158
 20
-100.1685439266948
 30
0.0
 11
-42.369775164523617
 21
-94.972250746139935
 31
0.0
  0
LINE
  8
DETAIL
  6
CONTINUOUS
 62
     5
 10
-42.369775164523617
 20
-94.972250746139935
 30
0.0
 11
-33.576048243584857
 21
-90.895159173704769
 31
0.0
  0
LINE
  8
DETAIL
  6
CONTINUOUS
 62
     5
 10
-33.576048243584857
 20
-90.895159173704769
 30
0.0
 11
-24.222720518585898
 21
-87.697440293363115
 31
0.0
  0
LINE
  8
DETAIL
  6
CONTINUOUS
 62
     5
 10
-24.222720518585898
 20
-87.697440293363115
 30
0.0
 11
-14.78944982157873
 21
-85.778808965158305
 31
0.0
  0
LINE
  8
DETAIL
  6
CONTINUOUS
 62
     5
 10
-14.78944982157873
 20
-85.778808965158305
 30
0.0
 11
-4.9564642645289041
 21
-84.739550329047461
 31
0.0
  0
LINE
  8
DETAIL
  6
CONTINUOUS
 62
     5
 10
-4.9564642645289041
 20
-84.739550329047461
 30
0.0
 11
4.9564642645295862
 21
-84.739550329047461
 31
0.0
  0
LINE
  8
DETAIL
  6
CONTINUOUS
 62
     5
 10
4.9564642645295862
 20
-84.739550329047461
 30
0.0
 11
14.629563877562081
 21
-85.778808965158305
 31
0.0
  0
LINE
  8
DETAIL
  6
CONTINUOUS
 62
     5
 10
14.629563877562081
 20
-85.778808965158305
 30
0.0
 11
24.38260646260369
 21
-87.697440293363115
 31
0.0
  0
LINE
  8
DETAIL
  6
CONTINUOUS
 62
     5
 10
24.38260646260369
 20
-87.697440293363115
 30
0.0
 11
33.655991215593758
 21
-90.895159173704769
 31
0.0
  0
LINE
  8
DETAIL
  6
CONTINUOUS
 62
     5
 10
33.655991215593758
 20
-90.895159173704769
 30
0.0
 11
42.529661108540722
 21
-94.972250746139935
 31
0.0
  0
LINE
  8
DETAIL
  6
CONTINUOUS
 62
     5
 10
42.529661108540722
 20
-94.972250746139935
 30
0.0
 11
50.843730197429068
 21
-100.1685439266948
 31
0.0
  0
LINE
  8
DETAIL
  6
CONTINUOUS
 62
     5
 10
50.843730197429068
 20
-100.1685439266948
 30
0.0
 11
58.838027398282073
 21
-106.1642668273348
 31
0.0
  0
LINE
  8
DETAIL
  6
CONTINUOUS
 62
     5
 10
58.838027398282073
 20
-106.1642668273348
 30
0.0
 11
65.793065963025128
 21
-112.9594194480608
 31
0.0
  0
LINE
  8
DETAIL
  6
CONTINUOUS
 62
     5
 10
65.793065963025128
 20
-112.9594194480608
 30
0.0
 11
72.268446695716193
 21
-120.3941158448542
 31
0.0
  0
LINE
  8
DETAIL
  6
CONTINUOUS
 62
     5
 10
72.268446695716193
 20
-120.3941158448542
 30
0.0
 11
77.704568792296413
 21
-128.30847007369931
 31
0.0
  0
LINE
  8
DETAIL
  6
CONTINUOUS
 62
     5
 10
77.704568792296413
 20
-128.30847007369931
 30
0.0
 11
82.26131819678335
 21
-137.10219699463821
 31
0.0
  0
LINE
  8
DETAIL
  6
CONTINUOUS
 62
     5
 10
82.26131819678335
 20
-137.10219699463821
 30
0.0
 11
86.018637881184532
 21
-146.3755817476283
 31
0.0
  0
LINE
  8
DETAIL
  6
CONTINUOUS
 62
     5
 10
86.018637881184532
 20
-146.3755817476283
 30
0.0
 11
88.736698929474414
 21
-155.72890947262681
 31
0.0
  0
LINE
  8
DETAIL
  6
CONTINUOUS
 62
     5
 10
88.736698929474414
 20
-155.72890947262681
 30
0.0
 11
90.175672425628136
 21
-165.4819520576682
 31
0.0
  0
LINE
  8
DETAIL
  6
CONTINUOUS
 62
     5
 10
90.175672425628136
 20
-165.4819520576682
 30
0.0
 11
90.655330257679452
 21
-175.23499464270941
 31
0.0
  0
LINE
  8
DETAIL
  6
CONTINUOUS
 62
     5
 10
90.655330257679452
 20
-175.23499464270941
 30
0.0
 11
90.175672425628136
 21
-184.9080942557423
 31
0.0
  0
LINE
  8
DETAIL
  6
CONTINUOUS
 62
     5
 10
90.175672425628136
 20
-184.9080942557423
 30
0.0
 11
88.736698929474414
 21
-194.66113684078371
 31
0.0
  0
LINE
  8
DETAIL
  6
CONTINUOUS
 62
     5
 10
88.736698929474414
 20
-194.66113684078371
 30
0.0
 11
86.018637881184532
 21
-204.01446456578239
 31
0.0
  0
LINE
  8
DETAIL
  6
CONTINUOUS
 62
     5
 10
86.018637881184532
 20
-204.01446456578239
 30
0.0
 11
82.26131819678335
 21
-213.28784931877249
 31
0.0
  0
LINE
  8
DETAIL
  6
CONTINUOUS
 62
     5
 10
82.26131819678335
 20
-213.28784931877249
 30
0.0
 11
77.704568792296413
 21
-222.08157623971121
 31
0.0
  0
LINE
  8
DETAIL
  6
CONTINUOUS
 62
     5
 10
77.704568792296413
 20
-222.08157623971121
 30
0.0
 11
72.268446695716193
 21
-229.99593046855651
 31
0.0
  0
LINE
  8
DETAIL
  6
CONTINUOUS
 62
     5
 10
72.268446695716193
 20
-229.99593046855651
 30
0.0
 11
65.793065963025128
 21
-237.43062686535021
 31
0.0
  0
LINE
  8
DETAIL
  6
CONTINUOUS
 62
     5
 10
65.793065963025128
 20
-237.43062686535021
 30
0.0
 11
58.838027398282073
 21
-244.22577948607571
 31
0.0
  0
LINE
  8
DETAIL
  6
CONTINUOUS
 62
     5
 10
58.838027398282073
 20
-244.22577948607571
 30
0.0
 11
50.843730197429068
 21
-250.22150238671591
 31
0.0
  0
LINE
  8
DETAIL
  6
CONTINUOUS
 62
     5
 10
50.843730197429068
 20
-250.22150238671591
 30
0.0
 11
42.529661108540722
 21
-255.33785259526189
 31
0.0
  0
LINE
  8
DETAIL
  6
CONTINUOUS
 62
     5
 10
42.529661108540722
 20
-255.33785259526189
 30
0.0
 11
33.655991215593758
 21
-259.49488713970572
 31
0.0
  0
LINE
  8
DETAIL
  6
CONTINUOUS
 62
     5
 10
33.655991215593758
 20
-259.49488713970572
 30
0.0
 11
24.38260646260369
 21
-262.61266304803848
 31
0.0
  0
LINE
  8
DETAIL
  6
CONTINUOUS
 62
     5
 10
24.38260646260369
 20
-262.61266304803848
 30
0.0
 11
14.629563877562081
 21
-264.61123734825242
 31
0.0
  0
LINE
  8
DETAIL
  6
CONTINUOUS
 62
     5
 10
14.629563877562081
 20
-264.61123734825242
 30
0.0
 11
4.9564642645295862
 21
-265.97026787239719
 31
0.0
  0
LINE
  8
DETAIL
  6
CONTINUOUS
 62
     5
 10
4.9564642645295862
 20
-265.97026787239719
 30
0.0
 11
-4.9564642645289041
 21
-265.97026787239719
 31
0.0
  0
LINE
  8
DETAIL
  6
CONTINUOUS
 62
     5
 10
-4.9564642645289041
 20
-265.97026787239719
 30
0.0
 11
-14.78944982157873
 21
-264.61123734825242
 31
0.0
  0
LINE
  8
DETAIL
  6
CONTINUOUS
 62
     5
 10
-14.78944982157873
 20
-264.61123734825242
 30
0.0
 11
-24.222720518585898
 21
-262.61266304803848
 31
0.0
  0
LINE
  8
DETAIL
  6
CONTINUOUS
 62
     5
 10
-24.222720518585898
 20
-262.61266304803848
 30
0.0
 11
-33.576048243584857
 21
-259.49488713970572
 31
0.0
  0
LINE
  8
DETAIL
  6
CONTINUOUS
 62
     5
 10
-33.576048243584857
 20
-259.49488713970572
 30
0.0
 11
-42.369775164523617
 21
-255.33785259526189
 31
0.0
  0
LINE
  8
DETAIL
  6
CONTINUOUS
 62
     5
 10
-42.369775164523617
 20
-255.33785259526189
 30
0.0
 11
-50.843730197428158
 21
-250.22150238671591
 31
0.0
  0
LINE
  8
DETAIL
  6
CONTINUOUS
 62
     5
 10
-50.843730197428158
 20
-250.22150238671591
 30
0.0
 11
-58.838027398282073
 21
-244.22577948607571
 31
0.0
  0
LINE
  8
DETAIL
  6
CONTINUOUS
 62
     5
 10
-58.838027398282073
 20
-244.22577948607571
 30
0.0
 11
-65.793065963024674
 21
-237.43062686535021
 31
0.0
  0
LINE
  8
DETAIL
  6
CONTINUOUS
 62
     5
 10
-65.793065963024674
 20
-237.43062686535021
 30
0.0
 11
-72.268446695716193
 21
-229.99593046855651
 31
0.0
  0
LINE
  8
DETAIL
  6
CONTINUOUS
 62
     5
 10
-72.268446695716193
 20
-229.99593046855651
 30
0.0
 11
-77.704568792295959
 21
-222.08157623971121
 31
0.0
  0
LINE
  8
DETAIL
  6
CONTINUOUS
 62
     5
 10
-77.704568792295959
 20
-222.08157623971121
 30
0.0
 11
-82.261318196782668
 21
-213.28784931877249
 31
0.0
  0
LINE
  8
DETAIL
  6
CONTINUOUS
 62
     5
 10
-82.261318196782668
 20
-213.28784931877249
 30
0.0
 11
-85.93869490917541
 21
-204.01446456578239
 31
0.0
  0
LINE
  8
DETAIL
  6
CONTINUOUS
 62
     5
 10
-85.93869490917541
 20
-204.01446456578239
 30
0.0
 11
-88.416927041440431
 21
-194.66113684078371
 31
0.0
  0
LINE
  8
DETAIL
  6
CONTINUOUS
 62
     5
 10
-88.416927041440431
 20
-194.66113684078371
 30
0.0
 11
-90.175672425627909
 21
-184.9080942557423
 31
0.0
  0
LINE
  8
DETAIL
  6
CONTINUOUS
 62
     5
 10
-90.175672425627909
 20
-184.9080942557423
 30
0.0
 11
-90.735273229687209
 21
-175.23499464270941
 31
0.0
  0
LINE
  8
DETAIL
  6
CONTINUOUS
 62
     5
 10
-95.691737494216795
 20
-175.23499464270941
 30
0.0
 11
-95.212079662165706
 21
-165.4819520576682
 31
0.0
  0
LINE
  8
DETAIL
  6
CONTINUOUS
 62
     5
 10
-95.212079662165706
 20
-165.4819520576682
 30
0.0
 11
-93.693163194003773
 21
-155.72890947262681
 31
0.0
  0
LINE
  8
DETAIL
  6
CONTINUOUS
 62
     5
 10
-93.693163194003773
 20
-155.72890947262681
 30
0.0
 11
-91.214931061738298
 21
-146.05580985959389
 31
0.0
  0
LINE
  8
DETAIL
  6
CONTINUOUS
 62
     5
 10
-91.214931061738298
 20
-146.05580985959389
 30
0.0
 11
-87.697440293363343
 21
-136.78242510660399
 31
0.0
  0
LINE
  8
DETAIL
  6
CONTINUOUS
 62
     5
 10
-87.697440293363343
 20
-136.78242510660399
 30
0.0
 11
-83.220633860884845
 21
-128.06864115767371
 31
0.0
  0
LINE
  8
DETAIL
  6
CONTINUOUS
 62
     5
 10
-83.220633860884845
 20
-128.06864115767371
 30
0.0
 11
-77.944397708321503
 21
-119.91445801280319
 31
0.0
  0
LINE
  8
DETAIL
  6
CONTINUOUS
 62
     5
 10
-77.944397708321503
 20
-119.91445801280319
 30
0.0
 11
-71.788788863664649
 21
-112.159989727975
 31
0.0
  0
LINE
  8
DETAIL
  6
CONTINUOUS
 62
     5
 10
-71.788788863664649
 20
-112.159989727975
 30
0.0
 11
-65.07357921494804
 21
-104.96512224720691
 31
0.0
  0
LINE
  8
DETAIL
  6
CONTINUOUS
 62
     5
 10
-65.07357921494804
 20
-104.96512224720691
 30
0.0
 11
-57.319110930119678
 21
-98.729570430541116
 31
0.0
  0
LINE
  8
DETAIL
  6
CONTINUOUS
 62
     5
 10
-57.319110930119678
 20
-98.729570430541116
 30
0.0
 11
-49.324813729266218
 21
-93.21350536195223
 31
0.0
  0
LINE
  8
DETAIL
  6
CONTINUOUS
 62
     5
 10
-49.324813729266218
 20
-93.21350536195223
 30
0.0
 11
-40.531086808327018
 21
-88.416927041439976
 31
0.0
  0
LINE
  8
DETAIL
  6
CONTINUOUS
 62
     5
 10
-40.531086808327018
 20
-88.416927041439976
 30
0.0
 11
-31.417587999354051
 21
-84.739550329047461
 31
0.0
  0
LINE
  8
DETAIL
  6
CONTINUOUS
 62
     5
 10
-31.417587999354051
 20
-84.739550329047461
 30
0.0
 11
-21.904374330338669
 21
-81.941546308748684
 31
0.0
  0
LINE
  8
DETAIL
  6
CONTINUOUS
 62
     5
 10
-21.904374330338669
 20
-81.941546308748684
 30
0.0
 11
-12.231274717306411
 21
-80.262743896569418
 31
0.0
  0
LINE
  8
DETAIL
  6
CONTINUOUS
 62
     5
 10
-12.231274717306411
 20
-80.262743896569418
 30
0.0
 11
-2.478232132264111
 21
-79.463314176483891
 31
0.0
  0
LINE
  8
DETAIL
  6
CONTINUOUS
 62
     5
 10
-2.478232132264111
 20
-79.463314176483891
 30
0.0
 11
7.4346963967943793
 21
-79.783086064518329
 31
0.0
  0
LINE
  8
DETAIL
  6
CONTINUOUS
 62
     5
 10
7.4346963967943793
 20
-79.783086064518329
 30
0.0
 11
17.10779600982687
 21
-80.982230644646279
 31
0.0
  0
LINE
  8
DETAIL
  6
CONTINUOUS
 62
     5
 10
17.10779600982687
 20
-80.982230644646279
 30
0.0
 11
26.700952650850919
 21
-83.2206338608853
 31
0.0
  0
LINE
  8
DETAIL
  6
CONTINUOUS
 62
     5
 10
26.700952650850919
 20
-83.2206338608853
 30
0.0
 11
36.21416631986699
 21
-86.578238685243832
 31
0.0
  0
LINE
  8
DETAIL
  6
CONTINUOUS
 62
     5
 10
36.21416631986699
 20
-86.578238685243832
 30
0.0
 11
45.007893240805522
 21
-90.735273229687664
 31
0.0
  0
LINE
  8
DETAIL
  6
CONTINUOUS
 62
     5
 10
45.007893240805522
 20
-90.735273229687664
 30
0.0
 11
53.641734217727617
 21
-95.691737494216795
 31
0.0
  0
LINE
  8
DETAIL
  6
CONTINUOUS
 62
     5
 10
53.641734217727617
 20
-95.691737494216795
 30
0.0
 11
61.316259530546859
 21
-101.6874603948568
 31
0.0
  0
LINE
  8
DETAIL
  6
CONTINUOUS
 62
     5
 10
61.316259530546859
 20
-101.6874603948568
 30
0.0
 11
68.591069983323678
 21
-108.40267004357381
 31
0.0
  0
LINE
  8
DETAIL
  6
CONTINUOUS
 62
     5
 10
68.591069983323678
 20
-108.40267004357381
 30
0.0
 11
74.986507744006531
 21
-115.8373664403678
 31
0.0
  0
LINE
  8
DETAIL
  6
CONTINUOUS
 62
     5
 10
74.986507744006531
 20
-115.8373664403678
 30
0.0
 11
80.742401728621417
 21
-123.91160661322991
 31
0.0
  0
LINE
  8
DETAIL
  6
CONTINUOUS
 62
     5
 10
80.742401728621417
 20
-123.91160661322991
 30
0.0
 11
85.698865993149866
 21
-132.38556164613439
 31
0.0
  0
LINE
  8
DETAIL
  6
CONTINUOUS
 62
     5
 10
85.698865993149866
 20
-132.38556164613439
 30
0.0
 11
89.376242705542836
 21
-141.57900342711599
 31
0.0
  0
LINE
  8
DETAIL
  6
CONTINUOUS
 62
     5
 10
89.376242705542836
 20
-141.57900342711599
 30
0.0
 11
92.41407564186693
 21
-150.69250223608921
 31
0.0
  0
LINE
  8
DETAIL
  6
CONTINUOUS
 62
     5
 10
92.41407564186693
 20
-150.69250223608921
 30
0.0
 11
94.652478858106178
 21
-160.52548779313909
 31
0.0
  0
LINE
  8
DETAIL
  6
CONTINUOUS
 62
     5
 10
94.652478858106178
 20
-160.52548779313909
 30
0.0
 11
95.691737494217477
 21
-170.27853037818019
 31
0.0
  0
LINE
  8
DETAIL
  6
CONTINUOUS
 62
     5
 10
95.691737494217477
 20
-170.27853037818019
 30
0.0
 11
95.691737494217477
 21
-180.19145890723871
 31
0.0
  0
LINE
  8
DETAIL
  6
CONTINUOUS
 62
     5
 10
95.691737494217477
 20
-180.19145890723871
 30
0.0
 11
94.652478858106178
 21
-189.86455852027169
 31
0.0
  0
LINE
  8
DETAIL
  6
CONTINUOUS
 62
     5
 10
94.652478858106178
 20
-189.86455852027169
 30
0.0
 11
92.41407564186693
 21
-199.69754407732151
 31
0.0
  0
LINE
  8
DETAIL
  6
CONTINUOUS
 62
     5
 10
92.41407564186693
 20
-199.69754407732151
 30
0.0
 11
89.376242705542836
 21
-209.05087180231999
 31
0.0
  0
LINE
  8
DETAIL
  6
CONTINUOUS
 62
     5
 10
89.376242705542836
 20
-209.05087180231999
 30
0.0
 11
85.698865993149866
 21
-218.0044846672757
 31
0.0
  0
LINE
  8
DETAIL
  6
CONTINUOUS
 62
     5
 10
85.698865993149866
 20
-218.0044846672757
 30
0.0
 11
80.742401728621417
 21
-226.55838267218951
 31
0.0
  0
LINE
  8
DETAIL
  6
CONTINUOUS
 62
     5
 10
80.742401728621417
 20
-226.55838267218951
 30
0.0
 11
74.986507744006531
 21
-234.55267987304271
 31
0.0
  0
LINE
  8
DETAIL
  6
CONTINUOUS
 62
     5
 10
74.986507744006531
 20
-234.55267987304271
 30
0.0
 11
68.591069983323678
 21
-241.98737626983669
 31
0.0
  0
LINE
  8
DETAIL
  6
CONTINUOUS
 62
     5
 10
68.591069983323678
 20
-241.98737626983669
 30
0.0
 11
61.316259530546859
 21
-248.7025859185535
 31
0.0
  0
LINE
  8
DETAIL
  6
CONTINUOUS
 62
     5
 10
61.316259530546859
 20
-248.7025859185535
 30
0.0
 11
53.641734217727617
 21
-254.6983088191937
 31
0.0
  0
LINE
  8
DETAIL
  6
CONTINUOUS
 62
     5
 10
53.641734217727617
 20
-254.6983088191937
 30
0.0
 11
45.007893240805522
 21
-259.65477308372311
 31
0.0
  0
LINE
  8
DETAIL
  6
CONTINUOUS
 62
     5
 10
45.007893240805522
 20
-259.65477308372311
 30
0.0
 11
36.21416631986699
 21
-263.97169357218399
 31
0.0
  0
LINE
  8
DETAIL
  6
CONTINUOUS
 62
     5
 10
36.21416631986699
 20
-263.97169357218399
 30
0.0
 11
26.700952650850919
 21
-267.16941245252542
 31
0.0
  0
LINE
  8
DETAIL
  6
CONTINUOUS
 62
     5
 10
26.700952650850919
 20
-267.16941245252542
 30
0.0
 11
17.10779600982687
 21
-269.40781566876421
 31
0.0
  0
LINE
  8
DETAIL
  6
CONTINUOUS
 62
     5
 10
17.10779600982687
 20
-269.40781566876421
 30
0.0
 11
7.4346963967943793
 21
-270.60696024889239
 31
0.0
  0
LINE
  8
DETAIL
  6
CONTINUOUS
 62
     5
 10
7.4346963967943793
 20
-270.60696024889239
 30
0.0
 11
-2.478232132264111
 21
-270.92673213692638
 31
0.0
  0
LINE
  8
DETAIL
  6
CONTINUOUS
 62
     5
 10
-2.478232132264111
 20
-270.92673213692638
 30
0.0
 11
-12.231274717306411
 21
-270.1273024168413
 31
0.0
  0
LINE
  8
DETAIL
  6
CONTINUOUS
 62
     5
 10
-12.231274717306411
 20
-270.1273024168413
 30
0.0
 11
-21.904374330338669
 21
-268.44850000466181
 31
0.0
  0
LINE
  8
DETAIL
  6
CONTINUOUS
 62
     5
 10
-21.904374330338669
 20
-268.44850000466181
 30
0.0
 11
-31.417587999354051
 21
-265.65049598436298
 31
0.0
  0
LINE
  8
DETAIL
  6
CONTINUOUS
 62
     5
 10
-31.417587999354051
 20
-265.65049598436298
 30
0.0
 11
-40.531086808327018
 21
-261.97311927197052
 31
0.0
  0
LINE
  8
DETAIL
  6
CONTINUOUS
 62
     5
 10
-40.531086808327018
 20
-261.97311927197052
 30
0.0
 11
-49.324813729266218
 21
-257.17654095145849
 31
0.0
  0
LINE
  8
DETAIL
  6
CONTINUOUS
 62
     5
 10
-49.324813729266218
 20
-257.17654095145849
 30
0.0
 11
-57.319110930119678
 21
-251.66047588286941
 31
0.0
  0
LINE
  8
DETAIL
  6
CONTINUOUS
 62
     5
 10
-57.319110930119678
 20
-251.66047588286941
 30
0.0
 11
-65.07357921494804
 21
-245.4249240662036
 31
0.0
  0
LINE
  8
DETAIL
  6
CONTINUOUS
 62
     5
 10
-65.07357921494804
 20
-245.4249240662036
 30
0.0
 11
-71.788788863664649
 21
-238.54982847346969
 31
0.0
  0
LINE
  8
DETAIL
  6
CONTINUOUS
 62
     5
 10
-71.788788863664649
 20
-238.54982847346969
 30
0.0
 11
-77.944397708321503
 21
-230.79536018864161
 31
0.0
  0
LINE
  8
DETAIL
  6
CONTINUOUS
 62
     5
 10
-77.944397708321503
 20
-230.79536018864161
 30
0.0
 11
-83.220633860884845
 21
-222.32140515573681
 31
0.0
  0
LINE
  8
DETAIL
  6
CONTINUOUS
 62
     5
 10
-83.220633860884845
 20
-222.32140515573681
 30
0.0
 11
-87.697440293363343
 21
-213.6076212068067
 31
0.0
  0
LINE
  8
DETAIL
  6
CONTINUOUS
 62
     5
 10
-87.697440293363343
 20
-213.6076212068067
 30
0.0
 11
-91.214931061738298
 21
-204.3342364538166
 31
0.0
  0
LINE
  8
DETAIL
  6
CONTINUOUS
 62
     5
 10
-91.214931061738298
 20
-204.3342364538166
 30
0.0
 11
-93.693163194003773
 21
-194.9009657568092
 31
0.0
  0
LINE
  8
DETAIL
  6
CONTINUOUS
 62
     5
 10
-93.693163194003773
 20
-194.9009657568092
 30
0.0
 11
-95.212079662165706
 21
-185.22786614377631
 31
0.0
  0
LINE
  8
DETAIL
  6
CONTINUOUS
 62
     5
 10
-95.212079662165706
 20
-185.22786614377631
 30
0.0
 11
-95.691737494216795
 21
-175.23499464270941
 31
0.0
  0
LINE
  8
DETAIL
  6
CONTINUOUS
 62
     5
 10
106.6439246593864
 20
-195.54050953287739
 30
0.0
 11
106.6439246593864
 21
-127.4290973816055
 31
0.0
  0
LINE
  8
DETAIL
  6
CONTINUOUS
 62
     5
 10
106.6439246593864
 20
-222.96094893180501
 30
0.0
 11
106.6439246593864
 21
-204.81389428586769
 31
0.0
  0
LINE
  8
DETAIL
  6
CONTINUOUS
 62
     5
 10
-106.48403871536949
 20
-126.0700668574602
 30
0.0
 11
-101.9272893108823
 21
-117.4362258805384
 31
0.0
  0
LINE
  8
DETAIL
  6
CONTINUOUS
 62
     5
 10
-101.9272893108823
 20
-117.4362258805384
 30
0.0
 11
-96.49116721430164
 21
-108.9622708476336
 31
0.0
  0
LINE
  8
DETAIL
  6
CONTINUOUS
 62
     5
 10
-96.49116721430164
 20
-108.9622708476336
 30
0.0
 11
-90.735273229687209
 21
-100.8880306747717
 31
0.0
  0
LINE
  8
DETAIL
  6
CONTINUOUS
 62
     5
 10
-90.735273229687209
 20
-100.8880306747717
 30
0.0
 11
-84.0200635809706
 21
-93.693163194003318
 31
0.0
  0
LINE
  8
DETAIL
  6
CONTINUOUS
 62
     5
 10
-84.0200635809706
 20
-93.693163194003318
 30
0.0
 11
-76.745253128193781
 21
-86.73812462926071
 31
0.0
  0
LINE
  8
DETAIL
  6
CONTINUOUS
 62
     5
 10
-106.6439246593864
 20
-222.96094893180501
 30
0.0
 11
-106.6439246593864
 21
-127.4290973816055
 31
0.0
  0
LINE
  8
DETAIL
  6
CONTINUOUS
 62
     5
 10
106.4040957433604
 20
-224.31997945595029
 30
0.0
 11
101.8473463388743
 21
-232.95382043287191
 31
0.0
  0
LINE
  8
DETAIL
  6
CONTINUOUS
 62
     5
 10
101.8473463388743
 20
-232.95382043287191
 30
0.0
 11
96.651053158319655
 21
-241.5077184377856
 31
0.0
  0
LINE
  8
DETAIL
  6
CONTINUOUS
 62
     5
 10
96.651053158319655
 20
-241.5077184377856
 30
0.0
 11
90.655330257679452
 21
-249.5020156386388
 31
0.0
  0
LINE
  8
DETAIL
  6
CONTINUOUS
 62
     5
 10
90.655330257679452
 20
-249.5020156386388
 30
0.0
 11
84.020063580971055
 21
-256.6968831194074
 31
0.0
  0
LINE
  8
DETAIL
  6
CONTINUOUS
 62
     5
 10
84.020063580971055
 20
-256.6968831194074
 30
0.0
 11
76.745253128194008
 21
-263.65192168414973
 31
0.0
  0
LINE
  8
DETAIL
  6
CONTINUOUS
 62
     5
 10
-93.373391305969108
 20
-239.26931522154629
 30
0.0
 11
-93.373391305969108
 21
-238.54982847346969
 31
0.0
  0
LINE
  8
DETAIL
  6
CONTINUOUS
 62
     5
 10
-93.373391305969108
 20
-238.54982847346969
 30
0.0
 11
-93.21350536195223
 21
-237.91028469740129
 31
0.0
  0
LINE
  8
DETAIL
  6
CONTINUOUS
 62
     5
 10
-93.21350536195223
 20
-237.91028469740129
 30
0.0
 11
-92.653904557892474
 21
-237.43062686535021
 31
0.0
  0
LINE
  8
DETAIL
  6
CONTINUOUS
 62
     5
 10
-92.653904557892474
 20
-237.43062686535021
 30
0.0
 11
-92.014360781824507
 21
-237.2707409213331
 31
0.0
  0
LINE
  8
DETAIL
  6
CONTINUOUS
 62
     5
 10
-92.014360781824507
 20
-237.2707409213331
 30
0.0
 11
-91.214931061738298
 21
-237.0309120053075
 31
0.0
  0
LINE
  8
DETAIL
  6
CONTINUOUS
 62
     5
 10
-91.214931061738298
 20
-237.0309120053075
 30
0.0
 11
-90.415501341653453
 21
-237.2707409213331
 31
0.0
  0
LINE
  8
DETAIL
  6
CONTINUOUS
 62
     5
 10
-90.415501341653453
 20
-237.2707409213331
 30
0.0
 11
-90.015786481610576
 21
-237.75039875338439
 31
0.0
  0
LINE
  8
DETAIL
  6
CONTINUOUS
 62
     5
 10
-90.015786481610576
 20
-237.75039875338439
 30
0.0
 11
-89.536128649559487
 21
-238.23005658543551
 31
0.0
  0
LINE
  8
DETAIL
  6
CONTINUOUS
 62
     5
 10
-89.536128649559487
 20
-238.23005658543551
 30
0.0
 11
-89.216356761525276
 21
-239.02948630552081
 31
0.0
  0
LINE
  8
DETAIL
  6
CONTINUOUS
 62
     5
 10
-89.216356761525276
 20
-239.02948630552081
 30
0.0
 11
-89.216356761525276
 21
-239.50914413757189
 31
0.0
  0
LINE
  8
DETAIL
  6
CONTINUOUS
 62
     5
 10
-89.216356761525276
 20
-239.50914413757189
 30
0.0
 11
-89.536128649559487
 21
-240.22863088564901
 31
0.0
  0
LINE
  8
DETAIL
  6
CONTINUOUS
 62
     5
 10
-89.536128649559487
 20
-240.22863088564901
 30
0.0
 11
-90.015786481610576
 21
-240.70828871769999
 31
0.0
  0
LINE
  8
DETAIL
  6
CONTINUOUS
 62
     5
 10
-90.015786481610576
 20
-240.70828871769999
 30
0.0
 11
-90.415501341653453
 21
-241.18794654975139
 31
0.0
  0
LINE
  8
DETAIL
  6
CONTINUOUS
 62
     5
 10
-90.415501341653453
 20
-241.18794654975139
 30
0.0
 11
-91.214931061738298
 21
-241.5077184377856
 31
0.0
  0
LINE
  8
DETAIL
  6
CONTINUOUS
 62
     5
 10
-91.214931061738298
 20
-241.5077184377856
 30
0.0
 11
-92.014360781824507
 21
-241.18794654975139
 31
0.0
  0
LINE
  8
DETAIL
  6
CONTINUOUS
 62
     5
 10
-92.014360781824507
 20
-241.18794654975139
 30
0.0
 11
-92.653904557892474
 21
-241.028060605734
 31
0.0
  0
LINE
  8
DETAIL
  6
CONTINUOUS
 62
     5
 10
-92.653904557892474
 20
-241.028060605734
 30
0.0
 11
-93.21350536195223
 21
-240.3885168296658
 31
0.0
  0
LINE
  8
DETAIL
  6
CONTINUOUS
 62
     5
 10
-93.21350536195223
 20
-240.3885168296658
 30
0.0
 11
-93.373391305969108
 21
-239.90885899761469
 31
0.0
  0
LINE
  8
DETAIL
  6
CONTINUOUS
 62
     5
 10
-93.373391305969108
 20
-239.90885899761469
 30
0.0
 11
-93.373391305969108
 21
-239.26931522154629
 31
0.0
  0
LINE
  8
DETAIL
  6
CONTINUOUS
 62
     5
 10
61.95580330661528
 20
-266.60981164846572
 30
0.0
 11
61.95580330661528
 21
-265.97026787239719
 31
0.0
  0
LINE
  8
DETAIL
  6
CONTINUOUS
 62
     5
 10
61.95580330661528
 20
-265.97026787239719
 30
0.0
 11
62.275575194649043
 21
-265.33072409632888
 31
0.0
  0
LINE
  8
DETAIL
  6
CONTINUOUS
 62
     5
 10
62.275575194649043
 20
-265.33072409632888
 30
0.0
 11
62.755233026700132
 21
-264.85106626427802
 31
0.0
  0
LINE
  8
DETAIL
  6
CONTINUOUS
 62
     5
 10
62.755233026700132
 20
-264.85106626427802
 30
0.0
 11
63.554662746786107
 21
-264.61123734825242
 31
0.0
  0
LINE
  8
DETAIL
  6
CONTINUOUS
 62
     5
 10
63.554662746786107
 20
-264.61123734825242
 30
0.0
 11
64.274149494862741
 21
-264.45135140423508
 31
0.0
  0
LINE
  8
DETAIL
  6
CONTINUOUS
 62
     5
 10
64.274149494862741
 20
-264.45135140423508
 30
0.0
 11
64.993636242939374
 21
-264.61123734825242
 31
0.0
  0
LINE
  8
DETAIL
  6
CONTINUOUS
 62
     5
 10
64.993636242939374
 20
-264.61123734825242
 30
0.0
 11
65.473294074990463
 21
-265.17083815231189
 31
0.0
  0
LINE
  8
DETAIL
  6
CONTINUOUS
 62
     5
 10
65.473294074990463
 20
-265.17083815231189
 30
0.0
 11
66.112837851058885
 21
-265.65049598436298
 31
0.0
  0
LINE
  8
DETAIL
  6
CONTINUOUS
 62
     5
 10
66.112837851058885
 20
-265.65049598436298
 30
0.0
 11
66.272723795076217
 21
-266.44992570444862
 31
0.0
  0
LINE
  8
DETAIL
  6
CONTINUOUS
 62
     5
 10
66.272723795076217
 20
-266.44992570444862
 30
0.0
 11
66.272723795076217
 21
-266.92958353649988
 31
0.0
  0
LINE
  8
DETAIL
  6
CONTINUOUS
 62
     5
 10
66.272723795076217
 20
-266.92958353649988
 30
0.0
 11
66.112837851058885
 21
-267.64907028457651
 31
0.0
  0
LINE
  8
DETAIL
  6
CONTINUOUS
 62
     5
 10
66.112837851058885
 20
-267.64907028457651
 30
0.0
 11
65.473294074990463
 21
-268.12872811662783
 31
0.0
  0
LINE
  8
DETAIL
  6
CONTINUOUS
 62
     5
 10
65.473294074990463
 20
-268.12872811662783
 30
0.0
 11
64.993636242939374
 21
-268.60838594867892
 31
0.0
  0
LINE
  8
DETAIL
  6
CONTINUOUS
 62
     5
 10
64.993636242939374
 20
-268.60838594867892
 30
0.0
 11
64.274149494862741
 21
-268.92815783671313
 31
0.0
  0
LINE
  8
DETAIL
  6
CONTINUOUS
 62
     5
 10
64.274149494862741
 20
-268.92815783671313
 30
0.0
 11
63.554662746786107
 21
-268.60838594867892
 31
0.0
  0
LINE
  8
DETAIL
  6
CONTINUOUS
 62
     5
 10
63.554662746786107
 20
-268.60838594867892
 30
0.0
 11
62.755233026700132
 21
-268.44850000466181
 31
0.0
  0
LINE
  8
DETAIL
  6
CONTINUOUS
 62
     5
 10
62.755233026700132
 20
-268.44850000466181
 30
0.0
 11
62.275575194649043
 21
-267.80895622859362
 31
0.0
  0
LINE
  8
DETAIL
  6
CONTINUOUS
 62
     5
 10
62.275575194649043
 20
-267.80895622859362
 30
0.0
 11
61.95580330661528
 21
-267.3292983965423
 31
0.0
  0
LINE
  8
DETAIL
  6
CONTINUOUS
 62
     5
 10
61.95580330661528
 20
-267.3292983965423
 30
0.0
 11
61.95580330661528
 21
-266.60981164846572
 31
0.0
  0
LINE
  8
DETAIL
  6
CONTINUOUS
 62
     5
 10
89.376242705542836
 20
-111.1207310918642
 30
0.0
 11
89.376242705542836
 21
-110.48118731579579
 31
0.0
  0
LINE
  8
DETAIL
  6
CONTINUOUS
 62
     5
 10
89.376242705542836
 20
-110.48118731579579
 30
0.0
 11
89.696014593577047
 21
-110.0015294837447
 31
0.0
  0
LINE
  8
DETAIL
  6
CONTINUOUS
 62
     5
 10
89.696014593577047
 20
-110.0015294837447
 30
0.0
 11
90.175672425628136
 21
-109.3619857076762
 31
0.0
  0
LINE
  8
DETAIL
  6
CONTINUOUS
 62
     5
 10
90.175672425628136
 20
-109.3619857076762
 30
0.0
 11
90.975102145713208
 21
-109.20209976365911
 31
0.0
  0
LINE
  8
DETAIL
  6
CONTINUOUS
 62
     5
 10
90.975102145713208
 20
-109.20209976365911
 30
0.0
 11
91.694588893790296
 21
-109.20209976365911
 31
0.0
  0
LINE
  8
DETAIL
  6
CONTINUOUS
 62
     5
 10
91.694588893790296
 20
-109.20209976365911
 30
0.0
 11
92.41407564186693
 21
-109.20209976365911
 31
0.0
  0
LINE
  8
DETAIL
  6
CONTINUOUS
 62
     5
 10
92.41407564186693
 20
-109.20209976365911
 30
0.0
 11
92.893733473918019
 21
-109.68175759571071
 31
0.0
  0
LINE
  8
DETAIL
  6
CONTINUOUS
 62
     5
 10
92.893733473918019
 20
-109.68175759571071
 30
0.0
 11
93.453334277978229
 21
-110.1614154277618
 31
0.0
  0
LINE
  8
DETAIL
  6
CONTINUOUS
 62
     5
 10
93.453334277978229
 20
-110.1614154277618
 30
0.0
 11
93.693163194004001
 21
-110.8809021758386
 31
0.0
  0
LINE
  8
DETAIL
  6
CONTINUOUS
 62
     5
 10
93.693163194004001
 20
-110.8809021758386
 30
0.0
 11
93.693163194004001
 21
-111.6803318959239
 31
0.0
  0
LINE
  8
DETAIL
  6
CONTINUOUS
 62
     5
 10
93.693163194004001
 20
-111.6803318959239
 30
0.0
 11
93.453334277978229
 21
-112.159989727975
 31
0.0
  0
LINE
  8
DETAIL
  6
CONTINUOUS
 62
     5
 10
93.453334277978229
 20
-112.159989727975
 30
0.0
 11
92.893733473918019
 21
-112.6396475600263
 31
0.0
  0
LINE
  8
DETAIL
  6
CONTINUOUS
 62
     5
 10
92.893733473918019
 20
-112.6396475600263
 30
0.0
 11
92.41407564186693
 21
-113.11930539207761
 31
0.0
  0
LINE
  8
DETAIL
  6
CONTINUOUS
 62
     5
 10
92.41407564186693
 20
-113.11930539207761
 30
0.0
 11
91.694588893790296
 21
-113.35913430810319
 31
0.0
  0
LINE
  8
DETAIL
  6
CONTINUOUS
 62
     5
 10
91.694588893790296
 20
-113.35913430810319
 30
0.0
 11
90.975102145713208
 21
-113.11930539207761
 31
0.0
  0
LINE
  8
DETAIL
  6
CONTINUOUS
 62
     5
 10
90.975102145713208
 20
-113.11930539207761
 30
0.0
 11
90.175672425628136
 21
-112.9594194480608
 31
0.0
  0
LINE
  8
DETAIL
  6
CONTINUOUS
 62
     5
 10
90.175672425628136
 20
-112.9594194480608
 30
0.0
 11
89.696014593577047
 21
-112.4797616160092
 31
0.0
  0
LINE
  8
DETAIL
  6
CONTINUOUS
 62
     5
 10
89.696014593577047
 20
-112.4797616160092
 30
0.0
 11
89.376242705542836
 21
-111.84021783994081
 31
0.0
  0
LINE
  8
DETAIL
  6
CONTINUOUS
 62
     5
 10
89.376242705542836
 20
-111.84021783994081
 30
0.0
 11
89.376242705542836
 21
-111.1207310918642
 31
0.0
  0
LINE
  8
DETAIL
  6
CONTINUOUS
 62
     5
 10
-65.952951907042006
 20
-83.780234664945056
 30
0.0
 11
-65.952951907042006
 21
-83.060747916868422
 31
0.0
  0
LINE
  8
DETAIL
  6
CONTINUOUS
 62
     5
 10
-65.952951907042006
 20
-83.060747916868422
 30
0.0
 11
-65.793065963024674
 21
-82.581090084816879
 31
0.0
  0
LINE
  8
DETAIL
  6
CONTINUOUS
 62
     5
 10
-65.793065963024674
 20
-82.581090084816879
 30
0.0
 11
-65.313408130973585
 21
-81.941546308748684
 31
0.0
  0
LINE
  8
DETAIL
  6
CONTINUOUS
 62
     5
 10
-65.313408130973585
 20
-81.941546308748684
 30
0.0
 11
-64.593921382896042
 21
-81.781660364731579
 31
0.0
  0
LINE
  8
DETAIL
  6
CONTINUOUS
 62
     5
 10
-64.593921382896042
 20
-81.781660364731579
 30
0.0
 11
-63.794491662811197
 21
-81.781660364731579
 31
0.0
  0
LINE
  8
DETAIL
  6
CONTINUOUS
 62
     5
 10
-63.794491662811197
 20
-81.781660364731579
 30
0.0
 11
-62.995061942725442
 21
-81.781660364731579
 31
0.0
  0
LINE
  8
DETAIL
  6
CONTINUOUS
 62
     5
 10
-62.995061942725442
 20
-81.781660364731579
 30
0.0
 11
-62.59534708268302
 21
-82.261318196782895
 31
0.0
  0
LINE
  8
DETAIL
  6
CONTINUOUS
 62
     5
 10
-62.59534708268302
 20
-82.261318196782895
 30
0.0
 11
-62.115689250631931
 21
-82.740976028833984
 31
0.0
  0
LINE
  8
DETAIL
  6
CONTINUOUS
 62
     5
 10
-62.115689250631931
 20
-82.740976028833984
 30
0.0
 11
-61.79591736259772
 21
-83.460462776910845
 31
0.0
  0
LINE
  8
DETAIL
  6
CONTINUOUS
 62
     5
 10
-61.79591736259772
 20
-83.460462776910845
 30
0.0
 11
-61.79591736259772
 21
-84.259892496996372
 31
0.0
  0
LINE
  8
DETAIL
  6
CONTINUOUS
 62
     5
 10
-61.79591736259772
 20
-84.259892496996372
 30
0.0
 11
-62.115689250631931
 21
-84.739550329047461
 31
0.0
  0
LINE
  8
DETAIL
  6
CONTINUOUS
 62
     5
 10
-62.115689250631931
 20
-84.739550329047461
 30
0.0
 11
-62.59534708268302
 21
-85.21920816109855
 31
0.0
  0
LINE
  8
DETAIL
  6
CONTINUOUS
 62
     5
 10
-62.59534708268302
 20
-85.21920816109855
 30
0.0
 11
-62.995061942725442
 21
-85.778808965158305
 31
0.0
  0
LINE
  8
DETAIL
  6
CONTINUOUS
 62
     5
 10
-62.995061942725442
 20
-85.778808965158305
 30
0.0
 11
-63.794491662811197
 21
-85.93869490917541
 31
0.0
  0
LINE
  8
DETAIL
  6
CONTINUOUS
 62
     5
 10
-63.794491662811197
 20
-85.93869490917541
 30
0.0
 11
-64.593921382896042
 21
-85.778808965158305
 31
0.0
  0
LINE
  8
DETAIL
  6
CONTINUOUS
 62
     5
 10
-64.593921382896042
 20
-85.778808965158305
 30
0.0
 11
-65.313408130973585
 21
-85.538980049132533
 31
0.0
  0
LINE
  8
DETAIL
  6
CONTINUOUS
 62
     5
 10
-65.313408130973585
 20
-85.538980049132533
 30
0.0
 11
-65.793065963024674
 21
-85.059322217081444
 31
0.0
  0
LINE
  8
DETAIL
  6
CONTINUOUS
 62
     5
 10
-65.793065963024674
 20
-85.059322217081444
 30
0.0
 11
-65.952951907042006
 21
-84.41977844101325
 31
0.0
  0
LINE
  8
DETAIL
  6
CONTINUOUS
 62
     5
 10
-65.952951907042006
 20
-84.41977844101325
 30
0.0
 11
-65.952951907042006
 21
-83.780234664945056
 31
0.0
  0
LINE
  8
DETAIL
  6
CONTINUOUS
 62
     5
 10
-103.68603469507021
 20
-175.23499464270941
 30
0.0
 11
-103.12643389101051
 21
-165.4819520576682
 31
0.0
  0
LINE
  8
DETAIL
  6
CONTINUOUS
 62
     5
 10
-103.12643389101051
 20
-165.4819520576682
 30
0.0
 11
-101.6874603948568
 21
-155.48908055660129
 31
0.0
  0
LINE
  8
DETAIL
  6
CONTINUOUS
 62
     5
 10
-101.6874603948568
 20
-155.48908055660129
 30
0.0
 11
-99.449057178618204
 21
-146.05580985959389
 31
0.0
  0
LINE
  8
DETAIL
  6
CONTINUOUS
 62
     5
 10
-99.449057178618204
 20
-146.05580985959389
 30
0.0
 11
-96.171395326267884
 21
-136.54259619057851
 31
0.0
  0
LINE
  8
DETAIL
  6
CONTINUOUS
 62
     5
 10
-96.171395326267884
 20
-136.54259619057851
 30
0.0
 11
-92.174246725841385
 21
-127.58898332562239
 31
0.0
  0
LINE
  8
DETAIL
  6
CONTINUOUS
 62
     5
 10
-92.174246725841385
 20
-127.58898332562239
 30
0.0
 11
-87.217782461312254
 21
-119.1150282927176
 31
0.0
  0
LINE
  8
DETAIL
  6
CONTINUOUS
 62
     5
 10
-87.217782461312254
 20
-119.1150282927176
 30
0.0
 11
-81.541831448706034
 21
-111.1207310918642
 31
0.0
  0
LINE
  8
DETAIL
  6
CONTINUOUS
 62
     5
 10
-81.541831448706034
 20
-111.1207310918642
 30
0.0
 11
-75.066450716014515
 21
-103.68603469507021
 31
0.0
  0
LINE
  8
DETAIL
  6
CONTINUOUS
 62
     5
 10
-75.066450716014515
 20
-103.68603469507021
 30
0.0
 11
-67.791640263237696
 21
-96.890882074344972
 31
0.0
  0
LINE
  8
DETAIL
  6
CONTINUOUS
 62
     5
 10
-67.791640263237696
 20
-96.890882074344972
 30
0.0
 11
-60.117114950418447
 21
-90.735273229687664
 31
0.0
  0
LINE
  8
DETAIL
  6
CONTINUOUS
 62
     5
 10
-60.117114950418447
 20
-90.735273229687664
 30
0.0
 11
-51.803045861530791
 21
-85.538980049132533
 31
0.0
  0
LINE
  8
DETAIL
  6
CONTINUOUS
 62
     5
 10
-51.803045861530791
 20
-85.538980049132533
 30
0.0
 11
-43.089261912600698
 21
-80.982230644646279
 31
0.0
  0
LINE
  8
DETAIL
  6
CONTINUOUS
 62
     5
 10
-43.089261912600698
 20
-80.982230644646279
 30
0.0
 11
-33.895820131619082
 21
-77.304853932253764
 31
0.0
  0
LINE
  8
DETAIL
  6
CONTINUOUS
 62
     5
 10
-33.895820131619082
 20
-77.304853932253764
 30
0.0
 11
-24.38260646260278
 21
-74.506849911954987
 31
0.0
  0
LINE
  8
DETAIL
  6
CONTINUOUS
 62
     5
 10
-24.38260646260278
 20
-74.506849911954987
 30
0.0
 11
-14.78944982157873
 21
-72.588218583749949
 31
0.0
  0
LINE
  8
DETAIL
  6
CONTINUOUS
 62
     5
 10
-14.78944982157873
 20
-72.588218583749949
 30
0.0
 11
-4.9564642645289041
 21
-71.788788863664422
 31
0.0
  0
LINE
  8
DETAIL
  6
CONTINUOUS
 62
     5
 10
-4.9564642645289041
 20
-71.788788863664422
 30
0.0
 11
4.9564642645295862
 21
-71.788788863664422
 31
0.0
  0
LINE
  8
DETAIL
  6
CONTINUOUS
 62
     5
 10
4.9564642645295862
 20
-71.788788863664422
 30
0.0
 11
14.629563877562081
 21
-72.588218583749949
 31
0.0
  0
LINE
  8
DETAIL
  6
CONTINUOUS
 62
     5
 10
14.629563877562081
 20
-72.588218583749949
 30
0.0
 11
24.38260646260369
 21
-74.506849911954987
 31
0.0
  0
LINE
  8
DETAIL
  6
CONTINUOUS
 62
     5
 10
24.38260646260369
 20
-74.506849911954987
 30
0.0
 11
33.895820131619303
 21
-77.304853932253764
 31
0.0
  0
LINE
  8
DETAIL
  6
CONTINUOUS
 62
     5
 10
33.895820131619303
 20
-77.304853932253764
 30
0.0
 11
43.089261912600932
 21
-80.982230644646279
 31
0.0
  0
LINE
  8
DETAIL
  6
CONTINUOUS
 62
     5
 10
43.089261912600932
 20
-80.982230644646279
 30
0.0
 11
51.803045861531253
 21
-85.538980049132533
 31
0.0
  0
LINE
  8
DETAIL
  6
CONTINUOUS
 62
     5
 10
51.803045861531253
 20
-85.538980049132533
 30
0.0
 11
60.037171978410242
 21
-90.735273229687664
 31
0.0
  0
LINE
  8
DETAIL
  6
CONTINUOUS
 62
     5
 10
60.037171978410242
 20
-90.735273229687664
 30
0.0
 11
67.951526207255711
 21
-96.890882074344972
 31
0.0
  0
LINE
  8
DETAIL
  6
CONTINUOUS
 62
     5
 10
67.951526207255711
 20
-96.890882074344972
 30
0.0
 11
74.986507744006531
 21
-103.68603469507021
 31
0.0
  0
LINE
  8
DETAIL
  6
CONTINUOUS
 62
     5
 10
74.986507744006531
 20
-103.68603469507021
 30
0.0
 11
81.541831448706262
 21
-111.1207310918642
 31
0.0
  0
LINE
  8
DETAIL
  6
CONTINUOUS
 62
     5
 10
81.541831448706262
 20
-111.1207310918642
 30
0.0
 11
87.217782461312481
 21
-119.1150282927176
 31
0.0
  0
LINE
  8
DETAIL
  6
CONTINUOUS
 62
     5
 10
87.217782461312481
 20
-119.1150282927176
 30
0.0
 11
92.174246725841385
 21
-127.58898332562239
 31
0.0
  0
LINE
  8
DETAIL
  6
CONTINUOUS
 62
     5
 10
92.174246725841385
 20
-127.58898332562239
 30
0.0
 11
96.171395326268566
 21
-136.54259619057851
 31
0.0
  0
LINE
  8
DETAIL
  6
CONTINUOUS
 62
     5
 10
96.171395326268566
 20
-136.54259619057851
 30
0.0
 11
99.369114206609538
 21
-146.05580985959389
 31
0.0
  0
LINE
  8
DETAIL
  6
CONTINUOUS
 62
     5
 10
99.369114206609538
 20
-146.05580985959389
 30
0.0
 11
101.8473463388743
 21
-155.48908055660129
 31
0.0
  0
LINE
  8
DETAIL
  6
CONTINUOUS
 62
     5
 10
101.8473463388743
 20
-155.48908055660129
 30
0.0
 11
103.1264338910112
 21
-165.4819520576682
 31
0.0
  0
LINE
  8
DETAIL
  6
CONTINUOUS
 62
     5
 10
103.1264338910112
 20
-165.4819520576682
 30
0.0
 11
103.6860346950707
 21
-175.23499464270941
 31
0.0
  0
LINE
  8
DETAIL
  6
CONTINUOUS
 62
     5
 10
103.6860346950707
 20
-175.23499464270941
 30
0.0
 11
103.1264338910112
 21
-185.22786614377631
 31
0.0
  0
LINE
  8
DETAIL
  6
CONTINUOUS
 62
     5
 10
103.1264338910112
 20
-185.22786614377631
 30
0.0
 11
101.8473463388743
 21
-194.9009657568092
 31
0.0
  0
LINE
  8
DETAIL
  6
CONTINUOUS
 62
     5
 10
101.8473463388743
 20
-194.9009657568092
 30
0.0
 11
99.369114206609538
 21
-204.3342364538166
 31
0.0
  0
LINE
  8
DETAIL
  6
CONTINUOUS
 62
     5
 10
99.369114206609538
 20
-204.3342364538166
 30
0.0
 11
96.171395326268566
 21
-213.84745012283221
 31
0.0
  0
LINE
  8
DETAIL
  6
CONTINUOUS
 62
     5
 10
96.171395326268566
 20
-213.84745012283221
 30
0.0
 11
92.174246725841385
 21
-222.8010629877881
 31
0.0
  0
LINE
  8
DETAIL
  6
CONTINUOUS
 62
     5
 10
92.174246725841385
 20
-222.8010629877881
 30
0.0
 11
87.217782461312481
 21
-231.2750180206929
 31
0.0
  0
LINE
  8
DETAIL
  6
CONTINUOUS
 62
     5
 10
87.217782461312481
 20
-231.2750180206929
 30
0.0
 11
81.541831448706262
 21
-239.26931522154629
 31
0.0
  0
LINE
  8
DETAIL
  6
CONTINUOUS
 62
     5
 10
81.541831448706262
 20
-239.26931522154629
 30
0.0
 11
74.986507744006531
 21
-246.70401161834019
 31
0.0
  0
LINE
  8
DETAIL
  6
CONTINUOUS
 62
     5
 10
74.986507744006531
 20
-246.70401161834019
 30
0.0
 11
67.951526207255711
 21
-253.499164239066
 31
0.0
  0
LINE
  8
DETAIL
  6
CONTINUOUS
 62
     5
 10
67.951526207255711
 20
-253.499164239066
 30
0.0
 11
60.037171978410242
 21
-259.65477308372311
 31
0.0
  0
LINE
  8
DETAIL
  6
CONTINUOUS
 62
     5
 10
60.037171978410242
 20
-259.65477308372311
 30
0.0
 11
51.803045861531253
 21
-264.85106626427802
 31
0.0
  0
LINE
  8
DETAIL
  6
CONTINUOUS
 62
     5
 10
51.803045861531253
 20
-264.85106626427802
 30
0.0
 11
43.089261912600932
 21
-269.40781566876421
 31
0.0
  0
LINE
  8
DETAIL
  6
CONTINUOUS
 62
     5
 10
43.089261912600932
 20
-269.40781566876421
 30
0.0
 11
33.895820131619303
 21
-273.08519238115719
 31
0.0
  0
LINE
  8
DETAIL
  6
CONTINUOUS
 62
     5
 10
33.895820131619303
 20
-273.08519238115719
 30
0.0
 11
24.38260646260369
 21
-275.88319640145562
 31
0.0
  0
LINE
  8
DETAIL
  6
CONTINUOUS
 62
     5
 10
24.38260646260369
 20
-275.88319640145562
 30
0.0
 11
14.629563877562081
 21
-277.80182772966032
 31
0.0
  0
LINE
  8
DETAIL
  6
CONTINUOUS
 62
     5
 10
14.629563877562081
 20
-277.80182772966032
 30
0.0
 11
4.9564642645295862
 21
-278.92102933778011
 31
0.0
  0
LINE
  8
DETAIL
  6
CONTINUOUS
 62
     5
 10
4.9564642645295862
 20
-278.92102933778011
 30
0.0
 11
-4.9564642645289041
 21
-278.92102933778011
 31
0.0
  0
LINE
  8
DETAIL
  6
CONTINUOUS
 62
     5
 10
-4.9564642645289041
 20
-278.92102933778011
 30
0.0
 11
-14.78944982157873
 21
-277.80182772966032
 31
0.0
  0
LINE
  8
DETAIL
  6
CONTINUOUS
 62
     5
 10
-14.78944982157873
 20
-277.80182772966032
 30
0.0
 11
-24.38260646260278
 21
-275.88319640145562
 31
0.0
  0
LINE
  8
DETAIL
  6
CONTINUOUS
 62
     5
 10
-24.38260646260278
 20
-275.88319640145562
 30
0.0
 11
-33.895820131619082
 21
-273.08519238115719
 31
0.0
  0
LINE
  8
DETAIL
  6
CONTINUOUS
 62
     5
 10
-33.895820131619082
 20
-273.08519238115719
 30
0.0
 11
-43.089261912600698
 21
-269.40781566876421
 31
0.0
  0
LINE
  8
DETAIL
  6
CONTINUOUS
 62
     5
 10
-43.089261912600698
 20
-269.40781566876421
 30
0.0
 11
-51.803045861530791
 21
-264.85106626427802
 31
0.0
  0
LINE
  8
DETAIL
  6
CONTINUOUS
 62
     5
 10
-51.803045861530791
 20
-264.85106626427802
 30
0.0
 11
-60.117114950418447
 21
-259.65477308372311
 31
0.0
  0
LINE
  8
DETAIL
  6
CONTINUOUS
 62
     5
 10
-60.117114950418447
 20
-259.65477308372311
 30
0.0
 11
-67.791640263237696
 21
-253.499164239066
 31
0.0
  0
LINE
  8
DETAIL
  6
CONTINUOUS
 62
     5
 10
-67.791640263237696
 20
-253.499164239066
 30
0.0
 11
-75.066450716014515
 21
-246.70401161834019
 31
0.0
  0
LINE
  8
DETAIL
  6
CONTINUOUS
 62
     5
 10
-75.066450716014515
 20
-246.70401161834019
 30
0.0
 11
-81.541831448706034
 21
-239.26931522154629
 31
0.0
  0
LINE
  8
DETAIL
  6
CONTINUOUS
 62
     5
 10
-81.541831448706034
 20
-239.26931522154629
 30
0.0
 11
-87.217782461312254
 21
-231.2750180206929
 31
0.0
  0
LINE
  8
DETAIL
  6
CONTINUOUS
 62
     5
 10
-87.217782461312254
 20
-231.2750180206929
 30
0.0
 11
-92.174246725841385
 21
-222.8010629877881
 31
0.0
  0
LINE
  8
DETAIL
  6
CONTINUOUS
 62
     5
 10
-92.174246725841385
 20
-222.8010629877881
 30
0.0
 11
-96.171395326267884
 21
-213.84745012283221
 31
0.0
  0
LINE
  8
DETAIL
  6
CONTINUOUS
 62
     5
 10
-96.171395326267884
 20
-213.84745012283221
 30
0.0
 11
-99.449057178618204
 21
-204.3342364538166
 31
0.0
  0
LINE
  8
DETAIL
  6
CONTINUOUS
 62
     5
 10
-99.449057178618204
 20
-204.3342364538166
 30
0.0
 11
-101.6874603948568
 21
-194.9009657568092
 31
0.0
  0
LINE
  8
DETAIL
  6
CONTINUOUS
 62
     5
 10
-101.6874603948568
 20
-194.9009657568092
 30
0.0
 11
-103.12643389101051
 21
-185.22786614377631
 31
0.0
  0
LINE
  8
DETAIL
  6
CONTINUOUS
 62
     5
 10
-103.12643389101051
 20
-185.22786614377631
 30
0.0
 11
-103.68603469507021
 21
-175.23499464270941
 31
0.0
  0
LINE
  8
DETAIL
  6
CONTINUOUS
 62
     5
 10
179.93160010049951
 20
-2.7980040202985492
 30
0.0
 11
179.93160010049951
 21
-2.238403216238567
 31
0.0
  0
LINE
  8
DETAIL
  6
CONTINUOUS
 62
     5
 10
-179.93128782326451
 20
-2.7980040202985492
 30
0.0
 11
-179.93128782326451
 21
-2.238403216238567
 31
0.0
  0
LINE
  8
DETAIL
  6
CONTINUOUS
 62
     5
 10
-179.93128782326451
 20
-1.5189164681619329
 30
0.0
 11
-179.93128782326451
 21
-0.7994297200850724
 31
0.0
  0
LINE
  8
DETAIL
  6
CONTINUOUS
 62
     5
 10
179.93160010049951
 20
-0.7994297200850724
 30
0.0
 11
169.9387285994319
 21
-0.7994297200850724
 31
0.0
  0
LINE
  8
DETAIL
  6
CONTINUOUS
 62
     5
 10
169.9387285994319
 20
-350.39004631341072
 30
0.0
 11
-169.9384163221971
 21
-350.39004631341072
 31
0.0
  0
LINE
  8
DETAIL
  6
CONTINUOUS
 62
     5
 10
-169.9384163221971
 20
-350.39004631341072
 30
0.0
 11
-169.9384163221971
 21
-349.59061659332542
 31
0.0
  0
LINE
  8
DETAIL
  6
CONTINUOUS
 62
     5
 10
169.9387285994319
 20
-350.39004631341072
 30
0.0
 11
169.9387285994319
 21
-349.59061659332542
 31
0.0
  0
LINE
  8
DETAIL
  6
CONTINUOUS
 62
     5
 10
179.93160010049951
 20
-347.59204229311189
 30
0.0
 11
179.93160010049951
 21
-349.59061659332542
 31
0.0
  0
LINE
  8
DETAIL
  6
CONTINUOUS
 62
     5
 10
178.572569576354
 20
-2.7980040202985492
 30
0.0
 11
176.89376716417451
 21
-1.1991445801279501
 31
0.0
  0
LINE
  8
DETAIL
  6
CONTINUOUS
 62
     5
 10
-179.93128782326451
 20
-349.59061659332542
 30
0.0
 11
-179.93128782326451
 21
-347.59204229311189
 31
0.0
  0
LINE
  8
DETAIL
  6
CONTINUOUS
 62
     5
 10
-169.9384163221971
 20
0.0
 30
0.0
 11
169.9387285994319
 21
0.0
 31
0.0
  0
LINE
  8
DETAIL
  6
CONTINUOUS
 62
     5
 10
179.93160010049951
 20
-349.59061659332542
 30
0.0
 11
-179.93128782326451
 21
-349.59061659332542
 31
0.0
  0
LINE
  8
DETAIL
  6
CONTINUOUS
 62
     5
 10
169.9387285994319
 20
0.0
 30
0.0
 11
169.9387285994319
 21
-1.1991445801279501
 31
0.0
  0
LINE
  8
DETAIL
  6
CONTINUOUS
 62
     5
 10
-169.9384163221971
 20
-1.1991445801279501
 30
0.0
 11
-169.9384163221971
 21
0.0
 31
0.0
  0
LINE
  8
DETAIL
  6
CONTINUOUS
 62
     5
 10
-176.89345488693971
 20
-1.1991445801279501
 30
0.0
 11
-169.9384163221971
 21
-1.1991445801279501
 31
0.0
  0
LINE
  8
DETAIL
  6
CONTINUOUS
 62
     5
 10
169.9387285994319
 20
-1.1991445801279501
 30
0.0
 11
176.89376716417451
 21
-1.1991445801279501
 31
0.0
  0
LINE
  8
DETAIL
  6
CONTINUOUS
 62
     5
 10
-176.89345488693971
 20
-1.1991445801279501
 30
0.0
 11
-178.41237135510261
 21
-2.7980040202985492
 31
0.0
  0
LINE
  8
DETAIL
  6
CONTINUOUS
 62
     5
 10
181.1307446806272
 20
-347.59204229311189
 30
0.0
 11
177.13359608019999
 21
-347.59204229311189
 31
0.0
  0
LINE
  8
DETAIL
  6
CONTINUOUS
 62
     5
 10
179.93160010049951
 20
-1.5189164681619329
 30
0.0
 11
177.37342499622559
 21
-1.5189164681619329
 31
0.0
  0
LINE
  8
DETAIL
  6
CONTINUOUS
 62
     5
 10
179.93160010049951
 20
-0.7994297200850724
 30
0.0
 11
179.93160010049951
 21
-1.5189164681619329
 31
0.0
  0
LINE
  8
DETAIL
  6
CONTINUOUS
 62
     5
 10
181.1307446806272
 20
-2.238403216238567
 30
0.0
 11
178.17285471631121
 21
-2.238403216238567
 31
0.0
  0
LINE
  8
DETAIL
  6
CONTINUOUS
 62
     5
 10
181.1307446806272
 20
-347.59204229311189
 30
0.0
 11
181.1307446806272
 21
-213.84745012283221
 31
0.0
  0
LINE
  8
DETAIL
  6
CONTINUOUS
 62
     5
 10
181.1307446806272
 20
-2.7980040202985492
 30
0.0
 11
177.13359608019999
 21
-2.7980040202985492
 31
0.0
  0
LINE
  8
DETAIL
  6
CONTINUOUS
 62
     5
 10
172.09718884366251
 20
-342.55563505657398
 30
0.0
 11
172.09718884366251
 21
-213.84745012283221
 31
0.0
  0
LINE
  8
DETAIL
  6
CONTINUOUS
 62
     5
 10
172.09718884366251
 20
-7.8344112568363471
 30
0.0
 11
172.41696073169709
 21
-6.2355518166657484
 31
0.0
  0
LINE
  8
DETAIL
  6
CONTINUOUS
 62
     5
 10
172.41696073169709
 20
-6.2355518166657484
 30
0.0
 11
173.21639045178199
 21
-4.716635348503587
 31
0.0
  0
LINE
  8
DETAIL
  6
CONTINUOUS
 62
     5
 10
173.21639045178199
 20
-4.716635348503587
 30
0.0
 11
174.4155350319102
 21
-3.677376712392515
 31
0.0
  0
LINE
  8
DETAIL
  6
CONTINUOUS
 62
     5
 10
174.4155350319102
 20
-3.677376712392515
 30
0.0
 11
175.69462258404681
 21
-3.0378329363243211
 31
0.0
  0
LINE
  8
DETAIL
  6
CONTINUOUS
 62
     5
 10
175.69462258404681
 20
-3.0378329363243211
 30
0.0
 11
177.13359608019999
 21
-2.7980040202985492
 31
0.0
  0
LINE
  8
DETAIL
  6
CONTINUOUS
 62
     5
 10
177.13359608019999
 20
-347.59204229311189
 30
0.0
 11
175.69462258404681
 21
-347.35221337708617
 31
0.0
  0
LINE
  8
DETAIL
  6
CONTINUOUS
 62
     5
 10
175.69462258404681
 20
-347.35221337708617
 30
0.0
 11
174.4155350319102
 21
-346.63272662900948
 31
0.0
  0
LINE
  8
DETAIL
  6
CONTINUOUS
 62
     5
 10
174.4155350319102
 20
-346.63272662900948
 30
0.0
 11
173.21639045178199
 21
-345.67341096490691
 31
0.0
  0
LINE
  8
DETAIL
  6
CONTINUOUS
 62
     5
 10
173.21639045178199
 20
-345.67341096490691
 30
0.0
 11
172.41696073169709
 21
-344.15449449674492
 31
0.0
  0
LINE
  8
DETAIL
  6
CONTINUOUS
 62
     5
 10
172.41696073169709
 20
-344.15449449674492
 30
0.0
 11
172.09718884366251
 21
-342.55563505657398
 31
0.0
  0
LINE
  8
DETAIL
  6
CONTINUOUS
 62
     5
 10
172.09718884366251
 20
-0.7994297200850724
 30
0.0
 11
172.09718884366251
 21
0.0
 31
0.0
  0
LINE
  8
DETAIL
  6
CONTINUOUS
 62
     5
 10
180.4112579325506
 20
0.0
 30
0.0
 11
172.09718884366251
 21
0.0
 31
0.0
  0
LINE
  8
DETAIL
  6
CONTINUOUS
 62
     5
 10
180.4112579325506
 20
0.0
 30
0.0
 11
180.7310298205839
 21
-0.3197718880339835
 31
0.0
  0
LINE
  8
DETAIL
  6
CONTINUOUS
 62
     5
 10
180.7310298205839
 20
-0.3197718880339835
 30
0.0
 11
180.89091576460169
 21
-0.559600804059528
 31
0.0
  0
LINE
  8
DETAIL
  6
CONTINUOUS
 62
     5
 10
180.89091576460169
 20
-0.559600804059528
 30
0.0
 11
181.1307446806272
 21
-1.039258636110844
 31
0.0
  0
LINE
  8
DETAIL
  6
CONTINUOUS
 62
     5
 10
181.1307446806272
 20
-1.039258636110844
 30
0.0
 11
181.1307446806272
 21
-1.5189164681619329
 31
0.0
  0
LINE
  8
DETAIL
  6
CONTINUOUS
 62
     5
 10
181.1307446806272
 20
-1.5189164681619329
 30
0.0
 11
180.89091576460169
 21
-1.838688356196144
 31
0.0
  0
LINE
  8
DETAIL
  6
CONTINUOUS
 62
     5
 10
180.89091576460169
 20
-1.838688356196144
 30
0.0
 11
180.7310298205839
 21
-1.9985743002130221
 31
0.0
  0
LINE
  8
DETAIL
  6
CONTINUOUS
 62
     5
 10
180.7310298205839
 20
-1.9985743002130221
 30
0.0
 11
180.4112579325506
 21
-2.238403216238567
 31
0.0
  0
LINE
  8
DETAIL
  6
CONTINUOUS
 62
     5
 10
172.09718884366251
 20
-349.59061659332542
 30
0.0
 11
172.09718884366251
 21
-350.39004631341072
 31
0.0
  0
LINE
  8
DETAIL
  6
CONTINUOUS
 62
     5
 10
180.4112579325506
 20
-350.39004631341072
 30
0.0
 11
172.09718884366251
 21
-350.39004631341072
 31
0.0
  0
LINE
  8
DETAIL
  6
CONTINUOUS
 62
     5
 10
180.4112579325506
 20
-348.15164309717193
 30
0.0
 11
180.7310298205839
 21
-348.39147201319747
 31
0.0
  0
LINE
  8
DETAIL
  6
CONTINUOUS
 62
     5
 10
180.7310298205839
 20
-348.39147201319747
 30
0.0
 11
180.89091576460169
 21
-348.63130092922307
 31
0.0
  0
LINE
  8
DETAIL
  6
CONTINUOUS
 62
     5
 10
180.89091576460169
 20
-348.63130092922307
 30
0.0
 11
181.1307446806272
 21
-349.19090173328249
 31
0.0
  0
LINE
  8
DETAIL
  6
CONTINUOUS
 62
     5
 10
181.1307446806272
 20
-349.19090173328249
 30
0.0
 11
181.1307446806272
 21
-349.35078767729988
 31
0.0
  0
LINE
  8
DETAIL
  6
CONTINUOUS
 62
     5
 10
181.1307446806272
 20
-349.35078767729988
 30
0.0
 11
180.89091576460169
 21
-349.83044550935119
 31
0.0
  0
LINE
  8
DETAIL
  6
CONTINUOUS
 62
     5
 10
180.89091576460169
 20
-349.83044550935119
 30
0.0
 11
180.7310298205839
 21
-350.07027442537668
 31
0.0
  0
LINE
  8
DETAIL
  6
CONTINUOUS
 62
     5
 10
180.7310298205839
 20
-350.07027442537668
 30
0.0
 11
180.4112579325506
 21
-350.39004631341072
 31
0.0
  0
LINE
  8
DETAIL
  6
CONTINUOUS
 62
     5
 10
181.1307446806272
 20
-168.75961391001829
 30
0.0
 11
181.1307446806272
 21
-2.7980040202985492
 31
0.0
  0
LINE
  8
DETAIL
  6
CONTINUOUS
 62
     5
 10
172.09718884366251
 20
-168.75961391001829
 30
0.0
 11
172.09718884366251
 21
-7.8344112568363471
 31
0.0
  0
LINE
  8
DETAIL
  6
CONTINUOUS
 62
     5
 10
-177.13328380296531
 20
-2.7980040202985492
 30
0.0
 11
-181.2103753754013
 21
-2.7980040202985492
 31
0.0
  0
LINE
  8
DETAIL
  6
CONTINUOUS
 62
     5
 10
-172.09687656642791
 20
-342.55563505657398
 30
0.0
 11
-172.41664845446209
 21
-344.15449449674492
 31
0.0
  0
LINE
  8
DETAIL
  6
CONTINUOUS
 62
     5
 10
-172.41664845446209
 20
-344.15449449674492
 30
0.0
 11
-173.21607817454739
 21
-345.67341096490691
 31
0.0
  0
LINE
  8
DETAIL
  6
CONTINUOUS
 62
     5
 10
-173.21607817454739
 20
-345.67341096490691
 30
0.0
 11
-174.25533681065829
 21
-346.63272662900948
 31
0.0
  0
LINE
  8
DETAIL
  6
CONTINUOUS
 62
     5
 10
-174.25533681065829
 20
-346.63272662900948
 30
0.0
 11
-175.69431030681201
 21
-347.35221337708617
 31
0.0
  0
LINE
  8
DETAIL
  6
CONTINUOUS
 62
     5
 10
-175.69431030681201
 20
-347.35221337708617
 30
0.0
 11
-177.13328380296531
 21
-347.59204229311189
 31
0.0
  0
LINE
  8
DETAIL
  6
CONTINUOUS
 62
     5
 10
-177.13328380296531
 20
-2.7980040202985492
 30
0.0
 11
-175.69431030681201
 21
-3.0378329363243211
 31
0.0
  0
LINE
  8
DETAIL
  6
CONTINUOUS
 62
     5
 10
-175.69431030681201
 20
-3.0378329363243211
 30
0.0
 11
-174.25533681065829
 21
-3.677376712392515
 31
0.0
  0
LINE
  8
DETAIL
  6
CONTINUOUS
 62
     5
 10
-174.25533681065829
 20
-3.677376712392515
 30
0.0
 11
-173.21607817454739
 21
-4.716635348503587
 31
0.0
  0
LINE
  8
DETAIL
  6
CONTINUOUS
 62
     5
 10
-173.21607817454739
 20
-4.716635348503587
 30
0.0
 11
-172.41664845446209
 21
-6.2355518166657484
 31
0.0
  0
LINE
  8
DETAIL
  6
CONTINUOUS
 62
     5
 10
-172.41664845446209
 20
-6.2355518166657484
 30
0.0
 11
-172.09687656642791
 21
-7.8344112568363471
 31
0.0
  0
LINE
  8
DETAIL
  6
CONTINUOUS
 62
     5
 10
-181.2103753754013
 20
-2.7980040202985492
 30
0.0
 11
-181.2103753754013
 21
-168.75961391001829
 31
0.0
  0
LINE
  8
DETAIL
  6
CONTINUOUS
 62
     5
 10
-181.2103753754013
 20
-347.59204229311189
 30
0.0
 11
-177.13328380296531
 21
-347.59204229311189
 31
0.0
  0
LINE
  8
DETAIL
  6
CONTINUOUS
 62
     5
 10
-172.09687656642791
 20
-342.55563505657398
 30
0.0
 11
-172.09687656642791
 21
-213.84745012283221
 31
0.0
  0
LINE
  8
DETAIL
  6
CONTINUOUS
 62
     5
 10
-172.09687656642791
 20
-349.59061659332542
 30
0.0
 11
-172.09687656642791
 21
-350.39004631341072
 31
0.0
  0
LINE
  8
DETAIL
  6
CONTINUOUS
 62
     5
 10
-172.09687656642791
 20
-350.39004631341072
 30
0.0
 11
-180.09117376728139
 21
-350.39004631341072
 31
0.0
  0
LINE
  8
DETAIL
  6
CONTINUOUS
 62
     5
 10
-180.09117376728139
 20
-350.39004631341072
 30
0.0
 11
-180.73071754334981
 21
-350.07027442537668
 31
0.0
  0
LINE
  8
DETAIL
  6
CONTINUOUS
 62
     5
 10
-180.73071754334981
 20
-350.07027442537668
 30
0.0
 11
-180.89060348736669
 21
-349.83044550935119
 31
0.0
  0
LINE
  8
DETAIL
  6
CONTINUOUS
 62
     5
 10
-180.89060348736669
 20
-349.83044550935119
 30
0.0
 11
-180.89060348736669
 21
-349.59061659332542
 31
0.0
  0
LINE
  8
DETAIL
  6
CONTINUOUS
 62
     5
 10
-180.89060348736669
 20
-349.59061659332542
 30
0.0
 11
-181.2103753754013
 21
-349.19090173328249
 31
0.0
  0
LINE
  8
DETAIL
  6
CONTINUOUS
 62
     5
 10
-181.2103753754013
 20
-349.19090173328249
 30
0.0
 11
-180.89060348736669
 21
-348.87112984524862
 31
0.0
  0
LINE
  8
DETAIL
  6
CONTINUOUS
 62
     5
 10
-180.89060348736669
 20
-348.87112984524862
 30
0.0
 11
-180.89060348736669
 21
-348.63130092922307
 31
0.0
  0
LINE
  8
DETAIL
  6
CONTINUOUS
 62
     5
 10
-180.89060348736669
 20
-348.63130092922307
 30
0.0
 11
-180.73071754334981
 21
-348.39147201319747
 31
0.0
  0
LINE
  8
DETAIL
  6
CONTINUOUS
 62
     5
 10
-180.73071754334981
 20
-348.39147201319747
 30
0.0
 11
-180.09117376728139
 21
-348.15164309717193
 31
0.0
  0
LINE
  8
DETAIL
  6
CONTINUOUS
 62
     5
 10
-180.09117376728139
 20
-348.15164309717193
 30
0.0
 11
-179.93128782326451
 21
-348.15164309717193
 31
0.0
  0
LINE
  8
DETAIL
  6
CONTINUOUS
 62
     5
 10
-172.09687656642791
 20
0.0
 30
0.0
 11
-172.09687656642791
 21
-0.7994297200850724
 31
0.0
  0
LINE
  8
DETAIL
  6
CONTINUOUS
 62
     5
 10
-178.17254243907701
 20
-2.238403216238567
 30
0.0
 11
-180.73071754334981
 21
-2.238403216238567
 31
0.0
  0
LINE
  8
DETAIL
  6
CONTINUOUS
 62
     5
 10
-180.73071754334981
 20
-2.238403216238567
 30
0.0
 11
-180.89060348736669
 21
-1.838688356196144
 31
0.0
  0
LINE
  8
DETAIL
  6
CONTINUOUS
 62
     5
 10
-180.89060348736669
 20
-1.838688356196144
 30
0.0
 11
-180.89060348736669
 21
-1.5189164681619329
 31
0.0
  0
LINE
  8
DETAIL
  6
CONTINUOUS
 62
     5
 10
-180.89060348736669
 20
-1.5189164681619329
 30
0.0
 11
-181.2103753754013
 21
-1.1991445801279501
 31
0.0
  0
LINE
  8
DETAIL
  6
CONTINUOUS
 62
     5
 10
-181.2103753754013
 20
-1.1991445801279501
 30
0.0
 11
-180.89060348736669
 21
-0.7994297200850724
 31
0.0
  0
LINE
  8
DETAIL
  6
CONTINUOUS
 62
     5
 10
-180.89060348736669
 20
-0.7994297200850724
 30
0.0
 11
-180.89060348736669
 21
-0.559600804059528
 31
0.0
  0
LINE
  8
DETAIL
  6
CONTINUOUS
 62
     5
 10
-180.89060348736669
 20
-0.559600804059528
 30
0.0
 11
-180.73071754334981
 21
-0.3197718880339835
 31
0.0
  0
LINE
  8
DETAIL
  6
CONTINUOUS
 62
     5
 10
-180.73071754334981
 20
-0.3197718880339835
 30
0.0
 11
-180.09117376728139
 21
0.0
 31
0.0
  0
LINE
  8
DETAIL
  6
CONTINUOUS
 62
     5
 10
-180.09117376728139
 20
0.0
 30
0.0
 11
-172.09687656642791
 21
0.0
 31
0.0
  0
LINE
  8
DETAIL
  6
CONTINUOUS
 62
     5
 10
-180.09117376728139
 20
-0.7994297200850724
 30
0.0
 11
-169.9384163221971
 21
-0.7994297200850724
 31
0.0
  0
LINE
  8
DETAIL
  6
CONTINUOUS
 62
     5
 10
-179.6115159352303
 20
-0.7994297200850724
 30
0.0
 11
-179.3716870192047
 21
-1.039258636110844
 31
0.0
  0
LINE
  8
DETAIL
  6
CONTINUOUS
 62
     5
 10
-179.3716870192047
 20
-1.039258636110844
 30
0.0
 11
-179.3716870192047
 21
-1.1991445801279501
 31
0.0
  0
LINE
  8
DETAIL
  6
CONTINUOUS
 62
     5
 10
-179.3716870192047
 20
-1.1991445801279501
 30
0.0
 11
-179.6115159352303
 21
-1.5189164681619329
 31
0.0
  0
LINE
  8
DETAIL
  6
CONTINUOUS
 62
     5
 10
-177.13328380296531
 20
-1.5189164681619329
 30
0.0
 11
-180.09117376728139
 21
-1.5189164681619329
 31
0.0
  0
LINE
  8
DETAIL
  6
CONTINUOUS
 62
     5
 10
-180.09117376728139
 20
-1.5189164681619329
 30
0.0
 11
-180.09117376728139
 21
-0.7994297200850724
 31
0.0
  0
LINE
  8
DETAIL
  6
CONTINUOUS
 62
     5
 10
-181.2103753754013
 20
-213.84745012283221
 30
0.0
 11
-181.2103753754013
 21
-347.59204229311189
 31
0.0
  0
LINE
  8
DETAIL
  6
CONTINUOUS
 62
     5
 10
-172.09687656642791
 20
-168.75961391001829
 30
0.0
 11
-172.09687656642791
 21
-7.8344112568363471
 31
0.0
  0
LINE
  8
DETAIL
  6
CONTINUOUS
 62
     5
 10
181.85023142870409
 20
-346.87255554503508
 30
0.0
 11
181.1307446806272
 21
-346.87255554503508
 31
0.0
  0
LINE
  8
DETAIL
  6
CONTINUOUS
 62
     5
 10
181.85023142870409
 20
-346.87255554503508
 30
0.0
 11
181.85023142870409
 21
-213.84745012283221
 31
0.0
  0
LINE
  8
DETAIL
  6
CONTINUOUS
 62
     5
 10
181.85023142870409
 20
-3.51749076837541
 30
0.0
 11
181.1307446806272
 21
-3.51749076837541
 31
0.0
  0
LINE
  8
DETAIL
  6
CONTINUOUS
 62
     5
 10
181.1307446806272
 20
-348.15164309717193
 30
0.0
 11
179.93160010049951
 21
-348.15164309717193
 31
0.0
  0
LINE
  8
DETAIL
  6
CONTINUOUS
 62
     5
 10
173.21639045178199
 20
0.2398289160255445
 30
0.0
 11
173.21639045178199
 21
0.9593156641026326
 31
0.0
  0
LINE
  8
DETAIL
  6
CONTINUOUS
 62
     5
 10
173.21639045178199
 20
0.2398289160255445
 30
0.0
 11
174.09576314387601
 21
0.0
 31
0.0
  0
LINE
  8
DETAIL
  6
CONTINUOUS
 62
     5
 10
173.21639045178199
 20
0.9593156641026326
 30
0.0
 11
180.89091576460169
 21
0.0
 31
0.0
  0
LINE
  8
DETAIL
  6
CONTINUOUS
 62
     5
 10
180.89091576460169
 20
0.0
 30
0.0
 11
181.1307446806272
 21
0.0
 31
0.0
  0
LINE
  8
DETAIL
  6
CONTINUOUS
 62
     5
 10
181.1307446806272
 20
0.0
 30
0.0
 11
181.61040251267829
 21
-0.3197718880339835
 31
0.0
  0
LINE
  8
DETAIL
  6
CONTINUOUS
 62
     5
 10
181.61040251267829
 20
-0.3197718880339835
 30
0.0
 11
181.85023142870409
 21
-0.7994297200850724
 31
0.0
  0
LINE
  8
DETAIL
  6
CONTINUOUS
 62
     5
 10
181.85023142870409
 20
-0.7994297200850724
 30
0.0
 11
181.85023142870409
 21
-1.5189164681619329
 31
0.0
  0
LINE
  8
DETAIL
  6
CONTINUOUS
 62
     5
 10
181.85023142870409
 20
-1.5189164681619329
 30
0.0
 11
181.61040251267829
 21
-1.838688356196144
 31
0.0
  0
LINE
  8
DETAIL
  6
CONTINUOUS
 62
     5
 10
181.61040251267829
 20
-1.838688356196144
 30
0.0
 11
181.3705735966528
 21
-1.9985743002130221
 31
0.0
  0
LINE
  8
DETAIL
  6
CONTINUOUS
 62
     5
 10
181.3705735966528
 20
-1.9985743002130221
 30
0.0
 11
181.1307446806272
 21
-2.238403216238567
 31
0.0
  0
LINE
  8
DETAIL
  6
CONTINUOUS
 62
     5
 10
173.21639045178199
 20
-350.62987522943632
 30
0.0
 11
173.21639045178199
 21
-351.34936197751318
 31
0.0
  0
LINE
  8
DETAIL
  6
CONTINUOUS
 62
     5
 10
173.21639045178199
 20
-350.62987522943632
 30
0.0
 11
174.09576314387601
 21
-350.39004631341072
 31
0.0
  0
LINE
  8
DETAIL
  6
CONTINUOUS
 62
     5
 10
173.21639045178199
 20
-351.34936197751318
 30
0.0
 11
180.89091576460169
 21
-350.39004631341072
 31
0.0
  0
LINE
  8
DETAIL
  6
CONTINUOUS
 62
     5
 10
181.1307446806272
 20
-348.15164309717193
 30
0.0
 11
181.3705735966528
 21
-348.39147201319747
 31
0.0
  0
LINE
  8
DETAIL
  6
CONTINUOUS
 62
     5
 10
181.3705735966528
 20
-348.39147201319747
 30
0.0
 11
181.61040251267829
 21
-348.63130092922307
 31
0.0
  0
LINE
  8
DETAIL
  6
CONTINUOUS
 62
     5
 10
181.61040251267829
 20
-348.63130092922307
 30
0.0
 11
181.85023142870409
 21
-348.87112984524862
 31
0.0
  0
LINE
  8
DETAIL
  6
CONTINUOUS
 62
     5
 10
181.85023142870409
 20
-348.87112984524862
 30
0.0
 11
181.85023142870409
 21
-349.83044550935119
 31
0.0
  0
LINE
  8
DETAIL
  6
CONTINUOUS
 62
     5
 10
181.85023142870409
 20
-349.83044550935119
 30
0.0
 11
181.61040251267829
 21
-350.07027442537668
 31
0.0
  0
LINE
  8
DETAIL
  6
CONTINUOUS
 62
     5
 10
181.61040251267829
 20
-350.07027442537668
 30
0.0
 11
181.1307446806272
 21
-350.39004631341072
 31
0.0
  0
LINE
  8
DETAIL
  6
CONTINUOUS
 62
     5
 10
181.1307446806272
 20
-350.39004631341072
 30
0.0
 11
180.89091576460169
 21
-350.39004631341072
 31
0.0
  0
LINE
  8
DETAIL
  6
CONTINUOUS
 62
     5
 10
181.85023142870409
 20
-164.76246530959131
 30
0.0
 11
181.85023142870409
 21
-3.51749076837541
 31
0.0
  0
LINE
  8
DETAIL
  6
CONTINUOUS
 62
     5
 10
234.01373351416669
 20
-169.7988725461291
 30
0.0
 11
234.01373351416669
 21
-164.76246530959131
 31
0.0
  0
LINE
  8
DETAIL
  6
CONTINUOUS
 62
     5
 10
231.05584354985081
 20
-164.76246530959131
 30
0.0
 11
234.01373351416669
 21
-169.7988725461291
 31
0.0
  0
LINE
  8
DETAIL
  6
CONTINUOUS
 62
     5
 10
236.7317945624566
 20
-164.76246530959131
 30
0.0
 11
234.01373351416669
 21
-169.7988725461291
 31
0.0
  0
LINE
  8
DETAIL
  6
CONTINUOUS
 62
     5
 10
239.92951344279851
 20
-164.76246530959131
 30
0.0
 11
239.92951344279851
 21
-182.90951995552879
 31
0.0
  0
LINE
  8
DETAIL
  6
CONTINUOUS
 62
     5
 10
239.92951344279851
 20
-182.90951995552879
 30
0.0
 11
239.68968452677291
 21
-184.74820831172519
 31
0.0
  0
LINE
  8
DETAIL
  6
CONTINUOUS
 62
     5
 10
239.68968452677291
 20
-184.74820831172519
 30
0.0
 11
238.97019777869559
 21
-186.42701072390449
 31
0.0
  0
LINE
  8
DETAIL
  6
CONTINUOUS
 62
     5
 10
238.97019777869559
 20
-186.42701072390449
 30
0.0
 11
237.93093914258469
 21
-187.86598422005821
 31
0.0
  0
LINE
  8
DETAIL
  6
CONTINUOUS
 62
     5
 10
161.46446128929321
 20
-175.23499464270941
 30
0.0
 11
160.26531670916509
 21
-185.22786614377631
 31
0.0
  0
LINE
  8
DETAIL
  6
CONTINUOUS
 62
     5
 10
160.26531670916509
 20
-185.22786614377631
 30
0.0
 11
157.7870845769003
 21
-194.66113684078371
 31
0.0
  0
LINE
  8
DETAIL
  6
CONTINUOUS
 62
     5
 10
157.7870845769003
 20
-194.66113684078371
 30
0.0
 11
154.18965083651639
 21
-204.01446456578239
 31
0.0
  0
LINE
  8
DETAIL
  6
CONTINUOUS
 62
     5
 10
182.09006034472961
 20
-166.6810966377964
 30
0.0
 11
181.1307446806272
 21
-166.6810966377964
 31
0.0
  0
LINE
  8
DETAIL
  6
CONTINUOUS
 62
     5
 10
161.46446128929321
 20
-175.23499464270941
 30
0.0
 11
161.9441191213443
 21
-173.15647737048789
 31
0.0
  0
LINE
  8
DETAIL
  6
CONTINUOUS
 62
     5
 10
161.9441191213443
 20
-173.15647737048789
 30
0.0
 11
162.98369003468969
 21
-171.4776749583082
 31
0.0
  0
LINE
  8
DETAIL
  6
CONTINUOUS
 62
     5
 10
162.98369003468969
 20
-171.4776749583082
 30
0.0
 11
164.42266353084301
 21
-169.95875849014621
 31
0.0
  0
LINE
  8
DETAIL
  6
CONTINUOUS
 62
     5
 10
164.42266353084301
 20
-169.95875849014621
 30
0.0
 11
166.1014659430225
 21
-169.15932877006071
 31
0.0
  0
LINE
  8
DETAIL
  6
CONTINUOUS
 62
     5
 10
166.1014659430225
 20
-169.15932877006071
 30
0.0
 11
168.41981213126999
 21
-168.75961391001829
 31
0.0
  0
LINE
  8
DETAIL
  6
CONTINUOUS
 62
     5
 10
182.09006034472961
 20
-168.75961391001829
 30
0.0
 11
168.41981213126999
 21
-168.75961391001829
 31
0.0
  0
LINE
  8
DETAIL
  6
CONTINUOUS
 62
     5
 10
205.11363628318759
 20
-169.7988725461291
 30
0.0
 11
205.11363628318759
 21
-164.76246530959131
 31
0.0
  0
LINE
  8
DETAIL
  6
CONTINUOUS
 62
     5
 10
207.8316973314777
 20
-164.76246530959131
 30
0.0
 11
205.11363628318759
 21
-169.7988725461291
 31
0.0
  0
LINE
  8
DETAIL
  6
CONTINUOUS
 62
     5
 10
201.9958603748548
 20
-164.76246530959131
 30
0.0
 11
205.11363628318759
 21
-169.7988725461291
 31
0.0
  0
LINE
  8
DETAIL
  6
CONTINUOUS
 62
     5
 10
193.36201939793321
 20
-187.38632638800689
 30
0.0
 11
169.61895671139811
 21
-187.38632638800689
 31
0.0
  0
LINE
  8
DETAIL
  6
CONTINUOUS
 62
     5
 10
169.61895671139811
 20
-197.37919788907399
 30
0.0
 11
168.25992618725289
 21
-197.13936897304819
 31
0.0
  0
LINE
  8
DETAIL
  6
CONTINUOUS
 62
     5
 10
168.25992618725289
 20
-197.13936897304819
 30
0.0
 11
166.9008956631078
 21
-196.33993925296289
 31
0.0
  0
LINE
  8
DETAIL
  6
CONTINUOUS
 62
     5
 10
166.9008956631078
 20
-196.33993925296289
 30
0.0
 11
165.78169405498829
 21
-195.38062358886029
 31
0.0
  0
LINE
  8
DETAIL
  6
CONTINUOUS
 62
     5
 10
165.78169405498829
 20
-195.38062358886029
 30
0.0
 11
164.98226433490319
 21
-193.86170712069841
 31
0.0
  0
LINE
  8
DETAIL
  6
CONTINUOUS
 62
     5
 10
164.98226433490319
 20
-193.86170712069841
 30
0.0
 11
164.66249244686861
 21
-192.42273362454469
 31
0.0
  0
LINE
  8
DETAIL
  6
CONTINUOUS
 62
     5
 10
164.66249244686861
 20
-192.42273362454469
 30
0.0
 11
164.98226433490319
 21
-190.9038171563825
 31
0.0
  0
LINE
  8
DETAIL
  6
CONTINUOUS
 62
     5
 10
164.98226433490319
 20
-190.9038171563825
 30
0.0
 11
165.78169405498829
 21
-189.38490068822031
 31
0.0
  0
LINE
  8
DETAIL
  6
CONTINUOUS
 62
     5
 10
165.78169405498829
 20
-189.38490068822031
 30
0.0
 11
166.9008956631078
 21
-188.42558502411791
 31
0.0
  0
LINE
  8
DETAIL
  6
CONTINUOUS
 62
     5
 10
166.9008956631078
 20
-188.42558502411791
 30
0.0
 11
168.25992618725289
 21
-187.7060982760411
 31
0.0
  0
LINE
  8
DETAIL
  6
CONTINUOUS
 62
     5
 10
168.25992618725289
 20
-187.7060982760411
 30
0.0
 11
169.61895671139811
 21
-187.38632638800689
 31
0.0
  0
LINE
  8
DETAIL
  6
CONTINUOUS
 62
     5
 10
169.61895671139811
 20
-197.37919788907399
 30
0.0
 11
193.36201939793321
 21
-197.37919788907399
 31
0.0
  0
LINE
  8
DETAIL
  6
CONTINUOUS
 62
     5
 10
193.36201939793321
 20
-187.38632638800689
 30
0.0
 11
195.12076478212131
 21
-187.7060982760411
 31
0.0
  0
LINE
  8
DETAIL
  6
CONTINUOUS
 62
     5
 10
195.12076478212131
 20
-187.7060982760411
 30
0.0
 11
196.55973827827461
 21
-188.66541394014351
 31
0.0
  0
LINE
  8
DETAIL
  6
CONTINUOUS
 62
     5
 10
196.55973827827461
 20
-188.66541394014351
 30
0.0
 11
197.59899691438559
 21
-189.86455852027169
 31
0.0
  0
LINE
  8
DETAIL
  6
CONTINUOUS
 62
     5
 10
197.59899691438559
 20
-189.86455852027169
 30
0.0
 11
198.31848366246211
 21
-191.38347498843359
 31
0.0
  0
LINE
  8
DETAIL
  6
CONTINUOUS
 62
     5
 10
198.31848366246211
 20
-191.38347498843359
 30
0.0
 11
198.31848366246211
 21
-193.06227740061291
 31
0.0
  0
LINE
  8
DETAIL
  6
CONTINUOUS
 62
     5
 10
198.31848366246211
 20
-193.06227740061291
 30
0.0
 11
197.59899691438559
 21
-194.9009657568092
 31
0.0
  0
LINE
  8
DETAIL
  6
CONTINUOUS
 62
     5
 10
197.59899691438559
 20
-194.9009657568092
 30
0.0
 11
196.55973827827461
 21
-196.1800533089457
 31
0.0
  0
LINE
  8
DETAIL
  6
CONTINUOUS
 62
     5
 10
196.55973827827461
 20
-196.1800533089457
 30
0.0
 11
195.12076478212131
 21
-197.13936897304819
 31
0.0
  0
LINE
  8
DETAIL
  6
CONTINUOUS
 62
     5
 10
195.12076478212131
 20
-197.13936897304819
 30
0.0
 11
193.36201939793321
 21
-197.37919788907399
 31
0.0
  0
LINE
  8
DETAIL
  6
CONTINUOUS
 62
     5
 10
160.74497454121661
 20
-213.84745012283221
 30
0.0
 11
158.5065713249769
 21
-213.28784931877249
 31
0.0
  0
LINE
  8
DETAIL
  6
CONTINUOUS
 62
     5
 10
158.5065713249769
 20
-213.28784931877249
 30
0.0
 11
156.5079970247634
 21
-212.32853365466991
 31
0.0
  0
LINE
  8
DETAIL
  6
CONTINUOUS
 62
     5
 10
156.5079970247634
 20
-212.32853365466991
 30
0.0
 11
154.98908055660129
 21
-210.48984529847371
 31
0.0
  0
LINE
  8
DETAIL
  6
CONTINUOUS
 62
     5
 10
154.98908055660129
 20
-210.48984529847371
 30
0.0
 11
153.9498219204909
 21
-208.65115694227731
 31
0.0
  0
LINE
  8
DETAIL
  6
CONTINUOUS
 62
     5
 10
153.9498219204909
 20
-208.65115694227731
 30
0.0
 11
153.7099930044653
 21
-206.33281075402991
 31
0.0
  0
LINE
  8
DETAIL
  6
CONTINUOUS
 62
     5
 10
153.7099930044653
 20
-206.33281075402991
 30
0.0
 11
154.18965083651639
 21
-204.01446456578239
 31
0.0
  0
LINE
  8
DETAIL
  6
CONTINUOUS
 62
     5
 10
208.0715262475037
 20
-213.84745012283221
 30
0.0
 11
160.74497454121661
 21
-213.84745012283221
 31
0.0
  0
LINE
  8
DETAIL
  6
CONTINUOUS
 62
     5
 10
239.92951344279851
 20
-164.76246530959131
 30
0.0
 11
181.1307446806272
 21
-164.76246530959131
 31
0.0
  0
LINE
  8
DETAIL
  6
CONTINUOUS
 62
     5
 10
162.7438611186642
 20
-200.3370878533899
 30
0.0
 11
164.66249244686861
 21
-200.8966886574494
 31
0.0
  0
LINE
  8
DETAIL
  6
CONTINUOUS
 62
     5
 10
164.66249244686861
 20
-200.8966886574494
 30
0.0
 11
166.42123783105669
 21
-201.5362324335176
 31
0.0
  0
LINE
  8
DETAIL
  6
CONTINUOUS
 62
     5
 10
166.42123783105669
 20
-201.5362324335176
 30
0.0
 11
167.94015429921859
 21
-203.05514890168001
 31
0.0
  0
LINE
  8
DETAIL
  6
CONTINUOUS
 62
     5
 10
167.94015429921859
 20
-203.05514890168001
 30
0.0
 11
168.65964104729599
 21
-204.81389428586769
 31
0.0
  0
LINE
  8
DETAIL
  6
CONTINUOUS
 62
     5
 10
168.65964104729599
 20
-204.81389428586769
 30
0.0
 11
169.13929887934719
 21
-206.812468586081
 31
0.0
  0
LINE
  8
DETAIL
  6
CONTINUOUS
 62
     5
 10
169.13929887934719
 20
-206.812468586081
 30
0.0
 11
169.13929887934719
 21
-212.8081914867212
 31
0.0
  0
LINE
  8
DETAIL
  6
CONTINUOUS
 62
     5
 10
162.7438611186642
 20
-200.3370878533899
 30
0.0
 11
156.66788296878121
 21
-200.3370878533899
 31
0.0
  0
LINE
  8
DETAIL
  6
CONTINUOUS
 62
     5
 10
182.09006034472961
 20
-168.75961391001829
 30
0.0
 11
182.09006034472961
 21
-164.76246530959131
 31
0.0
  0
LINE
  8
DETAIL
  6
CONTINUOUS
 62
     5
 10
237.93093914258469
 20
-187.86598422005821
 30
0.0
 11
213.60793348404101
 21
-211.84887582261879
 31
0.0
  0
LINE
  8
DETAIL
  6
CONTINUOUS
 62
     5
 10
213.60793348404101
 20
-211.84887582261879
 30
0.0
 11
212.0090740438707
 21
-212.8081914867212
 31
0.0
  0
LINE
  8
DETAIL
  6
CONTINUOUS
 62
     5
 10
212.0090740438707
 20
-212.8081914867212
 30
0.0
 11
209.83027163169189
 21
-213.6076212068067
 31
0.0
  0
LINE
  8
DETAIL
  6
CONTINUOUS
 62
     5
 10
209.83027163169189
 20
-213.6076212068067
 30
0.0
 11
208.0715262475037
 21
-213.84745012283221
 31
0.0
  0
LINE
  8
DETAIL
  6
CONTINUOUS
 62
     5
 10
-240.00914413757209
 20
-164.76246530959131
 30
0.0
 11
-181.2103753754013
 21
-164.76246530959131
 31
0.0
  0
LINE
  8
DETAIL
  6
CONTINUOUS
 62
     5
 10
-182.08974806749481
 20
-166.6810966377964
 30
0.0
 11
-181.2103753754013
 21
-166.6810966377964
 31
0.0
  0
LINE
  8
DETAIL
  6
CONTINUOUS
 62
     5
 10
-154.26959380852441
 20
-204.01446456578239
 30
0.0
 11
-157.70714160489109
 21
-194.66113684078371
 31
0.0
  0
LINE
  8
DETAIL
  6
CONTINUOUS
 62
     5
 10
-157.70714160489109
 20
-194.66113684078371
 30
0.0
 11
-159.9455448211306
 21
-185.22786614377631
 31
0.0
  0
LINE
  8
DETAIL
  6
CONTINUOUS
 62
     5
 10
-159.9455448211306
 20
-185.22786614377631
 30
0.0
 11
-161.22463237326701
 21
-175.23499464270941
 31
0.0
  0
LINE
  8
DETAIL
  6
CONTINUOUS
 62
     5
 10
-168.25961391001829
 20
-168.75961391001829
 30
0.0
 11
-166.26103960980529
 21
-169.15932877006071
 31
0.0
  0
LINE
  8
DETAIL
  6
CONTINUOUS
 62
     5
 10
-166.26103960980529
 20
-169.15932877006071
 30
0.0
 11
-164.42235125360821
 21
-169.95875849014621
 31
0.0
  0
LINE
  8
DETAIL
  6
CONTINUOUS
 62
     5
 10
-164.42235125360821
 20
-169.95875849014621
 30
0.0
 11
-162.98337775745489
 21
-171.4776749583082
 31
0.0
  0
LINE
  8
DETAIL
  6
CONTINUOUS
 62
     5
 10
-162.98337775745489
 20
-171.4776749583082
 30
0.0
 11
-161.78423317732631
 21
-173.15647737048789
 31
0.0
  0
LINE
  8
DETAIL
  6
CONTINUOUS
 62
     5
 10
-161.78423317732631
 20
-173.15647737048789
 30
0.0
 11
-161.22463237326701
 21
-175.23499464270941
 31
0.0
  0
LINE
  8
DETAIL
  6
CONTINUOUS
 62
     5
 10
-182.08974806749481
 20
-168.75961391001829
 30
0.0
 11
-168.25961391001829
 21
-168.75961391001829
 31
0.0
  0
LINE
  8
DETAIL
  6
CONTINUOUS
 62
     5
 10
-205.03338103394481
 20
-169.7988725461291
 30
0.0
 11
-205.03338103394481
 21
-164.76246530959131
 31
0.0
  0
LINE
  8
DETAIL
  6
CONTINUOUS
 62
     5
 10
-208.3313850542431
 20
-164.76246530959131
 30
0.0
 11
-205.03338103394481
 21
-169.7988725461291
 31
0.0
  0
LINE
  8
DETAIL
  6
CONTINUOUS
 62
     5
 10
-201.99554809762
 20
-164.76246530959131
 30
0.0
 11
-205.03338103394481
 21
-169.7988725461291
 31
0.0
  0
LINE
  8
DETAIL
  6
CONTINUOUS
 62
     5
 10
-233.51342123693209
 20
-169.7988725461291
 30
0.0
 11
-233.51342123693209
 21
-164.76246530959131
 31
0.0
  0
LINE
  8
DETAIL
  6
CONTINUOUS
 62
     5
 10
-230.3956453285991
 20
-164.76246530959131
 30
0.0
 11
-233.51342123693209
 21
-169.7988725461291
 31
0.0
  0
LINE
  8
DETAIL
  6
CONTINUOUS
 62
     5
 10
-236.2314822852218
 20
-164.76246530959131
 30
0.0
 11
-233.51342123693209
 21
-169.7988725461291
 31
0.0
  0
LINE
  8
DETAIL
  6
CONTINUOUS
 62
     5
 10
-193.36170712069861
 20
-187.38632638800689
 30
0.0
 11
-169.61864443416329
 21
-187.38632638800689
 31
0.0
  0
LINE
  8
DETAIL
  6
CONTINUOUS
 62
     5
 10
-169.61864443416329
 20
-187.38632638800689
 30
0.0
 11
-167.93984202198411
 21
-187.7060982760411
 31
0.0
  0
LINE
  8
DETAIL
  6
CONTINUOUS
 62
     5
 10
-167.93984202198411
 20
-187.7060982760411
 30
0.0
 11
-166.42092555382169
 21
-188.66541394014351
 31
0.0
  0
LINE
  8
DETAIL
  6
CONTINUOUS
 62
     5
 10
-166.42092555382169
 20
-188.66541394014351
 30
0.0
 11
-165.46160988971951
 21
-189.86455852027169
 31
0.0
  0
LINE
  8
DETAIL
  6
CONTINUOUS
 62
     5
 10
-165.46160988971951
 20
-189.86455852027169
 30
0.0
 11
-164.66218016963421
 21
-191.38347498843359
 31
0.0
  0
LINE
  8
DETAIL
  6
CONTINUOUS
 62
     5
 10
-164.66218016963421
 20
-191.38347498843359
 30
0.0
 11
-164.66218016963421
 21
-193.06227740061291
 31
0.0
  0
LINE
  8
DETAIL
  6
CONTINUOUS
 62
     5
 10
-164.66218016963421
 20
-193.06227740061291
 30
0.0
 11
-165.46160988971951
 21
-194.9009657568092
 31
0.0
  0
LINE
  8
DETAIL
  6
CONTINUOUS
 62
     5
 10
-165.46160988971951
 20
-194.9009657568092
 30
0.0
 11
-166.42092555382169
 21
-196.1800533089457
 31
0.0
  0
LINE
  8
DETAIL
  6
CONTINUOUS
 62
     5
 10
-166.42092555382169
 20
-196.1800533089457
 30
0.0
 11
-167.93984202198411
 21
-197.13936897304819
 31
0.0
  0
LINE
  8
DETAIL
  6
CONTINUOUS
 62
     5
 10
-167.93984202198411
 20
-197.13936897304819
 30
0.0
 11
-169.61864443416329
 21
-197.37919788907399
 31
0.0
  0
LINE
  8
DETAIL
  6
CONTINUOUS
 62
     5
 10
-169.61864443416329
 20
-197.37919788907399
 30
0.0
 11
-193.36170712069861
 21
-197.37919788907399
 31
0.0
  0
LINE
  8
DETAIL
  6
CONTINUOUS
 62
     5
 10
-193.36170712069861
 20
-197.37919788907399
 30
0.0
 11
-194.88062358886049
 21
-197.13936897304819
 31
0.0
  0
LINE
  8
DETAIL
  6
CONTINUOUS
 62
     5
 10
-194.88062358886049
 20
-197.13936897304819
 30
0.0
 11
-196.31959708501381
 21
-196.33993925296289
 31
0.0
  0
LINE
  8
DETAIL
  6
CONTINUOUS
 62
     5
 10
-196.31959708501381
 20
-196.33993925296289
 30
0.0
 11
-197.35885572112511
 21
-195.38062358886029
 31
0.0
  0
LINE
  8
DETAIL
  6
CONTINUOUS
 62
     5
 10
-197.35885572112511
 20
-195.38062358886029
 30
0.0
 11
-198.15828544121089
 21
-193.86170712069841
 31
0.0
  0
LINE
  8
DETAIL
  6
CONTINUOUS
 62
     5
 10
-198.15828544121089
 20
-193.86170712069841
 30
0.0
 11
-198.31817138522771
 21
-192.42273362454469
 31
0.0
  0
LINE
  8
DETAIL
  6
CONTINUOUS
 62
     5
 10
-198.31817138522771
 20
-192.42273362454469
 30
0.0
 11
-198.15828544121089
 21
-190.9038171563825
 31
0.0
  0
LINE
  8
DETAIL
  6
CONTINUOUS
 62
     5
 10
-198.15828544121089
 20
-190.9038171563825
 30
0.0
 11
-197.35885572112511
 21
-189.38490068822031
 31
0.0
  0
LINE
  8
DETAIL
  6
CONTINUOUS
 62
     5
 10
-197.35885572112511
 20
-189.38490068822031
 30
0.0
 11
-196.31959708501381
 21
-188.42558502411791
 31
0.0
  0
LINE
  8
DETAIL
  6
CONTINUOUS
 62
     5
 10
-196.31959708501381
 20
-188.42558502411791
 30
0.0
 11
-194.88062358886049
 21
-187.7060982760411
 31
0.0
  0
LINE
  8
DETAIL
  6
CONTINUOUS
 62
     5
 10
-194.88062358886049
 20
-187.7060982760411
 30
0.0
 11
-193.36170712069861
 21
-187.38632638800689
 31
0.0
  0
LINE
  8
DETAIL
  6
CONTINUOUS
 62
     5
 10
-154.26959380852441
 20
-204.01446456578239
 30
0.0
 11
-153.78993597647329
 21
-206.33281075402991
 31
0.0
  0
LINE
  8
DETAIL
  6
CONTINUOUS
 62
     5
 10
-153.78993597647329
 20
-206.33281075402991
 30
0.0
 11
-153.94982192049059
 21
-208.65115694227731
 31
0.0
  0
LINE
  8
DETAIL
  6
CONTINUOUS
 62
     5
 10
-153.94982192049059
 20
-208.65115694227731
 30
0.0
 11
-154.66930866856731
 21
-210.48984529847371
 31
0.0
  0
LINE
  8
DETAIL
  6
CONTINUOUS
 62
     5
 10
-154.66930866856731
 20
-210.48984529847371
 30
0.0
 11
-156.507997024763
 21
-212.32853365466991
 31
0.0
  0
LINE
  8
DETAIL
  6
CONTINUOUS
 62
     5
 10
-156.507997024763
 20
-212.32853365466991
 30
0.0
 11
-158.5065713249769
 21
-213.28784931877249
 31
0.0
  0
LINE
  8
DETAIL
  6
CONTINUOUS
 62
     5
 10
-158.5065713249769
 20
-213.28784931877249
 30
0.0
 11
-160.7449745412159
 21
-213.84745012283221
 31
0.0
  0
LINE
  8
DETAIL
  6
CONTINUOUS
 62
     5
 10
-208.5712139702687
 20
-213.84745012283221
 30
0.0
 11
-160.7449745412159
 21
-213.84745012283221
 31
0.0
  0
LINE
  8
DETAIL
  6
CONTINUOUS
 62
     5
 10
-240.00914413757209
 20
-164.76246530959131
 30
0.0
 11
-240.00914413757209
 21
-182.90951995552879
 31
0.0
  0
LINE
  8
DETAIL
  6
CONTINUOUS
 62
     5
 10
-168.89915768608671
 20
-206.812468586081
 30
0.0
 11
-168.73927174206941
 21
-204.81389428586769
 31
0.0
  0
LINE
  8
DETAIL
  6
CONTINUOUS
 62
     5
 10
-168.73927174206941
 20
-204.81389428586769
 30
0.0
 11
-167.62007013394989
 21
-203.05514890168001
 31
0.0
  0
LINE
  8
DETAIL
  6
CONTINUOUS
 62
     5
 10
-167.62007013394989
 20
-203.05514890168001
 30
0.0
 11
-166.42092555382169
 21
-201.5362324335176
 31
0.0
  0
LINE
  8
DETAIL
  6
CONTINUOUS
 62
     5
 10
-166.42092555382169
 20
-201.5362324335176
 30
0.0
 11
-164.66218016963421
 21
-200.8966886574494
 31
0.0
  0
LINE
  8
DETAIL
  6
CONTINUOUS
 62
     5
 10
-164.66218016963421
 20
-200.8966886574494
 30
0.0
 11
-162.66360586942031
 21
-200.3370878533899
 31
0.0
  0
LINE
  8
DETAIL
  6
CONTINUOUS
 62
     5
 10
-168.89915768608671
 20
-206.812468586081
 30
0.0
 11
-168.89915768608671
 21
-212.8081914867212
 31
0.0
  0
LINE
  8
DETAIL
  6
CONTINUOUS
 62
     5
 10
-162.66360586942031
 20
-200.3370878533899
 30
0.0
 11
-156.507997024763
 21
-200.3370878533899
 31
0.0
  0
LINE
  8
DETAIL
  6
CONTINUOUS
 62
     5
 10
-182.08974806749481
 20
-168.75961391001829
 30
0.0
 11
-182.08974806749481
 21
-164.76246530959131
 31
0.0
  0
LINE
  8
DETAIL
  6
CONTINUOUS
 62
     5
 10
-237.69079794932441
 20
-187.86598422005821
 30
0.0
 11
-213.28784931877269
 21
-211.84887582261879
 31
0.0
  0
LINE
  8
DETAIL
  6
CONTINUOUS
 62
     5
 10
-237.69079794932441
 20
-187.86598422005821
 30
0.0
 11
-238.96988550146119
 21
-186.42701072390449
 31
0.0
  0
LINE
  8
DETAIL
  6
CONTINUOUS
 62
     5
 10
-238.96988550146119
 20
-186.42701072390449
 30
0.0
 11
-239.68937224953791
 21
-184.74820831172519
 31
0.0
  0
LINE
  8
DETAIL
  6
CONTINUOUS
 62
     5
 10
-239.68937224953791
 20
-184.74820831172519
 30
0.0
 11
-240.00914413757209
 21
-182.90951995552879
 31
0.0
  0
LINE
  8
DETAIL
  6
CONTINUOUS
 62
     5
 10
-208.5712139702687
 20
-213.84745012283221
 30
0.0
 11
-210.32995935445661
 21
-213.6076212068067
 31
0.0
  0
LINE
  8
DETAIL
  6
CONTINUOUS
 62
     5
 10
-210.32995935445661
 20
-213.6076212068067
 30
0.0
 11
-212.08870473864499
 21
-212.8081914867212
 31
0.0
  0
LINE
  8
DETAIL
  6
CONTINUOUS
 62
     5
 10
-212.08870473864499
 20
-212.8081914867212
 30
0.0
 11
-213.28784931877269
 21
-211.84887582261879
 31
0.0
  0
LINE
  8
DETAIL
  6
CONTINUOUS
 62
     5
 10
193.36201939793321
 20
-54.521106909821128
 30
0.0
 11
196.31990936224909
 21
-55.160650685889102
 31
0.0
  0
LINE
  8
DETAIL
  6
CONTINUOUS
 62
     5
 10
196.31990936224909
 20
-55.160650685889102
 30
0.0
 11
199.0379704105394
 21
-56.679567154051483
 31
0.0
  0
LINE
  8
DETAIL
  6
CONTINUOUS
 62
     5
 10
199.0379704105394
 20
-56.679567154051483
 30
0.0
 11
201.35631659878661
 21
-58.518255510247847
 31
0.0
  0
LINE
  8
DETAIL
  6
CONTINUOUS
 62
     5
 10
201.35631659878661
 20
-58.518255510247847
 30
0.0
 11
202.79529009494061
 21
-61.636031418580608
 31
0.0
  0
LINE
  8
DETAIL
  6
CONTINUOUS
 62
     5
 10
202.79529009494061
 20
-61.636031418580608
 30
0.0
 11
203.35489089899991
 21
-64.51397841088783
 31
0.0
  0
LINE
  8
DETAIL
  6
CONTINUOUS
 62
     5
 10
203.35489089899991
 20
-143.25780583929549
 30
0.0
 11
202.79529009494061
 21
-146.3755817476283
 31
0.0
  0
LINE
  8
DETAIL
  6
CONTINUOUS
 62
     5
 10
202.79529009494061
 20
-146.3755817476283
 30
0.0
 11
201.35631659878661
 21
-149.01369982390969
 31
0.0
  0
LINE
  8
DETAIL
  6
CONTINUOUS
 62
     5
 10
201.35631659878661
 20
-149.01369982390969
 30
0.0
 11
199.0379704105394
 21
-151.33204601215741
 31
0.0
  0
LINE
  8
DETAIL
  6
CONTINUOUS
 62
     5
 10
199.0379704105394
 20
-151.33204601215741
 30
0.0
 11
196.31990936224909
 21
-152.85096248031959
 31
0.0
  0
LINE
  8
DETAIL
  6
CONTINUOUS
 62
     5
 10
196.31990936224909
 20
-152.85096248031959
 30
0.0
 11
193.36201939793321
 21
-153.2506773403625
 31
0.0
  0
LINE
  8
DETAIL
  6
CONTINUOUS
 62
     5
 10
181.85023142870409
 20
-54.521106909821128
 30
0.0
 11
193.36201939793321
 21
-54.521106909821128
 31
0.0
  0
LINE
  8
DETAIL
  6
CONTINUOUS
 62
     5
 10
193.36201939793321
 20
-153.2506773403625
 30
0.0
 11
181.85023142870409
 21
-153.2506773403625
 31
0.0
  0
LINE
  8
DETAIL
  6
CONTINUOUS
 62
     5
 10
203.35489089899991
 20
-143.25780583929549
 30
0.0
 11
203.35489089899991
 21
-64.51397841088783
 31
0.0
  0
LINE
  8
DETAIL
  6
CONTINUOUS
 62
     5
 10
-164.42235125360821
 20
-205.1336661739017
 30
0.0
 11
-160.9848034572415
 21
-208.65115694227731
 31
0.0
  0
LINE
  8
DETAIL
  6
CONTINUOUS
 62
     5
 10
-160.9848034572415
 20
-205.1336661739017
 30
0.0
 11
-164.42235125360821
 21
-208.65115694227731
 31
0.0
  0
LINE
  8
DETAIL
  6
CONTINUOUS
 62
     5
 10
-168.41949985403519
 20
-206.812468586081
 30
0.0
 11
-168.25961391001829
 21
-204.81389428586769
 31
0.0
  0
LINE
  8
DETAIL
  6
CONTINUOUS
 62
     5
 10
-168.25961391001829
 20
-204.81389428586769
 30
0.0
 11
-167.14041230189881
 21
-203.05514890168001
 31
0.0
  0
LINE
  8
DETAIL
  6
CONTINUOUS
 62
     5
 10
-167.14041230189881
 20
-203.05514890168001
 30
0.0
 11
-165.9412677217706
 21
-201.85600432155161
 31
0.0
  0
LINE
  8
DETAIL
  6
CONTINUOUS
 62
     5
 10
-165.9412677217706
 20
-201.85600432155161
 30
0.0
 11
-163.9426934215571
 21
-201.136517573475
 31
0.0
  0
LINE
  8
DETAIL
  6
CONTINUOUS
 62
     5
 10
-163.9426934215571
 20
-201.136517573475
 30
0.0
 11
-162.18394803736919
 21
-200.8966886574494
 31
0.0
  0
LINE
  8
DETAIL
  6
CONTINUOUS
 62
     5
 10
-162.18394803736919
 20
-200.8966886574494
 30
0.0
 11
-160.1853737371562
 21
-201.37634648950049
 31
0.0
  0
LINE
  8
DETAIL
  6
CONTINUOUS
 62
     5
 10
-160.1853737371562
 20
-201.37634648950049
 30
0.0
 11
-158.7464002410029
 21
-202.65543404163711
 31
0.0
  0
LINE
  8
DETAIL
  6
CONTINUOUS
 62
     5
 10
-158.7464002410029
 20
-202.65543404163711
 30
0.0
 11
-157.4673126888656
 21
-204.01446456578239
 31
0.0
  0
LINE
  8
DETAIL
  6
CONTINUOUS
 62
     5
 10
-157.4673126888656
 20
-204.01446456578239
 30
0.0
 11
-156.74782594078849
 21
-205.85315292197859
 31
0.0
  0
LINE
  8
DETAIL
  6
CONTINUOUS
 62
     5
 10
-156.74782594078849
 20
-205.85315292197859
 30
0.0
 11
-156.74782594078849
 21
-207.85172722219201
 31
0.0
  0
LINE
  8
DETAIL
  6
CONTINUOUS
 62
     5
 10
-156.74782594078849
 20
-207.85172722219201
 30
0.0
 11
-157.4673126888656
 21
-209.61047260637969
 31
0.0
  0
LINE
  8
DETAIL
  6
CONTINUOUS
 62
     5
 10
-157.4673126888656
 20
-209.61047260637969
 30
0.0
 11
-158.7464002410029
 21
-211.1293890745421
 31
0.0
  0
LINE
  8
DETAIL
  6
CONTINUOUS
 62
     5
 10
-158.7464002410029
 20
-211.1293890745421
 30
0.0
 11
-160.1853737371562
 21
-212.08870473864431
 31
0.0
  0
LINE
  8
DETAIL
  6
CONTINUOUS
 62
     5
 10
-160.1853737371562
 20
-212.08870473864431
 30
0.0
 11
-162.18394803736919
 21
-212.64830554270409
 31
0.0
  0
LINE
  8
DETAIL
  6
CONTINUOUS
 62
     5
 10
-162.18394803736919
 20
-212.64830554270409
 30
0.0
 11
-163.9426934215571
 21
-212.64830554270409
 31
0.0
  0
LINE
  8
DETAIL
  6
CONTINUOUS
 62
     5
 10
-163.9426934215571
 20
-212.64830554270409
 30
0.0
 11
-165.9412677217706
 21
-211.84887582261879
 31
0.0
  0
LINE
  8
DETAIL
  6
CONTINUOUS
 62
     5
 10
-165.9412677217706
 20
-211.84887582261879
 30
0.0
 11
-167.14041230189881
 21
-210.32995935445661
 31
0.0
  0
LINE
  8
DETAIL
  6
CONTINUOUS
 62
     5
 10
-167.14041230189881
 20
-210.32995935445661
 30
0.0
 11
-168.25961391001829
 21
-208.81104288629439
 31
0.0
  0
LINE
  8
DETAIL
  6
CONTINUOUS
 62
     5
 10
-168.25961391001829
 20
-208.81104288629439
 30
0.0
 11
-168.41949985403519
 21
-206.812468586081
 31
0.0
  0
LINE
  8
DETAIL
  6
CONTINUOUS
 62
     5
 10
-77.544682848279081
 20
-94.73242183011439
 30
0.0
 11
-80.422629840586524
 21
-97.690311794430272
 31
0.0
  0
LINE
  8
DETAIL
  6
CONTINUOUS
 62
     5
 10
-80.422629840586524
 20
-94.73242183011439
 30
0.0
 11
-77.544682848279081
 21
-97.690311794430272
 31
0.0
  0
LINE
  8
DETAIL
  6
CONTINUOUS
 62
     5
 10
-83.46046277691039
 20
-96.171395326267884
 30
0.0
 11
-83.220633860884845
 21
-94.73242183011439
 31
0.0
  0
LINE
  8
DETAIL
  6
CONTINUOUS
 62
     5
 10
-83.220633860884845
 20
-94.73242183011439
 30
0.0
 11
-82.501147112808212
 21
-93.453334277977774
 31
0.0
  0
LINE
  8
DETAIL
  6
CONTINUOUS
 62
     5
 10
-82.501147112808212
 20
-93.453334277977774
 30
0.0
 11
-81.541831448706034
 21
-92.494018613875369
 31
0.0
  0
LINE
  8
DETAIL
  6
CONTINUOUS
 62
     5
 10
-81.541831448706034
 20
-92.494018613875369
 30
0.0
 11
-80.022914980544101
 21
-91.694588893789842
 31
0.0
  0
LINE
  8
DETAIL
  6
CONTINUOUS
 62
     5
 10
-80.022914980544101
 20
-91.694588893789842
 30
0.0
 11
-78.424055540373047
 21
-91.694588893789842
 31
0.0
  0
LINE
  8
DETAIL
  6
CONTINUOUS
 62
     5
 10
-78.424055540373047
 20
-91.694588893789842
 30
0.0
 11
-77.065025016227992
 21
-91.934417809815614
 31
0.0
  0
LINE
  8
DETAIL
  6
CONTINUOUS
 62
     5
 10
-77.065025016227992
 20
-91.934417809815614
 30
0.0
 11
-75.785937464091148
 21
-92.733847529900913
 31
0.0
  0
LINE
  8
DETAIL
  6
CONTINUOUS
 62
     5
 10
-75.785937464091148
 20
-92.733847529900913
 30
0.0
 11
-74.746678827980759
 21
-94.012935082037529
 31
0.0
  0
LINE
  8
DETAIL
  6
CONTINUOUS
 62
     5
 10
-74.746678827980759
 20
-94.012935082037529
 30
0.0
 11
-74.267020995929215
 21
-95.531851550199463
 31
0.0
  0
LINE
  8
DETAIL
  6
CONTINUOUS
 62
     5
 10
-74.267020995929215
 20
-95.531851550199463
 30
0.0
 11
-74.267020995929215
 21
-96.890882074344972
 31
0.0
  0
LINE
  8
DETAIL
  6
CONTINUOUS
 62
     5
 10
-74.267020995929215
 20
-96.890882074344972
 30
0.0
 11
-74.746678827980759
 21
-98.409798542506906
 31
0.0
  0
LINE
  8
DETAIL
  6
CONTINUOUS
 62
     5
 10
-74.746678827980759
 20
-98.409798542506906
 30
0.0
 11
-75.785937464091148
 21
-99.688886094643749
 31
0.0
  0
LINE
  8
DETAIL
  6
CONTINUOUS
 62
     5
 10
-75.785937464091148
 20
-99.688886094643749
 30
0.0
 11
-77.065025016227992
 21
-100.72814473075439
 31
0.0
  0
LINE
  8
DETAIL
  6
CONTINUOUS
 62
     5
 10
-77.065025016227992
 20
-100.72814473075439
 30
0.0
 11
-78.424055540373047
 21
-100.8880306747717
 31
0.0
  0
LINE
  8
DETAIL
  6
CONTINUOUS
 62
     5
 10
-78.424055540373047
 20
-100.8880306747717
 30
0.0
 11
-80.022914980544101
 21
-100.8880306747717
 31
0.0
  0
LINE
  8
DETAIL
  6
CONTINUOUS
 62
     5
 10
-80.022914980544101
 20
-100.8880306747717
 30
0.0
 11
-81.541831448706034
 21
-100.1685439266948
 31
0.0
  0
LINE
  8
DETAIL
  6
CONTINUOUS
 62
     5
 10
-81.541831448706034
 20
-100.1685439266948
 30
0.0
 11
-82.501147112808212
 21
-99.209228262592433
 31
0.0
  0
LINE
  8
DETAIL
  6
CONTINUOUS
 62
     5
 10
-82.501147112808212
 20
-99.209228262592433
 30
0.0
 11
-83.220633860884845
 21
-97.690311794430272
 31
0.0
  0
LINE
  8
DETAIL
  6
CONTINUOUS
 62
     5
 10
-83.220633860884845
 20
-97.690311794430272
 30
0.0
 11
-83.46046277691039
 21
-96.171395326267884
 31
0.0
  0
LINE
  8
DETAIL
  6
CONTINUOUS
 62
     5
 10
80.422629840586751
 20
-94.73242183011439
 30
0.0
 11
77.464739876270869
 21
-97.690311794430272
 31
0.0
  0
LINE
  8
DETAIL
  6
CONTINUOUS
 62
     5
 10
77.464739876270869
 20
-94.73242183011439
 30
0.0
 11
80.422629840586751
 21
-97.690311794430272
 31
0.0
  0
LINE
  8
DETAIL
  6
CONTINUOUS
 62
     5
 10
74.267020995929443
 20
-96.171395326267884
 30
0.0
 11
74.426906939946775
 21
-94.73242183011439
 31
0.0
  0
LINE
  8
DETAIL
  6
CONTINUOUS
 62
     5
 10
74.426906939946775
 20
-94.73242183011439
 30
0.0
 11
75.226336660032075
 21
-93.453334277977774
 31
0.0
  0
LINE
  8
DETAIL
  6
CONTINUOUS
 62
     5
 10
75.226336660032075
 20
-93.453334277977774
 30
0.0
 11
76.505424212168464
 21
-92.494018613875369
 31
0.0
  0
LINE
  8
DETAIL
  6
CONTINUOUS
 62
     5
 10
76.505424212168464
 20
-92.494018613875369
 30
0.0
 11
77.704568792296413
 21
-91.694588893789842
 31
0.0
  0
LINE
  8
DETAIL
  6
CONTINUOUS
 62
     5
 10
77.704568792296413
 20
-91.694588893789842
 30
0.0
 11
79.223485260458801
 21
-91.694588893789842
 31
0.0
  0
LINE
  8
DETAIL
  6
CONTINUOUS
 62
     5
 10
79.223485260458801
 20
-91.694588893789842
 30
0.0
 11
80.742401728621417
 21
-91.934417809815614
 31
0.0
  0
LINE
  8
DETAIL
  6
CONTINUOUS
 62
     5
 10
80.742401728621417
 20
-91.934417809815614
 30
0.0
 11
82.26131819678335
 21
-92.733847529900913
 31
0.0
  0
LINE
  8
DETAIL
  6
CONTINUOUS
 62
     5
 10
82.26131819678335
 20
-92.733847529900913
 30
0.0
 11
82.900861972851771
 21
-94.012935082037529
 31
0.0
  0
LINE
  8
DETAIL
  6
CONTINUOUS
 62
     5
 10
82.900861972851771
 20
-94.012935082037529
 30
0.0
 11
83.540405748919966
 21
-95.531851550199463
 31
0.0
  0
LINE
  8
DETAIL
  6
CONTINUOUS
 62
     5
 10
83.540405748919966
 20
-95.531851550199463
 30
0.0
 11
83.540405748919966
 21
-96.890882074344972
 31
0.0
  0
LINE
  8
DETAIL
  6
CONTINUOUS
 62
     5
 10
83.540405748919966
 20
-96.890882074344972
 30
0.0
 11
82.900861972851771
 21
-98.409798542506906
 31
0.0
  0
LINE
  8
DETAIL
  6
CONTINUOUS
 62
     5
 10
82.900861972851771
 20
-98.409798542506906
 30
0.0
 11
82.26131819678335
 21
-99.688886094643749
 31
0.0
  0
LINE
  8
DETAIL
  6
CONTINUOUS
 62
     5
 10
82.26131819678335
 20
-99.688886094643749
 30
0.0
 11
80.742401728621417
 21
-100.72814473075439
 31
0.0
  0
LINE
  8
DETAIL
  6
CONTINUOUS
 62
     5
 10
80.742401728621417
 20
-100.72814473075439
 30
0.0
 11
79.223485260458801
 21
-100.8880306747717
 31
0.0
  0
LINE
  8
DETAIL
  6
CONTINUOUS
 62
     5
 10
79.223485260458801
 20
-100.8880306747717
 30
0.0
 11
77.704568792296413
 21
-100.8880306747717
 31
0.0
  0
LINE
  8
DETAIL
  6
CONTINUOUS
 62
     5
 10
77.704568792296413
 20
-100.8880306747717
 30
0.0
 11
76.505424212168464
 21
-100.1685439266948
 31
0.0
  0
LINE
  8
DETAIL
  6
CONTINUOUS
 62
     5
 10
76.505424212168464
 20
-100.1685439266948
 30
0.0
 11
75.226336660032075
 21
-99.209228262592433
 31
0.0
  0
LINE
  8
DETAIL
  6
CONTINUOUS
 62
     5
 10
75.226336660032075
 20
-99.209228262592433
 30
0.0
 11
74.426906939946775
 21
-97.690311794430272
 31
0.0
  0
LINE
  8
DETAIL
  6
CONTINUOUS
 62
     5
 10
74.426906939946775
 20
-97.690311794430272
 30
0.0
 11
74.267020995929443
 21
-96.171395326267884
 31
0.0
  0
LINE
  8
DETAIL
  6
CONTINUOUS
 62
     5
 10
164.42266353084301
 20
-205.1336661739017
 30
0.0
 11
160.98480345724221
 21
-208.65115694227731
 31
0.0
  0
LINE
  8
DETAIL
  6
CONTINUOUS
 62
     5
 10
160.98480345724221
 20
-205.1336661739017
 30
0.0
 11
164.42266353084301
 21
-208.65115694227731
 31
0.0
  0
LINE
  8
DETAIL
  6
CONTINUOUS
 62
     5
 10
156.66788296878121
 20
-206.812468586081
 30
0.0
 11
157.1475408008323
 21
-204.81389428586769
 31
0.0
  0
LINE
  8
DETAIL
  6
CONTINUOUS
 62
     5
 10
157.1475408008323
 20
-204.81389428586769
 30
0.0
 11
157.9469705209176
 21
-203.05514890168001
 31
0.0
  0
LINE
  8
DETAIL
  6
CONTINUOUS
 62
     5
 10
157.9469705209176
 20
-203.05514890168001
 30
0.0
 11
159.46588698907951
 21
-201.85600432155161
 31
0.0
  0
LINE
  8
DETAIL
  6
CONTINUOUS
 62
     5
 10
159.46588698907951
 20
-201.85600432155161
 30
0.0
 11
161.1446894012586
 21
-201.136517573475
 31
0.0
  0
LINE
  8
DETAIL
  6
CONTINUOUS
 62
     5
 10
161.1446894012586
 20
-201.136517573475
 30
0.0
 11
163.22351895071529
 21
-200.8966886574494
 31
0.0
  0
LINE
  8
DETAIL
  6
CONTINUOUS
 62
     5
 10
163.22351895071529
 20
-200.8966886574494
 30
0.0
 11
164.98226433490319
 21
-201.37634648950049
 31
0.0
  0
LINE
  8
DETAIL
  6
CONTINUOUS
 62
     5
 10
164.98226433490319
 20
-201.37634648950049
 30
0.0
 11
166.66106674708229
 21
-202.65543404163711
 31
0.0
  0
LINE
  8
DETAIL
  6
CONTINUOUS
 62
     5
 10
166.66106674708229
 20
-202.65543404163711
 30
0.0
 11
167.94015429921859
 21
-204.01446456578239
 31
0.0
  0
LINE
  8
DETAIL
  6
CONTINUOUS
 62
     5
 10
167.94015429921859
 20
-204.01446456578239
 30
0.0
 11
168.41981213126999
 21
-205.85315292197859
 31
0.0
  0
LINE
  8
DETAIL
  6
CONTINUOUS
 62
     5
 10
168.41981213126999
 20
-205.85315292197859
 30
0.0
 11
168.41981213126999
 21
-207.85172722219201
 31
0.0
  0
LINE
  8
DETAIL
  6
CONTINUOUS
 62
     5
 10
168.41981213126999
 20
-207.85172722219201
 30
0.0
 11
167.94015429921859
 21
-209.61047260637969
 31
0.0
  0
LINE
  8
DETAIL
  6
CONTINUOUS
 62
     5
 10
167.94015429921859
 20
-209.61047260637969
 30
0.0
 11
166.66106674708229
 21
-211.1293890745421
 31
0.0
  0
LINE
  8
DETAIL
  6
CONTINUOUS
 62
     5
 10
166.66106674708229
 20
-211.1293890745421
 30
0.0
 11
164.98226433490319
 21
-212.08870473864431
 31
0.0
  0
LINE
  8
DETAIL
  6
CONTINUOUS
 62
     5
 10
164.98226433490319
 20
-212.08870473864431
 30
0.0
 11
163.22351895071529
 21
-212.64830554270409
 31
0.0
  0
LINE
  8
DETAIL
  6
CONTINUOUS
 62
     5
 10
163.22351895071529
 20
-212.64830554270409
 30
0.0
 11
161.1446894012586
 21
-212.64830554270409
 31
0.0
  0
LINE
  8
DETAIL
  6
CONTINUOUS
 62
     5
 10
161.1446894012586
 20
-212.64830554270409
 30
0.0
 11
159.46588698907951
 21
-211.84887582261879
 31
0.0
  0
LINE
  8
DETAIL
  6
CONTINUOUS
 62
     5
 10
159.46588698907951
 20
-211.84887582261879
 30
0.0
 11
157.9469705209176
 21
-210.32995935445661
 31
0.0
  0
LINE
  8
DETAIL
  6
CONTINUOUS
 62
     5
 10
157.9469705209176
 20
-210.32995935445661
 30
0.0
 11
157.1475408008323
 21
-208.81104288629439
 31
0.0
  0
LINE
  8
DETAIL
  6
CONTINUOUS
 62
     5
 10
157.1475408008323
 20
-208.81104288629439
 30
0.0
 11
156.66788296878121
 21
-206.812468586081
 31
0.0
  0
LINE
  8
DETAIL
  6
CONTINUOUS
 62
     5
 10
80.422629840586751
 20
-252.69973451898011
 30
0.0
 11
77.464739876270869
 21
-255.6576244832961
 31
0.0
  0
LINE
  8
DETAIL
  6
CONTINUOUS
 62
     5
 10
77.464739876270869
 20
-252.69973451898011
 30
0.0
 11
80.422629840586751
 21
-255.6576244832961
 31
0.0
  0
LINE
  8
DETAIL
  6
CONTINUOUS
 62
     5
 10
74.267020995929443
 20
-254.21865098714261
 30
0.0
 11
74.426906939946775
 21
-252.69973451898011
 31
0.0
  0
LINE
  8
DETAIL
  6
CONTINUOUS
 62
     5
 10
74.426906939946775
 20
-252.69973451898011
 30
0.0
 11
75.226336660032075
 21
-251.18081805081829
 31
0.0
  0
LINE
  8
DETAIL
  6
CONTINUOUS
 62
     5
 10
75.226336660032075
 20
-251.18081805081829
 30
0.0
 11
76.505424212168464
 21
-250.22150238671591
 31
0.0
  0
LINE
  8
DETAIL
  6
CONTINUOUS
 62
     5
 10
76.505424212168464
 20
-250.22150238671591
 30
0.0
 11
77.704568792296413
 21
-249.6619015826561
 31
0.0
  0
LINE
  8
DETAIL
  6
CONTINUOUS
 62
     5
 10
77.704568792296413
 20
-249.6619015826561
 30
0.0
 11
79.223485260458801
 21
-249.5020156386388
 31
0.0
  0
LINE
  8
DETAIL
  6
CONTINUOUS
 62
     5
 10
79.223485260458801
 20
-249.5020156386388
 30
0.0
 11
80.742401728621417
 21
-249.9017304986819
 31
0.0
  0
LINE
  8
DETAIL
  6
CONTINUOUS
 62
     5
 10
80.742401728621417
 20
-249.9017304986819
 30
0.0
 11
82.26131819678335
 21
-250.701160218767
 31
0.0
  0
LINE
  8
DETAIL
  6
CONTINUOUS
 62
     5
 10
82.26131819678335
 20
-250.701160218767
 30
0.0
 11
82.900861972851771
 21
-251.98024777090359
 31
0.0
  0
LINE
  8
DETAIL
  6
CONTINUOUS
 62
     5
 10
82.900861972851771
 20
-251.98024777090359
 30
0.0
 11
83.540405748919966
 21
-253.499164239066
 31
0.0
  0
LINE
  8
DETAIL
  6
CONTINUOUS
 62
     5
 10
83.540405748919966
 20
-253.499164239066
 30
0.0
 11
83.540405748919966
 21
-254.8581947632108
 31
0.0
  0
LINE
  8
DETAIL
  6
CONTINUOUS
 62
     5
 10
83.540405748919966
 20
-254.8581947632108
 30
0.0
 11
82.900861972851771
 21
-256.45705420338157
 31
0.0
  0
LINE
  8
DETAIL
  6
CONTINUOUS
 62
     5
 10
82.900861972851771
 20
-256.45705420338157
 30
0.0
 11
82.26131819678335
 21
-257.65619878350958
 31
0.0
  0
LINE
  8
DETAIL
  6
CONTINUOUS
 62
     5
 10
82.26131819678335
 20
-257.65619878350958
 30
0.0
 11
80.742401728621417
 21
-258.45562850359511
 31
0.0
  0
LINE
  8
DETAIL
  6
CONTINUOUS
 62
     5
 10
80.742401728621417
 20
-258.45562850359511
 30
0.0
 11
79.223485260458801
 21
-258.9352863356462
 31
0.0
  0
LINE
  8
DETAIL
  6
CONTINUOUS
 62
     5
 10
79.223485260458801
 20
-258.9352863356462
 30
0.0
 11
77.704568792296413
 21
-258.69545741962071
 31
0.0
  0
LINE
  8
DETAIL
  6
CONTINUOUS
 62
     5
 10
77.704568792296413
 20
-258.69545741962071
 30
0.0
 11
76.505424212168464
 21
-258.1358566155609
 31
0.0
  0
LINE
  8
DETAIL
  6
CONTINUOUS
 62
     5
 10
76.505424212168464
 20
-258.1358566155609
 30
0.0
 11
75.226336660032075
 21
-256.93671203543289
 31
0.0
  0
LINE
  8
DETAIL
  6
CONTINUOUS
 62
     5
 10
75.226336660032075
 20
-256.93671203543289
 30
0.0
 11
74.426906939946775
 21
-255.6576244832961
 31
0.0
  0
LINE
  8
DETAIL
  6
CONTINUOUS
 62
     5
 10
74.426906939946775
 20
-255.6576244832961
 30
0.0
 11
74.267020995929443
 21
-254.21865098714261
 31
0.0
  0
LINE
  8
DETAIL
  6
CONTINUOUS
 62
     5
 10
-77.544682848279081
 20
-252.69973451898011
 30
0.0
 11
-80.422629840586524
 21
-255.6576244832961
 31
0.0
  0
LINE
  8
DETAIL
  6
CONTINUOUS
 62
     5
 10
-80.422629840586524
 20
-252.69973451898011
 30
0.0
 11
-77.544682848279081
 21
-255.6576244832961
 31
0.0
  0
LINE
  8
DETAIL
  6
CONTINUOUS
 62
     5
 10
-83.46046277691039
 20
-254.21865098714261
 30
0.0
 11
-83.220633860884845
 21
-252.69973451898011
 31
0.0
  0
LINE
  8
DETAIL
  6
CONTINUOUS
 62
     5
 10
-83.220633860884845
 20
-252.69973451898011
 30
0.0
 11
-82.501147112808212
 21
-251.18081805081829
 31
0.0
  0
LINE
  8
DETAIL
  6
CONTINUOUS
 62
     5
 10
-82.501147112808212
 20
-251.18081805081829
 30
0.0
 11
-81.541831448706034
 21
-250.22150238671591
 31
0.0
  0
LINE
  8
DETAIL
  6
CONTINUOUS
 62
     5
 10
-81.541831448706034
 20
-250.22150238671591
 30
0.0
 11
-80.022914980544101
 21
-249.6619015826561
 31
0.0
  0
LINE
  8
DETAIL
  6
CONTINUOUS
 62
     5
 10
-80.022914980544101
 20
-249.6619015826561
 30
0.0
 11
-78.424055540373047
 21
-249.5020156386388
 31
0.0
  0
LINE
  8
DETAIL
  6
CONTINUOUS
 62
     5
 10
-78.424055540373047
 20
-249.5020156386388
 30
0.0
 11
-77.065025016227992
 21
-249.9017304986819
 31
0.0
  0
LINE
  8
DETAIL
  6
CONTINUOUS
 62
     5
 10
-77.065025016227992
 20
-249.9017304986819
 30
0.0
 11
-75.785937464091148
 21
-250.701160218767
 31
0.0
  0
LINE
  8
DETAIL
  6
CONTINUOUS
 62
     5
 10
-75.785937464091148
 20
-250.701160218767
 30
0.0
 11
-74.746678827980759
 21
-251.98024777090359
 31
0.0
  0
LINE
  8
DETAIL
  6
CONTINUOUS
 62
     5
 10
-74.746678827980759
 20
-251.98024777090359
 30
0.0
 11
-74.267020995929215
 21
-253.499164239066
 31
0.0
  0
LINE
  8
DETAIL
  6
CONTINUOUS
 62
     5
 10
-74.267020995929215
 20
-253.499164239066
 30
0.0
 11
-74.267020995929215
 21
-254.8581947632108
 31
0.0
  0
LINE
  8
DETAIL
  6
CONTINUOUS
 62
     5
 10
-74.267020995929215
 20
-254.8581947632108
 30
0.0
 11
-74.746678827980759
 21
-256.45705420338157
 31
0.0
  0
LINE
  8
DETAIL
  6
CONTINUOUS
 62
     5
 10
-74.746678827980759
 20
-256.45705420338157
 30
0.0
 11
-75.785937464091148
 21
-257.65619878350958
 31
0.0
  0
LINE
  8
DETAIL
  6
CONTINUOUS
 62
     5
 10
-75.785937464091148
 20
-257.65619878350958
 30
0.0
 11
-77.065025016227992
 21
-258.45562850359511
 31
0.0
  0
LINE
  8
DETAIL
  6
CONTINUOUS
 62
     5
 10
-77.065025016227992
 20
-258.45562850359511
 30
0.0
 11
-78.424055540373047
 21
-258.9352863356462
 31
0.0
  0
LINE
  8
DETAIL
  6
CONTINUOUS
 62
     5
 10
-78.424055540373047
 20
-258.9352863356462
 30
0.0
 11
-80.022914980544101
 21
-258.69545741962071
 31
0.0
  0
LINE
  8
DETAIL
  6
CONTINUOUS
 62
     5
 10
-80.022914980544101
 20
-258.69545741962071
 30
0.0
 11
-81.541831448706034
 21
-258.1358566155609
 31
0.0
  0
LINE
  8
DETAIL
  6
CONTINUOUS
 62
     5
 10
-81.541831448706034
 20
-258.1358566155609
 30
0.0
 11
-82.501147112808212
 21
-256.93671203543289
 31
0.0
  0
LINE
  8
DETAIL
  6
CONTINUOUS
 62
     5
 10
-82.501147112808212
 20
-256.93671203543289
 30
0.0
 11
-83.220633860884845
 21
-255.6576244832961
 31
0.0
  0
LINE
  8
DETAIL
  6
CONTINUOUS
 62
     5
 10
-83.220633860884845
 20
-255.6576244832961
 30
0.0
 11
-83.46046277691039
 21
-254.21865098714261
 31
0.0
  0
LINE
  8
OUTLINE
  6
CONTINUOUS
 62
     3
 10
179.93160010049951
 20
-347.59204229311189
 30
0.0
 11
179.93160010049951
 21
-349.59061659332542
 31
0.0
  0
LINE
  8
OUTLINE
  6
CONTINUOUS
 62
     3
 10
178.572569576354
 20
-2.7980040202985492
 30
0.0
 11
176.89376716417451
 21
-1.1991445801279501
 31
0.0
  0
LINE
  8
OUTLINE
  6
CONTINUOUS
 62
     3
 10
-179.93128782326451
 20
-349.59061659332542
 30
0.0
 11
-179.93128782326451
 21
-347.59204229311189
 31
0.0
  0
LINE
  8
OUTLINE
  6
CONTINUOUS
 62
     3
 10
-169.9384163221971
 20
0.0
 30
0.0
 11
169.9387285994319
 21
0.0
 31
0.0
  0
LINE
  8
OUTLINE
  6
CONTINUOUS
 62
     3
 10
179.93160010049951
 20
-349.59061659332542
 30
0.0
 11
-179.93128782326451
 21
-349.59061659332542
 31
0.0
  0
LINE
  8
OUTLINE
  6
CONTINUOUS
 62
     3
 10
169.9387285994319
 20
0.0
 30
0.0
 11
169.9387285994319
 21
-1.1991445801279501
 31
0.0
  0
LINE
  8
OUTLINE
  6
CONTINUOUS
 62
     3
 10
-169.9384163221971
 20
-1.1991445801279501
 30
0.0
 11
-169.9384163221971
 21
0.0
 31
0.0
  0
LINE
  8
OUTLINE
  6
CONTINUOUS
 62
     3
 10
-176.89345488693971
 20
-1.1991445801279501
 30
0.0
 11
-169.9384163221971
 21
-1.1991445801279501
 31
0.0
  0
LINE
  8
OUTLINE
  6
CONTINUOUS
 62
     3
 10
169.9387285994319
 20
-1.1991445801279501
 30
0.0
 11
176.89376716417451
 21
-1.1991445801279501
 31
0.0
  0
LINE
  8
OUTLINE
  6
CONTINUOUS
 62
     3
 10
-176.89345488693971
 20
-1.1991445801279501
 30
0.0
 11
-178.41237135510261
 21
-2.7980040202985492
 31
0.0
  0
LINE
  8
OUTLINE
  6
CONTINUOUS
 62
     3
 10
181.1307446806272
 20
-347.59204229311189
 30
0.0
 11
177.13359608019999
 21
-347.59204229311189
 31
0.0
  0
LINE
  8
OUTLINE
  6
CONTINUOUS
 62
     3
 10
181.1307446806272
 20
-2.7980040202985492
 30
0.0
 11
177.13359608019999
 21
-2.7980040202985492
 31
0.0
  0
LINE
  8
OUTLINE
  6
CONTINUOUS
 62
     3
 10
-177.13328380296531
 20
-2.7980040202985492
 30
0.0
 11
-181.2103753754013
 21
-2.7980040202985492
 31
0.0
  0
LINE
  8
OUTLINE
  6
CONTINUOUS
 62
     3
 10
-181.2103753754013
 20
-347.59204229311189
 30
0.0
 11
-177.13328380296531
 21
-347.59204229311189
 31
0.0
  0
LINE
  8
OUTLINE
  6
CONTINUOUS
 62
     3
 10
-181.2103753754013
 20
-2.7980040202985492
 30
0.0
 11
-181.2103753754013
 21
-347.59204229311189
 31
0.0
  0
LINE
  8
OUTLINE
  6
CONTINUOUS
 62
     3
 10
181.85023142870409
 20
-346.87255554503508
 30
0.0
 11
181.1307446806272
 21
-346.87255554503508
 31
0.0
  0
LINE
  8
OUTLINE
  6
CONTINUOUS
 62
     3
 10
181.85023142870409
 20
-346.87255554503508
 30
0.0
 11
181.85023142870409
 21
-3.51749076837541
 31
0.0
  0
LINE
  8
OUTLINE
  6
CONTINUOUS
 62
     3
 10
181.85023142870409
 20
-3.51749076837541
 30
0.0
 11
181.1307446806272
 21
-3.51749076837541
 31
0.0
  0
LINE
  8
OUTLINE
  6
CONTINUOUS
 62
     3
 10
181.1307446806272
 20
-346.87255554503508
 30
0.0
 11
181.1307446806272
 21
-347.59204229311189
 31
0.0
  0
LINE
  8
SIZE
  6
CONTINUOUS
 62
    30
 10
247.85236438304921
 20
-289.20481442268908
 30
0.0
 11
247.85236438304921
 21
-490.70795975019558
 31
0.0
  0
LINE
  8
SIZE
  6
CONTINUOUS
 62
    30
 10
181.85023142870409
 20
-366.87255554503508
 30
0.0
 11
181.85023142870409
 21
-490.70795975019558
 31
0.0
  0
LINE
  8
SIZE
  6
CONTINUOUS
 62
    30
 10
169.85023142870409
 20
-470.70795975019558
 30
0.0
 11
157.85023142870409
 21
-470.70795975019558
 31
0.0
  0
LINE
  8
SIZE
  6
CONTINUOUS
 62
    30
 10
259.85236438304918
 20
-470.70795975019558
 30
0.0
 11
425.25385758225832
 21
-470.70795975019558
 31
0.0
  0
LINE
  8
SIZE
  6
CONTINUOUS
 62
    30
 10
181.85023142870409
 20
-470.70795975019558
 30
0.0
 11
247.85236438304921
 21
-470.70795975019558
 31
0.0
  0
CIRCLE
  8
SIZE
  6
CONTINUOUS
 62
    30
 10
181.85023142870409
 20
-470.70795975019558
 30
0.0
 40
6.0
  0
LINE
  8
SIZE
  6
CONTINUOUS
 62
    30
 10
181.85023142870409
 20
-470.70795975019558
 30
0.0
 11
169.85023142870409
 21
-470.70795975019558
 31
0.0
  0
CIRCLE
  8
SIZE
  6
CONTINUOUS
 62
    30
 10
247.85236438304921
 20
-470.70795975019558
 30
0.0
 40
6.0
  0
LINE
  8
SIZE
  6
CONTINUOUS
 62
    30
 10
247.85236438304921
 20
-470.70795975019558
 30
0.0
 11
259.85236438304918
 21
-470.70795975019558
 31
0.0
  0
TEXT
  8
SIZE
  6
CONTINUOUS
 62
    30
 10
309.73957186797259
 20
-445.70795975019558
 30
0.0
 40
64.0
  1
66
 41
0.9
 72
     1
 11
354.99671472511551
 21
-445.70795975019558
 31
0.0
  0
POINT
  8
DEFPOINTS
  6
CONTINUOUS
 62
    30
 10
247.85236438304921
 20
-269.20481442268903
 30
0.0
  0
POINT
  8
DEFPOINTS
  6
CONTINUOUS
 62
    30
 10
181.85023142870409
 20
-346.87255554503508
 30
0.0
  0
POINT
  8
DEFPOINTS
  6
CONTINUOUS
 62
    30
 10
181.85023142870409
 20
-470.70795975019558
 30
0.0
  0
ENDSEC
  0
EOF
