  0
SECTION
  2
HEADER
  9
$ACADVER
  1
AC1009
  9
$DWGCODEPAGE
  3
dos932
  9
$INSBASE
 10
0.0
 20
0.0
 30
0.0
  9
$EXTMIN
 10
-1094.2870362436231
 20
-1036.736431
 30
0.0
  9
$EXTMAX
 10
1183.577366425076
 20
907.00221427196038
 30
0.0
  9
$LIMMIN
 10
-2970.0
 20
-2100.0
  9
$LIMMAX
 10
2970.0
 20
2100.0
  9
$ORTHOMODE
 70
     0
  9
$REGENMODE
 70
     1
  9
$FILLMODE
 70
     1
  9
$QTEXTMODE
 70
     0
  9
$MIRRTEXT
 70
     0
  9
$LTSCALE
 40
20.0
  9
$ATTMODE
 70
     1
  9
$TEXTSIZE
 40
64.0
  9
$TRACEWID
 40
0.05
  9
$TEXTSTYLE
  7
STANDARD
  9
$CLAYER
  8
SIZE
  9
$CELTYPE
  6
CONTINUOUS
  9
$CECOLOR
 62
     7
  9
$DIMSCALE
 40
1.0
  9
$DIMASZ
 40
12.0
  9
$DIMEXO
 40
20.0
  9
$DIMDLI
 40
200.0
  9
$DIMRND
 40
0.0
  9
$DIMDLE
 40
0.0
  9
$DIMEXE
 40
20.0
  9
$DIMTP
 40
0.0
  9
$DIMTM
 40
0.0
  9
$DIMTXT
 40
64.0
  9
$DIMCEN
 40
0.09
  9
$DIMTSZ
 40
0.0
  9
$DIMTOL
 70
     0
  9
$DIMLIM
 70
     0
  9
$DIMTIH
 70
     0
  9
$DIMTOH
 70
     0
  9
$DIMSE1
 70
     0
  9
$DIMSE2
 70
     0
  9
$DIMTAD
 70
     1
  9
$DIMZIN
 70
     8
  9
$DIMBLK
  1

  9
$DIMASO
 70
     1
  9
$DIMSHO
 70
     0
  9
$DIMPOST
  1

  9
$DIMAPOST
  1

  9
$DIMALT
 70
     0
  9
$DIMALTD
 70
     2
  9
$DIMALTF
 40
25.399999999999999
  9
$DIMLFAC
 40
1.0
  9
$DIMTOFL
 70
     1
  9
$DIMTVP
 40
0.0
  9
$DIMTIX
 70
     1
  9
$DIMSOXD
 70
     0
  9
$DIMSAH
 70
     0
  9
$DIMBLK1
  1

  9
$DIMBLK2
  1

  9
$DIMSTYLE
  2
STANDARD
  9
$DIMCLRD
 70
     7
  9
$DIMCLRE
 70
     7
  9
$DIMCLRT
 70
     7
  9
$DIMTFAC
 40
1.0
  9
$DIMGAP
 40
25.0
  9
$LUNITS
 70
     2
  9
$LUPREC
 70
     4
  9
$SKETCHINC
 40
0.1
  9
$FILLETRAD
 40
3.0
  9
$AUNITS
 70
     1
  9
$AUPREC
 70
     3
  9
$MENU
  1
ACAD
  9
$ELEVATION
 40
0.0
  9
$PELEVATION
 40
0.0
  9
$THICKNESS
 40
50.0
  9
$LIMCHECK
 70
     0
  9
$CHAMFERA
 40
0.0
  9
$CHAMFERB
 40
0.0
  9
$SKPOLY
 70
     0
  9
$TDCREATE
 40
2453019.62301037
  9
$TDUPDATE
 40
2458659.369555752
  9
$TDINDWG
 40
1.8281525579
  9
$TDUSRTIMER
 40
1.8281525579
  9
$USRTIMER
 70
     1
  9
$ANGBASE
 50
0.0
  9
$ANGDIR
 70
     0
  9
$PDMODE
 70
     3
  9
$PDSIZE
 40
-2.0
  9
$PLINEWID
 40
0.0
  9
$SPLFRAME
 70
     0
  9
$SPLINETYPE
 70
     6
  9
$SPLINESEGS
 70
     8
  9
$SURFTAB1
 70
     6
  9
$SURFTAB2
 70
     6
  9
$SURFTYPE
 70
     6
  9
$SURFU
 70
     6
  9
$SURFV
 70
     6
  9
$UCSNAME
  2

  9
$UCSORG
 10
0.0
 20
0.0
 30
0.0
  9
$UCSXDIR
 10
1.0
 20
0.0
 30
0.0
  9
$UCSYDIR
 10
0.0
 20
1.0
 30
0.0
  9
$PUCSNAME
  2

  9
$PUCSORG
 10
0.0
 20
0.0
 30
0.0
  9
$PUCSXDIR
 10
1.0
 20
0.0
 30
0.0
  9
$PUCSYDIR
 10
0.0
 20
1.0
 30
0.0
  9
$USERI1
 70
     0
  9
$USERI2
 70
     0
  9
$USERI3
 70
     0
  9
$USERI4
 70
     0
  9
$USERI5
 70
     0
  9
$USERR1
 40
20.0
  9
$USERR2
 40
0.0
  9
$USERR3
 40
0.0
  9
$USERR4
 40
0.0
  9
$USERR5
 40
0.0
  9
$WORLDVIEW
 70
     1
  9
$SHADEDGE
 70
     3
  9
$SHADEDIF
 70
    70
  9
$TILEMODE
 70
     1
  9
$MAXACTVP
 70
    48
  9
$PINSBASE
 10
0.0
 20
0.0
 30
0.0
  9
$PLIMCHECK
 70
     0
  9
$PEXTMIN
 10
-100000000000000000000.0
 20
-100000000000000000000.0
 30
-100000000000000000000.0
  9
$PEXTMAX
 10
100000000000000000000.0
 20
100000000000000000000.0
 30
100000000000000000000.0
  9
$PLIMMIN
 10
0.0
 20
0.0
  9
$PLIMMAX
 10
12.0
 20
9.0
  9
$UNITMODE
 70
     0
  9
$VISRETAIN
 70
     0
  9
$PLINEGEN
 70
     0
  9
$PSLTSCALE
 70
     0
  9
$TREEDEPTH
 70
  3020
  9
$ATTDIA
 70
     0
  9
$ATTREQ
 70
     1
  9
$BLIPMODE
 70
     1
  9
$COORDS
 70
     1
  9
$DRAGMODE
 70
     2
  9
$OSMODE
 70
     0
  9
$HANDLING
 70
     0
  9
$HANDSEED
  5
FA1F
  0
ENDSEC
  0
SECTION
  2
TABLES
  0
TABLE
  2
LTYPE
 70
     2
  0
LTYPE
  2
CONTINUOUS
 70
     0
  3
実線
 72
    65
 73
     0
 40
0.0
  0
LTYPE
  2
DASHDOT
 70
     0
  3
____ _ ____ _ ____ _ ____ _ ____ _ ____ _ ____
 72
    65
 73
     4
 40
5.5
 49
4.0
 49
-0.6
 49
0.3
 49
-0.6
  0
ENDTAB
  0
TABLE
  2
LAYER
 70
    12
  0
LAYER
  2
0
 70
     0
 62
     7
  6
CONTINUOUS
  0
LAYER
  2
BASIS
 70
     0
 62
     6
  6
DASHDOT
  0
LAYER
  2
OUTLINE
 70
     0
 62
     3
  6
CONTINUOUS
  0
LAYER
  2
DETAIL
 70
     0
 62
     5
  6
CONTINUOUS
  0
LAYER
  2
SIZE
 70
     0
 62
    30
  6
CONTINUOUS
  0
LAYER
  2
ARRANGE
 70
     0
 62
     1
  6
CONTINUOUS
  0
LAYER
  2
DEFPOINTS
 70
     0
 62
     7
  6
CONTINUOUS
  0
LAYER
  2
ETC
 70
     0
 62
    61
  6
CONTINUOUS
  0
LAYER
  2
FIX
 70
     0
 62
    11
  6
CONTINUOUS
  0
LAYER
  2
NOTE
 70
     0
 62
     4
  6
CONTINUOUS
  0
LAYER
  2
SERVICESPACE
 70
    64
 62
     2
  6
DASHDOT
  0
LAYER
  2
SYMBOLLINE
 70
    64
 62
    15
  6
CONTINUOUS
  0
ENDTAB
  0
TABLE
  2
STYLE
 70
     1
  0
STYLE
  2
STANDARD
 70
     0
 40
64.0
 41
0.9
 50
0.0
 71
     0
 42
64.0
  3
SIMPLEX.shx
  4
BIGFONT.shx
  0
ENDTAB
  0
TABLE
  2
APPID
 70
    17
  0
APPID
  2
ACAD
 70
     0
  0
APPID
  2
AUTOCAD_POSTSCRIPT_FIGURE
 70
     0
  0
APPID
  2
ACAD_EXEMPT_FROM_CAD_STANDARDS
 70
     0
  0
APPID
  2
ACAD_PSEXT
 70
     0
  0
APPID
  2
ACAUTHENVIRON
 70
     0
  0
APPID
  2
GENIUS_GENOENT_13
 70
     0
  0
APPID
  2
GENIUS_GENCFG_13
 70
     0
  0
APPID
  2
GENIUS_GENCFG0_13
 70
     0
  0
APPID
  2
GENIUS_GENCFG1_13
 70
     0
  0
APPID
  2
GENIUS_GENCFG2_13
 70
     0
  0
APPID
  2
GENIUS_GENCFG3_13
 70
     0
  0
APPID
  2
GENIUS_GENCFG4_13
 70
     0
  0
APPID
  2
GENIUS_GEVCFG0_13
 70
     0
  0
APPID
  2
CONTENTBLOCKICON
 70
     0
  0
APPID
  2
CONTENTBLOCKDESCRIPTION
 70
     0
  0
APPID
  2
ACAD_NAV_VCDISPLAY
 70
     0
  0
APPID
  2
ACAD_MLEADERVER
 70
     0
  0
ENDTAB
  0
TABLE
  2
DIMSTYLE
 70
     1
  0
DIMSTYLE
  2
STANDARD
 70
     0
  3

  4

  5
_ORIGIN
  6

  7

 40
1.0
 41
12.0
 42
20.0
 43
200.0
 44
20.0
 45
0.0
 46
0.0
 47
0.0
 48
0.0
140
64.0
141
0.09
142
0.0
143
25.399999999999999
144
1.0
145
0.0
146
1.0
147
25.0
 71
     0
 72
     0
 73
     0
 74
     0
 75
     0
 76
     0
 77
     1
 78
     8
170
     0
171
     2
172
     1
173
     0
174
     1
175
     0
176
     7
177
     7
178
     7
  0
ENDTAB
  0
TABLE
  2
VIEW
 70
     1
  0
VIEW
  2
ALL
 70
     0
 40
4282.6198079999986
 10
0.0
 20
41.309904000000003
 41
5940.0
 11
0.0
 21
0.0
 31
1.0
 12
0.0
 22
0.0
 32
0.0
 42
50.0
 43
0.0
 44
0.0
 50
0.0
 71
     0
  0
ENDTAB
  0
TABLE
  2
UCS
 70
     0
  0
ENDTAB
  0
TABLE
  2
VPORT
 70
     1
  0
VPORT
  2
*ACTIVE
 70
     0
 10
0.0
 20
0.0
 11
1.0
 21
1.0
 12
2.913090757330338
 22
141.45905974908871
 13
0.0
 23
0.0
 14
1.0
 24
1.0
 15
0.0
 25
0.0
 16
0.0
 26
0.0
 36
1.0
 17
0.0
 27
0.0
 37
0.0
 40
2084.5917650152351
 41
1.9968652037617549
 42
50.0
 43
0.0
 44
0.0
 50
0.0
 51
0.0
 71
     0
 72
  1000
 73
     1
 74
     3
 75
     0
 76
     0
 77
     0
 78
     0
  0
ENDTAB
  0
ENDSEC
  0
SECTION
  2
BLOCKS
  0
BLOCK
  8
0
  2
_ORIGIN
 70
     0
 10
0.0
 20
0.0
 30
0.0
  3
_ORIGIN
  1
_ORIGIN
  0
CIRCLE
  8
0
  6
CONTINUOUS
 62
     7
 10
0.0
 20
0.0
 30
0.0
 40
0.5
  0
LINE
  8
0
  6
CONTINUOUS
 62
     7
 10
0.0
 20
0.0
 30
0.0
 11
-1.0
 21
0.0
 31
0.0
  0
ENDBLK
  8
0
  0
ENDSEC
  0
SECTION
  2
ENTITIES
  0
TEXT
  8
ETC
  6
CONTINUOUS
 62
    61
 10
641.00593785364754
 20
847.00221427196016
 30
0.0
 40
60.0
  1
BFS-120SG2_1
 41
0.9
  0
TEXT
  8
ETC
  6
CONTINUOUS
 62
    61
 10
634.87861035364767
 20
752.88353177195995
 30
0.0
 40
60.0
  1
産業扇
 41
0.9
  0
TEXT
  8
ETC
  6
CONTINUOUS
 62
    61
 10
689.62971198856849
 20
682.31008937249635
 30
0.0
 40
40.0
  1
BFS-120SG2
 41
0.9
  0
TEXT
  8
ETC
  6
CONTINUOUS
 62
    61
 10
689.62971198856849
 20
622.31008937249635
 30
0.0
 40
40.0
  1
BFS-120TG2
 41
0.9
  0
TEXT
  8
ETC
  6
CONTINUOUS
 62
    61
 10
689.62971198856849
 20
562.31008937249635
 30
0.0
 40
40.0
  1
BFS-150SG2
 41
0.9
  0
TEXT
  8
ETC
  6
CONTINUOUS
 62
    61
 10
689.62971198856849
 20
502.31008937249629
 30
0.0
 40
40.0
  1
BFS-150TG2
 41
0.9
  0
LINE
  8
BASIS
  6
DASHDOT
 62
     6
 10
-298.23421100000002
 20
0.0
 30
0.0
 11
298.23421100000002
 21
0.0
 31
0.0
  0
POINT
  8
ARRANGE
  6
CONTINUOUS
 62
     1
 10
0.0
 20
0.0
 30
0.0
  0
CIRCLE
  8
ARRANGE
  6
CONTINUOUS
 62
     1
 10
0.0
 20
0.0
 30
0.0
 40
44.210526000000002
  0
LINE
  8
BASIS
  6
DASHDOT
 62
     6
 10
0.0
 20
-555.54099299999996
 30
0.0
 11
0.0
 21
495.31411836519868
 31
0.0
  0
TEXT
  8
NOTE
  6
CONTINUOUS
 62
     4
 10
-1084.002269243623
 20
-240.0364382546874
 30
0.0
 40
70.73684200000001
  1
端子カバ－
 41
0.9
  0
LINE
  8
NOTE
  6
CONTINUOUS
 62
     4
 10
-1094.2870362436231
 20
-286.09460225468752
 30
0.0
 11
-507.86382714556822
 21
-286.09456730578529
 31
0.0
  0
LINE
  8
NOTE
  6
CONTINUOUS
 62
     4
 10
408.51719700000012
 20
555.97251899999992
 30
0.0
 11
598.64121584172972
 21
555.97251899999992
 31
0.0
  0
LINE
  8
NOTE
  6
CONTINUOUS
 62
     4
 10
-256.76992263306101
 20
-207.3664549974151
 30
0.0
 11
-221.62277300000011
 21
-180.54765699999999
 31
0.0
  0
LINE
  8
NOTE
  6
CONTINUOUS
 62
     4
 10
-221.62277300000011
 20
-180.54765699999999
 30
0.0
 11
-265.47049691218899
 21
-186.19984165811971
 31
0.0
  0
LINE
  8
NOTE
  6
CONTINUOUS
 62
     4
 10
-221.62277300000011
 20
-180.54765699999999
 30
0.0
 11
-507.86382714556822
 21
-286.09456730578529
 31
0.0
  0
LINE
  8
NOTE
  6
CONTINUOUS
 62
     4
 10
253.5
 20
298.00002599999988
 30
0.0
 11
405.82966399999992
 21
555.9724940000001
 31
0.0
  0
LINE
  8
NOTE
  6
CONTINUOUS
 62
     4
 10
269.18169699999999
 20
339.33589999999998
 30
0.0
 11
253.5
 21
298.00002599999988
 31
0.0
  0
LINE
  8
NOTE
  6
CONTINUOUS
 62
     4
 10
253.5
 20
298.00002599999988
 30
0.0
 11
287.74868500000002
 21
325.95709399999993
 31
0.0
  0
TEXT
  8
NOTE
  6
CONTINUOUS
 62
     4
 10
427.22044099999988
 20
591.60038799999984
 30
0.0
 40
70.73684200000001
  1
AH
 41
0.9
  0
LINE
  8
DETAIL
  6
CONTINUOUS
 62
     5
 10
-120.994631
 20
380.00002599999988
 30
0.0
 11
121.005369
 21
380.00002599999988
 31
0.0
  0
LINE
  8
DETAIL
  6
CONTINUOUS
 62
     5
 10
129.005369
 20
295.00002599999988
 30
0.0
 11
121.005369
 21
380.00002599999988
 31
0.0
  0
LINE
  8
DETAIL
  6
CONTINUOUS
 62
     5
 10
-120.994631
 20
380.00002599999988
 30
0.0
 11
-128.994631
 21
295.00002599999988
 31
0.0
  0
LINE
  8
NOTE
  6
CONTINUOUS
 62
     4
 10
211.3947399999997
 20
-277.49997300000001
 30
0.0
 11
255.6052600000003
 21
-277.49997300000001
 31
0.0
  0
LINE
  8
NOTE
  6
CONTINUOUS
 62
     4
 10
233.5
 20
-299.605233
 30
0.0
 11
233.5
 21
-255.394713
 31
0.0
  0
ARC
  8
DETAIL
  6
CONTINUOUS
 62
     5
 10
-216.78533999999991
 20
-220.15987899999999
 30
0.0
 40
4.8374329999999999
 50
180.0
 51
270.0
  0
LINE
  8
DETAIL
  6
CONTINUOUS
 62
     5
 10
-195.5006370000001
 20
-94.38663399999993
 30
0.0
 11
-216.78533999999991
 21
-94.38663399999993
 31
0.0
  0
LINE
  8
DETAIL
  6
CONTINUOUS
 62
     5
 10
-221.62277300000011
 20
-220.15987899999999
 30
0.0
 11
-221.62277300000011
 21
-99.224065999999965
 31
0.0
  0
ARC
  8
DETAIL
  6
CONTINUOUS
 62
     5
 10
-216.78533999999991
 20
-99.224065999999965
 30
0.0
 40
4.8374329999999999
 50
89.999999999999986
 51
180.0
  0
LINE
  8
DETAIL
  6
CONTINUOUS
 62
     5
 10
-195.5006370000001
 20
-224.99731199999991
 30
0.0
 11
-216.78533999999991
 21
-224.99731199999991
 31
0.0
  0
LINE
  8
DETAIL
  6
CONTINUOUS
 62
     5
 10
253.5
 20
-257.49997400000012
 30
0.0
 11
253.5
 21
-297.99997400000012
 31
0.0
  0
LINE
  8
DETAIL
  6
CONTINUOUS
 62
     5
 10
164.78065100000001
 20
-297.99997400000012
 30
0.0
 11
253.5
 21
-297.99997400000012
 31
0.0
  0
LINE
  8
DETAIL
  6
CONTINUOUS
 62
     5
 10
218.99267900000001
 20
-298.49997400000012
 30
0.0
 11
218.99267900000001
 21
-297.99997400000012
 31
0.0
  0
LINE
  8
DETAIL
  6
CONTINUOUS
 62
     5
 10
218.99267900000001
 20
-298.49997400000012
 30
0.0
 11
188.99267900000001
 21
-298.49997400000012
 31
0.0
  0
LINE
  8
DETAIL
  6
CONTINUOUS
 62
     5
 10
228.0
 20
-257.49997400000012
 30
0.0
 11
195.5
 21
-257.49997400000012
 31
0.0
  0
LINE
  8
DETAIL
  6
CONTINUOUS
 62
     5
 10
253.5
 20
-257.49997400000012
 30
0.0
 11
239.0
 21
-257.49997400000012
 31
0.0
  0
LINE
  8
DETAIL
  6
CONTINUOUS
 62
     5
 10
164.78065100000001
 20
-297.99997400000012
 30
0.0
 11
164.78065100000001
 21
-294.99997400000012
 31
0.0
  0
LINE
  8
DETAIL
  6
CONTINUOUS
 62
     5
 10
188.99267900000001
 20
-298.49997400000012
 30
0.0
 11
188.99267900000001
 21
-297.99997400000012
 31
0.0
  0
LINE
  8
SIZE
  6
CONTINUOUS
 62
    30
 10
121.0330320000003
 20
400.00002599999988
 30
0.0
 11
121.0330320000003
 21
562.50413000000003
 31
0.0
  0
LINE
  8
SIZE
  6
CONTINUOUS
 62
    30
 10
-120.96696799999999
 20
400.00002599999988
 30
0.0
 11
-120.96696799999999
 21
562.50413000000003
 31
0.0
  0
LINE
  8
SIZE
  6
CONTINUOUS
 62
    30
 10
119.0330320000003
 20
532.50413000000003
 30
0.0
 11
-118.96696799999999
 21
532.50413000000003
 31
0.0
  0
CIRCLE
  8
SIZE
  6
CONTINUOUS
 62
    30
 10
121.0330320000003
 20
532.50413000000003
 30
0.0
 40
6.0
  0
CIRCLE
  8
SIZE
  6
CONTINUOUS
 62
    30
 10
-120.96696799999999
 20
532.50413000000003
 30
0.0
 40
6.0
  0
TEXT
  8
SIZE
  6
CONTINUOUS
 62
    30
 10
-114.34411085714279
 20
552.50413000000003
 30
0.0
 40
64.0
  1
φ242
 41
0.9
 72
     1
 11
0.0330320000000484
 21
552.50413000000003
 31
0.0
  0
POINT
  8
DEFPOINTS
  6
CONTINUOUS
 62
    30
 10
121.0330320000003
 20
380.00002599999988
 30
0.0
  0
POINT
  8
DEFPOINTS
  6
CONTINUOUS
 62
    30
 10
-120.96696799999999
 20
380.00002599999988
 30
0.0
  0
POINT
  8
DEFPOINTS
  6
CONTINUOUS
 62
    30
 10
-120.96696799999999
 20
532.50413000000003
 30
0.0
  0
LINE
  8
SIZE
  6
CONTINUOUS
 62
    30
 10
129.005369
 20
315.00002599999988
 30
0.0
 11
129.005369
 21
693.83467500000006
 31
0.0
  0
LINE
  8
SIZE
  6
CONTINUOUS
 62
    30
 10
-128.994631
 20
315.00002599999988
 30
0.0
 11
-128.994631
 21
693.83467500000006
 31
0.0
  0
LINE
  8
SIZE
  6
CONTINUOUS
 62
    30
 10
127.005369
 20
663.83467500000006
 30
0.0
 11
-126.994631
 21
663.83467500000006
 31
0.0
  0
CIRCLE
  8
SIZE
  6
CONTINUOUS
 62
    30
 10
129.005369
 20
663.83467500000006
 30
0.0
 40
6.0
  0
CIRCLE
  8
SIZE
  6
CONTINUOUS
 62
    30
 10
-128.994631
 20
663.83467500000006
 30
0.0
 40
6.0
  0
TEXT
  8
SIZE
  6
CONTINUOUS
 62
    30
 10
-114.3717738571429
 20
683.83467500000006
 30
0.0
 40
64.0
  1
φ258
 41
0.9
 72
     1
 11
0.0053689999999733
 21
683.83467500000006
 31
0.0
  0
POINT
  8
DEFPOINTS
  6
CONTINUOUS
 62
    30
 10
129.005369
 20
295.00002599999988
 30
0.0
  0
POINT
  8
DEFPOINTS
  6
CONTINUOUS
 62
    30
 10
-128.994631
 20
295.00002599999988
 30
0.0
  0
POINT
  8
DEFPOINTS
  6
CONTINUOUS
 62
    30
 10
-128.994631
 20
663.83467500000006
 30
0.0
  0
LINE
  8
SIZE
  6
CONTINUOUS
 62
    30
 10
-214.2175299999999
 20
295.00002599999988
 30
0.0
 11
-586.87781900000004
 21
295.00002599999988
 31
0.0
  0
LINE
  8
SIZE
  6
CONTINUOUS
 62
    30
 10
-295.20180299999993
 20
-294.99997400000012
 30
0.0
 11
-586.87781900000004
 21
-294.99997400000012
 31
0.0
  0
LINE
  8
SIZE
  6
CONTINUOUS
 62
    30
 10
-556.87781900000004
 20
293.00002599999988
 30
0.0
 11
-556.87781900000004
 21
-292.99997400000012
 31
0.0
  0
CIRCLE
  8
SIZE
  6
CONTINUOUS
 62
    30
 10
-556.87781900000004
 20
295.00002599999988
 30
0.0
 40
6.0
  0
CIRCLE
  8
SIZE
  6
CONTINUOUS
 62
    30
 10
-556.87781900000004
 20
-294.99997400000012
 30
0.0
 40
6.0
  0
TEXT
  8
SIZE
  6
CONTINUOUS
 62
    30
 10
-576.87781900000004
 20
-74.057116857142915
 30
0.0
 40
64.0
  1
590
 50
90.0
 41
0.9
 72
     1
 11
-576.87781900000004
 21
0.0000259999999344
 31
0.0
  0
POINT
  8
DEFPOINTS
  6
CONTINUOUS
 62
    30
 10
-194.2175299999999
 20
295.00002599999988
 30
0.0
  0
POINT
  8
DEFPOINTS
  6
CONTINUOUS
 62
    30
 10
-275.20180299999993
 20
-294.99997400000012
 30
0.0
  0
POINT
  8
DEFPOINTS
  6
CONTINUOUS
 62
    30
 10
-556.87781900000004
 20
-294.99997400000012
 30
0.0
  0
LINE
  8
DETAIL
  6
CONTINUOUS
 62
     5
 10
-195.494631
 20
295.00002599999988
 30
0.0
 11
195.505369
 21
295.00002599999988
 31
0.0
  0
LINE
  8
DETAIL
  6
CONTINUOUS
 62
     5
 10
-121.8873920000001
 20
370.51444300000003
 30
0.0
 11
121.89812999999999
 21
370.51444300000003
 31
0.0
  0
LINE
  8
DETAIL
  6
CONTINUOUS
 62
     5
 10
195.5
 20
295.00002599999988
 30
0.0
 11
195.505369
 21
-294.99997400000012
 31
0.0
  0
LINE
  8
DETAIL
  6
CONTINUOUS
 62
     5
 10
-195.494631
 20
-294.99997400000012
 30
0.0
 11
195.505369
 21
-294.99997400000012
 31
0.0
  0
LINE
  8
SIZE
  6
CONTINUOUS
 62
    30
 10
-195.494741
 20
-303.32699300000002
 30
0.0
 11
-195.494741
 21
-749.99158399999999
 31
0.0
  0
LINE
  8
SIZE
  6
CONTINUOUS
 62
    30
 10
195.505259
 20
-303.32331699999997
 30
0.0
 11
195.505259
 21
-749.99158399999999
 31
0.0
  0
LINE
  8
SIZE
  6
CONTINUOUS
 62
    30
 10
-193.494741
 20
-719.99158399999999
 30
0.0
 11
193.505259
 21
-719.99158399999999
 31
0.0
  0
CIRCLE
  8
SIZE
  6
CONTINUOUS
 62
    30
 10
-195.494741
 20
-719.99158399999999
 30
0.0
 40
6.0
  0
CIRCLE
  8
SIZE
  6
CONTINUOUS
 62
    30
 10
195.505259
 20
-719.99158399999999
 30
0.0
 40
6.0
  0
TEXT
  8
SIZE
  6
CONTINUOUS
 62
    30
 10
-61.709026714285677
 20
-699.99158399999999
 30
0.0
 40
64.0
  1
391
 41
0.9
 72
     1
 11
0.0052590000000237
 21
-699.99158399999999
 31
0.0
  0
POINT
  8
DEFPOINTS
  6
CONTINUOUS
 62
    30
 10
-195.494741
 20
-283.32699300000002
 30
0.0
  0
POINT
  8
DEFPOINTS
  6
CONTINUOUS
 62
    30
 10
195.505259
 20
-283.32331699999997
 30
0.0
  0
POINT
  8
DEFPOINTS
  6
CONTINUOUS
 62
    30
 10
195.505259
 20
-719.99158399999999
 30
0.0
  0
LINE
  8
DETAIL
  6
CONTINUOUS
 62
     5
 10
-195.494631
 20
-294.99997400000012
 30
0.0
 11
-195.494631
 21
295.00002599999988
 31
0.0
  0
LINE
  8
SIZE
  6
CONTINUOUS
 62
    30
 10
-257.63163421622079
 20
298.00005199999993
 30
0.0
 11
-730.42556599999989
 21
298.00005199999993
 31
0.0
  0
LINE
  8
SIZE
  6
CONTINUOUS
 62
    30
 10
-259.59814041445497
 20
-297.99992300000008
 30
0.0
 11
-730.42556599999989
 21
-297.99992300000008
 31
0.0
  0
LINE
  8
SIZE
  6
CONTINUOUS
 62
    30
 10
-700.42556599999989
 20
296.00005199999993
 30
0.0
 11
-700.42556599999989
 21
-295.99992300000008
 31
0.0
  0
CIRCLE
  8
SIZE
  6
CONTINUOUS
 62
    30
 10
-700.42556599999989
 20
298.00005199999993
 30
0.0
 40
6.0
  0
CIRCLE
  8
SIZE
  6
CONTINUOUS
 62
    30
 10
-700.42556599999989
 20
-297.99992300000008
 30
0.0
 40
6.0
  0
TEXT
  8
SIZE
  6
CONTINUOUS
 62
    30
 10
-720.42556599999989
 20
-72.685650285714232
 30
0.0
 40
64.0
  1
596
 50
90.0
 41
0.9
 72
     1
 11
-720.42556599999989
 21
0.0000640000000658
 31
0.0
  0
POINT
  8
DEFPOINTS
  6
CONTINUOUS
 62
    30
 10
-198.33261899999999
 20
298.00005199999993
 30
0.0
  0
POINT
  8
DEFPOINTS
  6
CONTINUOUS
 62
    30
 10
-203.99303199999991
 20
-297.99992300000008
 30
0.0
  0
POINT
  8
DEFPOINTS
  6
CONTINUOUS
 62
    30
 10
-700.42556599999989
 20
-297.99992300000008
 30
0.0
  0
LINE
  8
SIZE
  6
CONTINUOUS
 62
    30
 10
-126.0587998295377
 20
380.00002599999988
 30
0.0
 11
-586.87781900000004
 21
380.00002599999988
 31
0.0
  0
LINE
  8
SIZE
  6
CONTINUOUS
 62
    30
 10
-201.92592931312899
 20
295.00002599999988
 30
0.0
 11
-586.87781900000004
 21
295.00002599999988
 31
0.0
  0
LINE
  8
SIZE
  6
CONTINUOUS
 62
    30
 10
-556.87781900000004
 20
378.00002599999988
 30
0.0
 11
-556.87781900000004
 21
297.00002599999988
 31
0.0
  0
LINE
  8
SIZE
  6
CONTINUOUS
 62
    30
 10
-556.87781900000004
 20
529.03935999999999
 30
0.0
 11
-556.87781900000004
 21
380.00002599999988
 31
0.0
  0
TEXT
  8
SIZE
  6
CONTINUOUS
 62
    30
 10
-576.87781900000004
 20
415.78221657142848
 30
0.0
 40
64.0
  1
85
 50
90.0
 41
0.9
 72
     1
 11
-576.87781900000004
 21
462.41078799999991
 31
0.0
  0
CIRCLE
  8
SIZE
  6
CONTINUOUS
 62
    30
 10
-556.87781900000004
 20
380.00002599999988
 30
0.0
 40
6.0
  0
CIRCLE
  8
SIZE
  6
CONTINUOUS
 62
    30
 10
-556.87781900000004
 20
295.00002599999988
 30
0.0
 40
6.0
  0
POINT
  8
DEFPOINTS
  6
CONTINUOUS
 62
    30
 10
-84.50668399999995
 20
380.00002599999988
 30
0.0
  0
POINT
  8
DEFPOINTS
  6
CONTINUOUS
 62
    30
 10
-84.50668399999995
 20
295.00002599999988
 30
0.0
  0
POINT
  8
DEFPOINTS
  6
CONTINUOUS
 62
    30
 10
-556.87781900000004
 20
295.00002599999988
 30
0.0
  0
LINE
  8
SIZE
  6
CONTINUOUS
 62
    30
 10
-215.494631
 20
-294.99997400000012
 30
0.0
 11
-586.87781900000004
 21
-294.99997400000012
 31
0.0
  0
LINE
  8
SIZE
  6
CONTINUOUS
 62
    30
 10
-140.99985599999991
 20
-379.99997400000012
 30
0.0
 11
-586.87781900000004
 21
-379.99997400000012
 31
0.0
  0
LINE
  8
SIZE
  6
CONTINUOUS
 62
    30
 10
-556.87781900000004
 20
-296.99997400000012
 30
0.0
 11
-556.87781900000004
 21
-377.99997400000012
 31
0.0
  0
LINE
  8
SIZE
  6
CONTINUOUS
 62
    30
 10
-556.87781900000004
 20
-529.63638099999991
 30
0.0
 11
-556.87781900000004
 21
-379.99997400000012
 31
0.0
  0
TEXT
  8
SIZE
  6
CONTINUOUS
 62
    30
 10
-576.87781900000004
 20
-509.63638142857138
 30
0.0
 40
64.0
  1
85
 50
90.0
 41
0.9
 72
     1
 11
-576.87781900000004
 21
-463.00780999999989
 31
0.0
  0
CIRCLE
  8
SIZE
  6
CONTINUOUS
 62
    30
 10
-556.87781900000004
 20
-294.99997400000012
 30
0.0
 40
6.0
  0
CIRCLE
  8
SIZE
  6
CONTINUOUS
 62
    30
 10
-556.87781900000004
 20
-379.99997400000012
 30
0.0
 40
6.0
  0
POINT
  8
DEFPOINTS
  6
CONTINUOUS
 62
    30
 10
-195.494631
 20
-294.99997400000012
 30
0.0
  0
POINT
  8
DEFPOINTS
  6
CONTINUOUS
 62
    30
 10
-120.99985599999989
 20
-379.99997400000012
 30
0.0
  0
POINT
  8
DEFPOINTS
  6
CONTINUOUS
 62
    30
 10
-556.87781900000004
 20
-379.99997400000012
 30
0.0
  0
LINE
  8
SIZE
  6
CONTINUOUS
 62
    30
 10
273.5
 20
-257.49997499999989
 30
0.0
 11
545.21029799999997
 21
-257.49997499999989
 31
0.0
  0
LINE
  8
SIZE
  6
CONTINUOUS
 62
    30
 10
261.25906961652441
 20
-298.49997499999989
 30
0.0
 11
545.21029799999997
 21
-298.49997499999989
 31
0.0
  0
LINE
  8
SIZE
  6
CONTINUOUS
 62
    30
 10
515.21029799999997
 20
-255.49997499999989
 30
0.0
 11
515.21029799999997
 21
-253.49997499999989
 31
0.0
  0
LINE
  8
SIZE
  6
CONTINUOUS
 62
    30
 10
515.21029799999997
 20
-300.49997499999989
 30
0.0
 11
515.21029799999997
 21
-302.49997499999989
 31
0.0
  0
LINE
  8
SIZE
  6
CONTINUOUS
 62
    30
 10
515.21029799999997
 20
-562.32883099999992
 30
0.0
 11
515.21029799999997
 21
-298.49997499999989
 31
0.0
  0
TEXT
  8
SIZE
  6
CONTINUOUS
 62
    30
 10
495.21029800000002
 20
-542.32883128571416
 30
0.0
 40
64.0
  1
41
 50
90.0
 41
0.9
 72
     1
 11
495.21029800000002
 21
-508.04311699999988
 31
0.0
  0
LINE
  8
SIZE
  6
CONTINUOUS
 62
    30
 10
515.21029799999997
 20
-257.49997499999989
 30
0.0
 11
515.21029799999997
 21
-298.49997499999989
 31
0.0
  0
LINE
  8
SIZE
  6
CONTINUOUS
 62
    30
 10
515.21029799999997
 20
-257.49997499999989
 30
0.0
 11
515.21029799999997
 21
-298.49997499999989
 31
0.0
  0
CIRCLE
  8
SIZE
  6
CONTINUOUS
 62
    30
 10
515.21029799999997
 20
-257.49997499999989
 30
0.0
 40
6.0
  0
CIRCLE
  8
SIZE
  6
CONTINUOUS
 62
    30
 10
515.21029799999997
 20
-298.49997499999989
 30
0.0
 40
6.0
  0
POINT
  8
DEFPOINTS
  6
CONTINUOUS
 62
    30
 10
253.5
 20
-257.49997499999989
 30
0.0
  0
POINT
  8
DEFPOINTS
  6
CONTINUOUS
 62
    30
 10
214.96207499999991
 20
-298.49997499999989
 30
0.0
  0
POINT
  8
DEFPOINTS
  6
CONTINUOUS
 62
    30
 10
515.21029799999997
 20
-298.49997499999989
 30
0.0
  0
LINE
  8
SIZE
  6
CONTINUOUS
 62
    30
 10
266.14901400000008
 20
-257.49997499999989
 30
0.0
 11
443.44041800000008
 21
-257.49997499999989
 31
0.0
  0
LINE
  8
SIZE
  6
CONTINUOUS
 62
    30
 10
266.14901400000008
 20
-277.49997499999989
 30
0.0
 11
443.44041800000008
 21
-277.49997499999989
 31
0.0
  0
LINE
  8
SIZE
  6
CONTINUOUS
 62
    30
 10
413.44041800000008
 20
-255.49997499999989
 30
0.0
 11
413.44041800000008
 21
-253.49997499999989
 31
0.0
  0
LINE
  8
SIZE
  6
CONTINUOUS
 62
    30
 10
413.44041800000008
 20
-279.49997499999989
 30
0.0
 11
413.44041800000008
 21
-281.49997499999989
 31
0.0
  0
LINE
  8
SIZE
  6
CONTINUOUS
 62
    30
 10
413.44041800000008
 20
-478.05694599999993
 30
0.0
 11
413.44041800000008
 21
-277.49997499999989
 31
0.0
  0
TEXT
  8
SIZE
  6
CONTINUOUS
 62
    30
 10
393.44041800000008
 20
-458.05694642857139
 30
0.0
 40
64.0
  1
20
 50
90.0
 41
0.9
 72
     1
 11
393.44041800000008
 21
-411.42837500000002
 31
0.0
  0
LINE
  8
SIZE
  6
CONTINUOUS
 62
    30
 10
413.44041800000008
 20
-257.49997499999989
 30
0.0
 11
413.44041800000008
 21
-277.49997499999989
 31
0.0
  0
LINE
  8
SIZE
  6
CONTINUOUS
 62
    30
 10
413.44041800000008
 20
-257.49997499999989
 30
0.0
 11
413.44041800000008
 21
-277.49997499999989
 31
0.0
  0
CIRCLE
  8
SIZE
  6
CONTINUOUS
 62
    30
 10
413.44041800000008
 20
-257.49997499999989
 30
0.0
 40
6.0
  0
CIRCLE
  8
SIZE
  6
CONTINUOUS
 62
    30
 10
413.44041800000008
 20
-277.49997499999989
 30
0.0
 40
6.0
  0
POINT
  8
DEFPOINTS
  6
CONTINUOUS
 62
    30
 10
246.14901400000011
 20
-257.49997499999989
 30
0.0
  0
POINT
  8
DEFPOINTS
  6
CONTINUOUS
 62
    30
 10
246.14901400000011
 20
-277.49997499999989
 30
0.0
  0
POINT
  8
DEFPOINTS
  6
CONTINUOUS
 62
    30
 10
413.44041800000008
 20
-277.49997499999989
 30
0.0
  0
LINE
  8
SIZE
  6
CONTINUOUS
 62
    30
 10
228.00502800000001
 20
-237.5000600000001
 30
0.0
 11
228.00502800000001
 21
-175.90247500000001
 31
0.0
  0
LINE
  8
SIZE
  6
CONTINUOUS
 62
    30
 10
239.00502800000001
 20
-237.49997499999989
 30
0.0
 11
239.00502800000001
 21
-175.90247500000001
 31
0.0
  0
LINE
  8
SIZE
  6
CONTINUOUS
 62
    30
 10
226.00502800000001
 20
-205.90247500000001
 30
0.0
 11
224.00502800000001
 21
-205.90247500000001
 31
0.0
  0
LINE
  8
SIZE
  6
CONTINUOUS
 62
    30
 10
241.00502800000001
 20
-205.90247500000001
 30
0.0
 11
243.00502800000001
 21
-205.90247500000001
 31
0.0
  0
LINE
  8
SIZE
  6
CONTINUOUS
 62
    30
 10
395.19928900000008
 20
-205.90247500000001
 30
0.0
 11
239.00502800000001
 21
-205.90247500000001
 31
0.0
  0
TEXT
  8
SIZE
  6
CONTINUOUS
 62
    30
 10
317.59928899999989
 20
-185.90247500000001
 30
0.0
 40
64.0
  1
11
 41
0.9
 72
     1
 11
346.39928900000001
 21
-185.90247500000001
 31
0.0
  0
LINE
  8
SIZE
  6
CONTINUOUS
 62
    30
 10
228.00502800000001
 20
-205.90247500000001
 30
0.0
 11
239.00502800000001
 21
-205.90247500000001
 31
0.0
  0
LINE
  8
SIZE
  6
CONTINUOUS
 62
    30
 10
228.00502800000001
 20
-205.90247500000001
 30
0.0
 11
239.00502800000001
 21
-205.90247500000001
 31
0.0
  0
CIRCLE
  8
SIZE
  6
CONTINUOUS
 62
    30
 10
228.00502800000001
 20
-205.90247500000001
 30
0.0
 40
6.0
  0
CIRCLE
  8
SIZE
  6
CONTINUOUS
 62
    30
 10
239.00502800000001
 20
-205.90247500000001
 30
0.0
 40
6.0
  0
POINT
  8
DEFPOINTS
  6
CONTINUOUS
 62
    30
 10
228.00502800000001
 20
-257.50006000000008
 30
0.0
  0
POINT
  8
DEFPOINTS
  6
CONTINUOUS
 62
    30
 10
239.00502800000001
 20
-257.49997499999989
 30
0.0
  0
POINT
  8
DEFPOINTS
  6
CONTINUOUS
 62
    30
 10
239.00502800000001
 20
-205.90247500000001
 30
0.0
  0
LINE
  8
DETAIL
  6
CONTINUOUS
 62
     5
 10
-128.60408799999999
 20
299.14954799999992
 30
0.0
 11
128.61482599999999
 21
299.14954799999992
 31
0.0
  0
LINE
  8
DETAIL
  6
CONTINUOUS
 62
     5
 10
128.60945699999999
 20
-299.149497
 30
0.0
 11
-128.60945699999999
 21
-299.149497
 31
0.0
  0
LINE
  8
DETAIL
  6
CONTINUOUS
 62
     5
 10
-129.0
 20
-294.99997400000012
 30
0.0
 11
-121.0
 21
-379.99997400000012
 31
0.0
  0
LINE
  8
DETAIL
  6
CONTINUOUS
 62
     5
 10
121.0
 20
-379.99997400000012
 30
0.0
 11
-121.0
 21
-379.99997400000012
 31
0.0
  0
LINE
  8
DETAIL
  6
CONTINUOUS
 62
     5
 10
121.89276100000011
 20
-370.51439199999999
 30
0.0
 11
-121.89276100000011
 21
-370.51439199999999
 31
0.0
  0
LINE
  8
DETAIL
  6
CONTINUOUS
 62
     5
 10
121.0
 20
-379.99997400000012
 30
0.0
 11
129.0
 21
-294.99997400000012
 31
0.0
  0
LINE
  8
SIZE
  6
CONTINUOUS
 62
    30
 10
-261.87518009544152
 20
277.5
 30
0.0
 11
-433.97809899999987
 21
277.5
 31
0.0
  0
LINE
  8
SIZE
  6
CONTINUOUS
 62
    30
 10
-264.65557644150982
 20
-277.5
 30
0.0
 11
-433.97809899999987
 21
-277.5
 31
0.0
  0
LINE
  8
SIZE
  6
CONTINUOUS
 62
    30
 10
-403.97809899999987
 20
275.5
 30
0.0
 11
-403.97809899999987
 21
-275.5
 31
0.0
  0
CIRCLE
  8
SIZE
  6
CONTINUOUS
 62
    30
 10
-403.97809899999987
 20
277.5
 30
0.0
 40
6.0
  0
CIRCLE
  8
SIZE
  6
CONTINUOUS
 62
    30
 10
-403.97809899999987
 20
-277.5
 30
0.0
 40
6.0
  0
TEXT
  8
SIZE
  6
CONTINUOUS
 62
    30
 10
-423.97809899999987
 20
-74.05714285714285
 30
0.0
 40
64.0
  1
555
 50
90.0
 41
0.9
 72
     1
 11
-423.97809899999987
 21
0.0
 31
0.0
  0
POINT
  8
DEFPOINTS
  6
CONTINUOUS
 62
    30
 10
-233.50268399999999
 20
277.5
 30
0.0
  0
POINT
  8
DEFPOINTS
  6
CONTINUOUS
 62
    30
 10
-233.50268399999999
 20
-277.5
 30
0.0
  0
POINT
  8
DEFPOINTS
  6
CONTINUOUS
 62
    30
 10
-403.97809899999987
 20
-277.5
 30
0.0
  0
LINE
  8
DETAIL
  6
CONTINUOUS
 62
     5
 10
239.0
 20
-257.49997400000012
 30
0.0
 11
239.0
 21
-277.49997499999989
 31
0.0
  0
LINE
  8
DETAIL
  6
CONTINUOUS
 62
     5
 10
228.0
 20
-257.49997400000012
 30
0.0
 11
227.99999600000001
 21
-277.49997499999989
 31
0.0
  0
LINE
  8
SIZE
  6
CONTINUOUS
 62
    30
 10
233.50502800000001
 20
-240.09087400000001
 30
0.0
 11
233.50502800000001
 21
-52.938256000000017
 31
0.0
  0
LINE
  8
SIZE
  6
CONTINUOUS
 62
    30
 10
253.50502800000001
 20
-237.49997400000009
 30
0.0
 11
253.50502800000001
 21
-52.938256000000017
 31
0.0
  0
LINE
  8
SIZE
  6
CONTINUOUS
 62
    30
 10
231.50502800000001
 20
-82.938256000000024
 30
0.0
 11
229.50502800000001
 21
-82.938256000000024
 31
0.0
  0
LINE
  8
SIZE
  6
CONTINUOUS
 62
    30
 10
255.50502800000001
 20
-82.938256000000024
 30
0.0
 11
257.50502799999998
 21
-82.938256000000024
 31
0.0
  0
LINE
  8
SIZE
  6
CONTINUOUS
 62
    30
 10
519.69637000000012
 20
-82.938256000000024
 30
0.0
 11
253.50502800000001
 21
-82.938256000000024
 31
0.0
  0
TEXT
  8
SIZE
  6
CONTINUOUS
 62
    30
 10
406.43922757142849
 20
-62.938256000000017
 30
0.0
 40
64.0
  1
20
 41
0.9
 72
     1
 11
453.06779899999992
 21
-62.938256000000017
 31
0.0
  0
LINE
  8
SIZE
  6
CONTINUOUS
 62
    30
 10
233.50502800000001
 20
-82.938256000000024
 30
0.0
 11
253.50502800000001
 21
-82.938256000000024
 31
0.0
  0
LINE
  8
SIZE
  6
CONTINUOUS
 62
    30
 10
233.50502800000001
 20
-82.938256000000024
 30
0.0
 11
253.50502800000001
 21
-82.938256000000024
 31
0.0
  0
CIRCLE
  8
SIZE
  6
CONTINUOUS
 62
    30
 10
233.50502800000001
 20
-82.938256000000024
 30
0.0
 40
6.0
  0
CIRCLE
  8
SIZE
  6
CONTINUOUS
 62
    30
 10
253.50502800000001
 20
-82.938256000000024
 30
0.0
 40
6.0
  0
POINT
  8
DEFPOINTS
  6
CONTINUOUS
 62
    30
 10
233.50502800000001
 20
-260.09087399999999
 30
0.0
  0
POINT
  8
DEFPOINTS
  6
CONTINUOUS
 62
    30
 10
253.50502800000001
 20
-257.49997400000012
 30
0.0
  0
POINT
  8
DEFPOINTS
  6
CONTINUOUS
 62
    30
 10
253.50502800000001
 20
-82.938256000000024
 30
0.0
  0
ARC
  8
DETAIL
  6
CONTINUOUS
 62
     5
 10
233.50502599999979
 20
-277.71200399999998
 30
0.0
 40
5.5040849999999999
 50
177.79228400000181
 51
2.2076919999983931
  0
CIRCLE
  8
FIX
  6
CONTINUOUS
 62
    11
 10
233.5
 20
-277.49997300000001
 30
0.0
 40
5.7161169999999997
  0
CIRCLE
  8
FIX
  6
CONTINUOUS
 62
    11
 10
-233.5
 20
-277.49994700000002
 30
0.0
 40
5.7161169999999997
  0
ARC
  8
DETAIL
  6
CONTINUOUS
 62
     5
 10
-233.49999900000009
 20
-277.71197899999993
 30
0.0
 40
5.5040849999999999
 50
177.79230800000161
 51
2.2077159999982068
  0
LINE
  8
NOTE
  6
CONTINUOUS
 62
     4
 10
-211.39474000000001
 20
-277.49994700000002
 30
0.0
 11
-255.60525999999999
 21
-277.49994700000002
 31
0.0
  0
LINE
  8
NOTE
  6
CONTINUOUS
 62
     4
 10
-233.5
 20
-299.60520700000012
 30
0.0
 11
-233.5
 21
-255.394687
 31
0.0
  0
LINE
  8
DETAIL
  6
CONTINUOUS
 62
     5
 10
-164.78065100000001
 20
-297.99994900000002
 30
0.0
 11
-253.5
 21
-297.99994900000002
 31
0.0
  0
LINE
  8
DETAIL
  6
CONTINUOUS
 62
     5
 10
-228.0
 20
-257.49994900000002
 30
0.0
 11
-227.99999600000001
 21
-277.49994900000002
 31
0.0
  0
LINE
  8
DETAIL
  6
CONTINUOUS
 62
     5
 10
-228.0
 20
-257.49994900000002
 30
0.0
 11
-195.494631
 21
-257.49994900000002
 31
0.0
  0
LINE
  8
DETAIL
  6
CONTINUOUS
 62
     5
 10
-253.5
 20
-257.49994900000002
 30
0.0
 11
-239.0
 21
-257.49994900000002
 31
0.0
  0
LINE
  8
DETAIL
  6
CONTINUOUS
 62
     5
 10
-239.0
 20
-257.49994900000002
 30
0.0
 11
-239.0
 21
-277.49994900000002
 31
0.0
  0
LINE
  8
DETAIL
  6
CONTINUOUS
 62
     5
 10
-253.5
 20
-257.49994900000002
 30
0.0
 11
-253.5
 21
-297.99994900000002
 31
0.0
  0
LINE
  8
DETAIL
  6
CONTINUOUS
 62
     5
 10
-164.78065100000001
 20
-297.99994900000002
 30
0.0
 11
-164.78065100000001
 21
-294.99994900000002
 31
0.0
  0
LINE
  8
DETAIL
  6
CONTINUOUS
 62
     5
 10
-218.99267900000001
 20
-298.49994900000002
 30
0.0
 11
-218.99267900000001
 21
-297.99994900000002
 31
0.0
  0
LINE
  8
DETAIL
  6
CONTINUOUS
 62
     5
 10
-188.99267900000001
 20
-298.49994900000002
 30
0.0
 11
-188.99267900000001
 21
-297.99994900000002
 31
0.0
  0
LINE
  8
DETAIL
  6
CONTINUOUS
 62
     5
 10
-218.99267900000001
 20
-298.49994900000002
 30
0.0
 11
-188.99267900000001
 21
-298.49994900000002
 31
0.0
  0
CIRCLE
  8
FIX
  6
CONTINUOUS
 62
    11
 10
-233.5
 20
277.50002399999988
 30
0.0
 40
5.7161169999999997
  0
ARC
  8
DETAIL
  6
CONTINUOUS
 62
     5
 10
-233.49462999999989
 20
277.71205600000008
 30
0.0
 40
5.5040849999999999
 50
357.79228400000181
 51
182.20769199999839
  0
LINE
  8
NOTE
  6
CONTINUOUS
 62
     4
 10
-211.39474000000001
 20
277.50002399999988
 30
0.0
 11
-255.60525999999999
 21
277.50002399999988
 31
0.0
  0
LINE
  8
NOTE
  6
CONTINUOUS
 62
     4
 10
-233.5
 20
299.60528399999998
 30
0.0
 11
-233.5
 21
255.39476400000009
 31
0.0
  0
LINE
  8
DETAIL
  6
CONTINUOUS
 62
     5
 10
-164.78065100000001
 20
298.00002599999988
 30
0.0
 11
-253.5
 21
298.00002599999988
 31
0.0
  0
LINE
  8
DETAIL
  6
CONTINUOUS
 62
     5
 10
-228.0
 20
257.50002599999988
 30
0.0
 11
-227.99999600000001
 21
277.50002599999988
 31
0.0
  0
LINE
  8
DETAIL
  6
CONTINUOUS
 62
     5
 10
-228.0
 20
257.50002599999988
 30
0.0
 11
-195.5
 21
257.50002599999988
 31
0.0
  0
LINE
  8
DETAIL
  6
CONTINUOUS
 62
     5
 10
-253.5
 20
257.50002599999988
 30
0.0
 11
-239.0
 21
257.50002599999988
 31
0.0
  0
LINE
  8
DETAIL
  6
CONTINUOUS
 62
     5
 10
-239.0
 20
257.50002599999988
 30
0.0
 11
-239.0
 21
277.50002599999988
 31
0.0
  0
LINE
  8
DETAIL
  6
CONTINUOUS
 62
     5
 10
-253.5
 20
257.50002599999988
 30
0.0
 11
-253.5
 21
298.00002599999988
 31
0.0
  0
LINE
  8
DETAIL
  6
CONTINUOUS
 62
     5
 10
-164.78065100000001
 20
298.00002599999988
 30
0.0
 11
-164.78065100000001
 21
295.00002599999988
 31
0.0
  0
LINE
  8
DETAIL
  6
CONTINUOUS
 62
     5
 10
-218.98731000000001
 20
298.50002599999988
 30
0.0
 11
-218.98731000000001
 21
298.00002599999988
 31
0.0
  0
LINE
  8
DETAIL
  6
CONTINUOUS
 62
     5
 10
-188.99267900000001
 20
298.50002599999988
 30
0.0
 11
-188.99267900000001
 21
298.00002599999988
 31
0.0
  0
LINE
  8
DETAIL
  6
CONTINUOUS
 62
     5
 10
-218.99267900000001
 20
298.50002599999988
 30
0.0
 11
-188.99267900000001
 21
298.50002599999988
 31
0.0
  0
CIRCLE
  8
FIX
  6
CONTINUOUS
 62
    11
 10
233.5
 20
277.50002399999988
 30
0.0
 40
5.7161169999999997
  0
ARC
  8
DETAIL
  6
CONTINUOUS
 62
     5
 10
233.50034000000011
 20
277.71205600000008
 30
0.0
 40
5.5040849999999999
 50
357.79230800000158
 51
182.20771599999819
  0
LINE
  8
NOTE
  6
CONTINUOUS
 62
     4
 10
211.3947399999997
 20
277.50002399999988
 30
0.0
 11
255.6052600000003
 21
277.50002399999988
 31
0.0
  0
LINE
  8
NOTE
  6
CONTINUOUS
 62
     4
 10
233.5
 20
299.60528399999998
 30
0.0
 11
233.5
 21
255.39476400000009
 31
0.0
  0
LINE
  8
DETAIL
  6
CONTINUOUS
 62
     5
 10
164.78065100000001
 20
298.00002599999988
 30
0.0
 11
253.5
 21
298.00002599999988
 31
0.0
  0
LINE
  8
DETAIL
  6
CONTINUOUS
 62
     5
 10
228.0
 20
257.50002599999988
 30
0.0
 11
227.99999600000001
 21
277.50002599999988
 31
0.0
  0
LINE
  8
DETAIL
  6
CONTINUOUS
 62
     5
 10
228.0
 20
257.50002599999988
 30
0.0
 11
195.5
 21
257.50002599999988
 31
0.0
  0
LINE
  8
DETAIL
  6
CONTINUOUS
 62
     5
 10
253.5
 20
257.50002599999988
 30
0.0
 11
239.0
 21
257.50002599999988
 31
0.0
  0
LINE
  8
DETAIL
  6
CONTINUOUS
 62
     5
 10
239.0
 20
257.50002599999988
 30
0.0
 11
239.0
 21
277.50002599999988
 31
0.0
  0
LINE
  8
DETAIL
  6
CONTINUOUS
 62
     5
 10
253.5
 20
257.50002599999988
 30
0.0
 11
253.5
 21
298.00002599999988
 31
0.0
  0
LINE
  8
DETAIL
  6
CONTINUOUS
 62
     5
 10
164.78065100000001
 20
298.00002599999988
 30
0.0
 11
164.78065100000001
 21
295.00002599999988
 31
0.0
  0
LINE
  8
DETAIL
  6
CONTINUOUS
 62
     5
 10
218.99267900000001
 20
298.50002599999988
 30
0.0
 11
218.99267900000001
 21
298.00002599999988
 31
0.0
  0
LINE
  8
DETAIL
  6
CONTINUOUS
 62
     5
 10
188.99267900000001
 20
298.50002599999988
 30
0.0
 11
188.99267900000001
 21
298.00002599999988
 31
0.0
  0
LINE
  8
DETAIL
  6
CONTINUOUS
 62
     5
 10
218.99267900000001
 20
298.50002599999988
 30
0.0
 11
188.99267900000001
 21
298.50002599999988
 31
0.0
  0
LINE
  8
SIZE
  6
CONTINUOUS
 62
    30
 10
253.5
 20
-309.2752089999999
 30
0.0
 11
253.5
 21
-1036.736431
 31
0.0
  0
LINE
  8
SIZE
  6
CONTINUOUS
 62
    30
 10
-253.5
 20
-309.2752089999999
 30
0.0
 11
-253.5
 21
-1036.736431
 31
0.0
  0
LINE
  8
SIZE
  6
CONTINUOUS
 62
    30
 10
251.5
 20
-1006.736431
 30
0.0
 11
-251.5
 21
-1006.736431
 31
0.0
  0
CIRCLE
  8
SIZE
  6
CONTINUOUS
 62
    30
 10
253.5
 20
-1006.736431
 30
0.0
 40
6.0
  0
CIRCLE
  8
SIZE
  6
CONTINUOUS
 62
    30
 10
-253.5
 20
-1006.736431
 30
0.0
 40
6.0
  0
TEXT
  8
SIZE
  6
CONTINUOUS
 62
    30
 10
-74.05714285714285
 20
-986.73643100000004
 30
0.0
 40
64.0
  1
507
 41
0.9
 72
     1
 11
0.0
 21
-986.73643100000004
 31
0.0
  0
POINT
  8
DEFPOINTS
  6
CONTINUOUS
 62
    30
 10
253.5
 20
-289.2752089999999
 30
0.0
  0
POINT
  8
DEFPOINTS
  6
CONTINUOUS
 62
    30
 10
-253.5
 20
-289.2752089999999
 30
0.0
  0
POINT
  8
DEFPOINTS
  6
CONTINUOUS
 62
    30
 10
-253.5
 20
-1006.736431
 30
0.0
  0
LINE
  8
SIZE
  6
CONTINUOUS
 62
    30
 10
-233.5
 20
-306.78058858119221
 30
0.0
 11
-233.5
 21
-878.18839600000013
 31
0.0
  0
LINE
  8
SIZE
  6
CONTINUOUS
 62
    30
 10
233.5
 20
-309.22326224905743
 30
0.0
 11
233.5
 21
-878.18839600000013
 31
0.0
  0
LINE
  8
SIZE
  6
CONTINUOUS
 62
    30
 10
-231.5
 20
-848.18839600000013
 30
0.0
 11
231.5
 21
-848.18839600000013
 31
0.0
  0
CIRCLE
  8
SIZE
  6
CONTINUOUS
 62
    30
 10
-233.5
 20
-848.18839600000013
 30
0.0
 40
6.0
  0
CIRCLE
  8
SIZE
  6
CONTINUOUS
 62
    30
 10
233.5
 20
-848.18839600000013
 30
0.0
 40
6.0
  0
TEXT
  8
SIZE
  6
CONTINUOUS
 62
    30
 10
-74.05714285714285
 20
-828.18839600000001
 30
0.0
 40
64.0
  1
467
 41
0.9
 72
     1
 11
0.0
 21
-828.18839600000001
 31
0.0
  0
POINT
  8
DEFPOINTS
  6
CONTINUOUS
 62
    30
 10
-233.5
 20
-277.49994700000002
 30
0.0
  0
POINT
  8
DEFPOINTS
  6
CONTINUOUS
 62
    30
 10
233.5
 20
-277.49994700000002
 30
0.0
  0
POINT
  8
DEFPOINTS
  6
CONTINUOUS
 62
    30
 10
233.5
 20
-848.18839600000013
 30
0.0
  0
LINE
  8
OUTLINE
  6
CONTINUOUS
 62
     3
 10
-195.494631
 20
295.00002599999988
 30
0.0
 11
195.505369
 21
295.00002599999988
 31
0.0
  0
LINE
  8
OUTLINE
  6
CONTINUOUS
 62
     3
 10
-195.494631
 20
-294.99997400000012
 30
0.0
 11
195.505369
 21
-294.99997400000012
 31
0.0
  0
LINE
  8
OUTLINE
  6
CONTINUOUS
 62
     3
 10
-195.494631
 20
-294.99997400000012
 30
0.0
 11
-195.494631
 21
295.00002599999988
 31
0.0
  0
LINE
  8
OUTLINE
  6
CONTINUOUS
 62
     3
 10
195.5
 20
295.00002599999988
 30
0.0
 11
195.505369
 21
-294.99997400000012
 31
0.0
  0
ENDSEC
  0
EOF
