  0
SECTION
  2
HEADER
  9
$ACADVER
  1
AC1009
  9
$DWGCODEPAGE
  3
dos932
  9
$INSBASE
 10
0.0
 20
0.0
 30
0.0
  9
$EXTMIN
 10
-406.0546706850364
 20
-380.03538860943632
 30
-0.0030516297567118
  9
$EXTMAX
 10
965.28626637915841
 20
591.84265939034776
 30
0.0007631257219032
  9
$LIMMIN
 10
-2970.0
 20
-2100.0
  9
$LIMMAX
 10
2970.0
 20
2100.0
  9
$ORTHOMODE
 70
     1
  9
$REGENMODE
 70
     1
  9
$FILLMODE
 70
     1
  9
$QTEXTMODE
 70
     0
  9
$MIRRTEXT
 70
     0
  9
$LTSCALE
 40
20.0
  9
$ATTMODE
 70
     1
  9
$TEXTSIZE
 40
64.0
  9
$TRACEWID
 40
0.05
  9
$TEXTSTYLE
  7
STANDARD
  9
$CLAYER
  8
SIZE
  9
$CELTYPE
  6
CONTINUOUS
  9
$CECOLOR
 62
     7
  9
$DIMSCALE
 40
1.0
  9
$DIMASZ
 40
12.0
  9
$DIMEXO
 40
20.0
  9
$DIMDLI
 40
200.0
  9
$DIMRND
 40
0.0
  9
$DIMDLE
 40
0.0
  9
$DIMEXE
 40
20.0
  9
$DIMTP
 40
0.0
  9
$DIMTM
 40
0.0
  9
$DIMTXT
 40
64.0
  9
$DIMCEN
 40
0.09
  9
$DIMTSZ
 40
0.0
  9
$DIMTOL
 70
     0
  9
$DIMLIM
 70
     0
  9
$DIMTIH
 70
     0
  9
$DIMTOH
 70
     0
  9
$DIMSE1
 70
     0
  9
$DIMSE2
 70
     0
  9
$DIMTAD
 70
     1
  9
$DIMZIN
 70
     8
  9
$DIMBLK
  1

  9
$DIMASO
 70
     1
  9
$DIMSHO
 70
     0
  9
$DIMPOST
  1

  9
$DIMAPOST
  1

  9
$DIMALT
 70
     0
  9
$DIMALTD
 70
     2
  9
$DIMALTF
 40
25.399999999999999
  9
$DIMLFAC
 40
1.0
  9
$DIMTOFL
 70
     1
  9
$DIMTVP
 40
0.0
  9
$DIMTIX
 70
     1
  9
$DIMSOXD
 70
     0
  9
$DIMSAH
 70
     0
  9
$DIMBLK1
  1

  9
$DIMBLK2
  1

  9
$DIMSTYLE
  2
STANDARD
  9
$DIMCLRD
 70
     7
  9
$DIMCLRE
 70
     7
  9
$DIMCLRT
 70
     7
  9
$DIMTFAC
 40
1.0
  9
$DIMGAP
 40
25.0
  9
$LUNITS
 70
     2
  9
$LUPREC
 70
     4
  9
$SKETCHINC
 40
0.1
  9
$FILLETRAD
 40
3.0
  9
$AUNITS
 70
     1
  9
$AUPREC
 70
     3
  9
$MENU
  1
ACAD
  9
$ELEVATION
 40
0.0
  9
$PELEVATION
 40
0.0
  9
$THICKNESS
 40
0.0
  9
$LIMCHECK
 70
     0
  9
$CHAMFERA
 40
0.0
  9
$CHAMFERB
 40
0.0
  9
$SKPOLY
 70
     0
  9
$TDCREATE
 40
2453019.62301037
  9
$TDUPDATE
 40
2459268.676635741
  9
$TDINDWG
 40
1.7288932986
  9
$TDUSRTIMER
 40
1.7288932986
  9
$USRTIMER
 70
     1
  9
$ANGBASE
 50
0.0
  9
$ANGDIR
 70
     0
  9
$PDMODE
 70
     3
  9
$PDSIZE
 40
-2.0
  9
$PLINEWID
 40
0.0
  9
$SPLFRAME
 70
     0
  9
$SPLINETYPE
 70
     6
  9
$SPLINESEGS
 70
     8
  9
$SURFTAB1
 70
     6
  9
$SURFTAB2
 70
     6
  9
$SURFTYPE
 70
     6
  9
$SURFU
 70
     6
  9
$SURFV
 70
     6
  9
$UCSNAME
  2

  9
$UCSORG
 10
0.0
 20
0.0
 30
0.0
  9
$UCSXDIR
 10
1.0
 20
0.0
 30
0.0
  9
$UCSYDIR
 10
0.0
 20
1.0
 30
0.0
  9
$PUCSNAME
  2

  9
$PUCSORG
 10
0.0
 20
0.0
 30
0.0
  9
$PUCSXDIR
 10
1.0
 20
0.0
 30
0.0
  9
$PUCSYDIR
 10
0.0
 20
1.0
 30
0.0
  9
$USERI1
 70
     0
  9
$USERI2
 70
     0
  9
$USERI3
 70
     0
  9
$USERI4
 70
     0
  9
$USERI5
 70
     0
  9
$USERR1
 40
20.0
  9
$USERR2
 40
0.0
  9
$USERR3
 40
0.0
  9
$USERR4
 40
0.0
  9
$USERR5
 40
0.0
  9
$WORLDVIEW
 70
     1
  9
$SHADEDGE
 70
     3
  9
$SHADEDIF
 70
    70
  9
$TILEMODE
 70
     1
  9
$MAXACTVP
 70
    48
  9
$PINSBASE
 10
0.0
 20
0.0
 30
0.0
  9
$PLIMCHECK
 70
     0
  9
$PEXTMIN
 10
-100000000000000000000.0
 20
-100000000000000000000.0
 30
-100000000000000000000.0
  9
$PEXTMAX
 10
100000000000000000000.0
 20
100000000000000000000.0
 30
100000000000000000000.0
  9
$PLIMMIN
 10
0.0
 20
0.0
  9
$PLIMMAX
 10
12.0
 20
9.0
  9
$UNITMODE
 70
     0
  9
$VISRETAIN
 70
     0
  9
$PLINEGEN
 70
     0
  9
$PSLTSCALE
 70
     0
  9
$TREEDEPTH
 70
  3020
  9
$ATTDIA
 70
     0
  9
$ATTREQ
 70
     1
  9
$BLIPMODE
 70
     1
  9
$COORDS
 70
     1
  9
$DRAGMODE
 70
     2
  9
$OSMODE
 70
     0
  9
$HANDLING
 70
     0
  9
$HANDSEED
  5
1069B
  0
ENDSEC
  0
SECTION
  2
TABLES
  0
TABLE
  2
LTYPE
 70
     2
  0
LTYPE
  2
CONTINUOUS
 70
     0
  3
実線
 72
    65
 73
     0
 40
0.0
  0
LTYPE
  2
DASHDOT
 70
     0
  3
____ _ ____ _ ____ _ ____ _ ____ _ ____ _ ____
 72
    65
 73
     4
 40
5.5
 49
4.0
 49
-0.6
 49
0.3
 49
-0.6
  0
ENDTAB
  0
TABLE
  2
LAYER
 70
    12
  0
LAYER
  2
0
 70
     0
 62
     7
  6
CONTINUOUS
  0
LAYER
  2
BASIS
 70
     0
 62
     6
  6
DASHDOT
  0
LAYER
  2
OUTLINE
 70
     0
 62
     3
  6
CONTINUOUS
  0
LAYER
  2
DETAIL
 70
     0
 62
     5
  6
CONTINUOUS
  0
LAYER
  2
SIZE
 70
     0
 62
    30
  6
CONTINUOUS
  0
LAYER
  2
ARRANGE
 70
     0
 62
     1
  6
CONTINUOUS
  0
LAYER
  2
DEFPOINTS
 70
     0
 62
     7
  6
CONTINUOUS
  0
LAYER
  2
ETC
 70
     0
 62
    61
  6
CONTINUOUS
  0
LAYER
  2
FIX
 70
     0
 62
    11
  6
CONTINUOUS
  0
LAYER
  2
NOTE
 70
     0
 62
     4
  6
CONTINUOUS
  0
LAYER
  2
SERVICESPACE
 70
    64
 62
     2
  6
DASHDOT
  0
LAYER
  2
SYMBOLLINE
 70
    64
 62
    15
  6
CONTINUOUS
  0
ENDTAB
  0
TABLE
  2
STYLE
 70
     1
  0
STYLE
  2
STANDARD
 70
     0
 40
64.0
 41
0.9
 50
0.0
 71
     0
 42
64.0
  3
SIMPLEX.shx
  4
BIGFONT.shx
  0
ENDTAB
  0
TABLE
  2
APPID
 70
    19
  0
APPID
  2
ACAD
 70
     0
  0
APPID
  2
AUTOCAD_POSTSCRIPT_FIGURE
 70
     0
  0
APPID
  2
ACAD_EXEMPT_FROM_CAD_STANDARDS
 70
     0
  0
APPID
  2
ACAD_PSEXT
 70
     0
  0
APPID
  2
ACAUTHENVIRON
 70
     0
  0
APPID
  2
GENIUS_GENOENT_13
 70
     0
  0
APPID
  2
GENIUS_GENCFG_13
 70
     0
  0
APPID
  2
GENIUS_GENCFG0_13
 70
     0
  0
APPID
  2
GENIUS_GENCFG1_13
 70
     0
  0
APPID
  2
GENIUS_GENCFG2_13
 70
     0
  0
APPID
  2
GENIUS_GENCFG3_13
 70
     0
  0
APPID
  2
GENIUS_GENCFG4_13
 70
     0
  0
APPID
  2
GENIUS_GEVCFG0_13
 70
     0
  0
APPID
  2
CONTENTBLOCKICON
 70
     0
  0
APPID
  2
CONTENTBLOCKDESCRIPTION
 70
     0
  0
APPID
  2
ACAD_NAV_VCDISPLAY
 70
     0
  0
APPID
  2
ACAD_MLEADERVER
 70
     0
  0
APPID
  2
ACDBDYNAMICBLOCKTRUENAME
 70
     0
  0
APPID
  2
ACDBDYNAMICBLOCKGUID
 70
     0
  0
ENDTAB
  0
TABLE
  2
DIMSTYLE
 70
     1
  0
DIMSTYLE
  2
STANDARD
 70
     0
  3

  4

  5
_ORIGIN
  6

  7

 40
1.0
 41
12.0
 42
20.0
 43
200.0
 44
20.0
 45
0.0
 46
0.0
 47
0.0
 48
0.0
140
64.0
141
0.09
142
0.0
143
25.399999999999999
144
1.0
145
0.0
146
1.0
147
25.0
 71
     0
 72
     0
 73
     0
 74
     0
 75
     0
 76
     0
 77
     1
 78
     8
170
     0
171
     2
172
     1
173
     0
174
     1
175
     0
176
     7
177
     7
178
     7
  0
ENDTAB
  0
TABLE
  2
VIEW
 70
     1
  0
VIEW
  2
ALL
 70
     0
 40
4282.6198079999986
 10
0.0
 20
41.309904000000003
 41
5940.0
 11
0.0
 21
0.0
 31
1.0
 12
0.0
 22
0.0
 32
0.0
 42
50.0
 43
0.0
 44
0.0
 50
0.0
 71
     0
  0
ENDTAB
  0
TABLE
  2
UCS
 70
     0
  0
ENDTAB
  0
TABLE
  2
VPORT
 70
     1
  0
VPORT
  2
*ACTIVE
 70
     0
 10
0.0
 20
0.0
 11
1.0
 21
1.0
 12
279.61579784706112
 22
105.9036353904557
 13
0.0
 23
0.0
 14
1.0
 24
1.0
 15
0.0
 25
0.0
 16
0.0
 26
0.0
 36
1.0
 17
0.0
 27
0.0
 37
0.0
 40
791.46016139747337
 41
1.980636237897649
 42
50.0
 43
0.0
 44
0.0
 50
0.0
 51
0.0
 71
     0
 72
  1000
 73
     1
 74
     3
 75
     0
 76
     0
 77
     0
 78
     0
  0
ENDTAB
  0
ENDSEC
  0
SECTION
  2
BLOCKS
  0
BLOCK
  8
0
  2
_ORIGIN
 70
     0
 10
0.0
 20
0.0
 30
0.0
  3
_ORIGIN
  1
_ORIGIN
  0
CIRCLE
  8
SIZE
  6
CONTINUOUS
 62
    30
 10
0.0
 20
0.0
 30
0.0
 40
0.5
  0
LINE
  8
SIZE
  6
CONTINUOUS
 62
    30
 10
0.0
 20
0.0
 30
0.0
 11
-1.0
 21
0.0
 31
0.0
  0
ENDBLK
  8
0
  0
ENDSEC
  0
SECTION
  2
ENTITIES
  0
CIRCLE
  8
ARRANGE
  6
CONTINUOUS
 62
     1
 10
0.0
 20
0.0
 30
0.0
 40
40.0
  0
POINT
  8
ARRANGE
  6
CONTINUOUS
 62
     1
 10
0.0
 20
0.0
 30
0.0
  0
LINE
  8
BASIS
  6
DASHDOT
 62
     6
 10
0.0
 20
-371.48324192368619
 30
0.0
 11
0.0
 21
64.145884186752482
 31
0.0
  0
LINE
  8
BASIS
  6
DASHDOT
 62
     6
 10
-288.42020250962719
 20
-175.35008462940411
 30
0.0
 11
288.42020250962719
 21
-175.35008462940411
 31
0.0
  0
LINE
  8
SIZE
  6
CONTINUOUS
 62
    30
 10
-195.09755289106391
 20
17.172249596366779
 30
0.0
 11
-195.09755289106391
 21
133.88000785130819
 31
0.0
  0
LINE
  8
SIZE
  6
CONTINUOUS
 62
    30
 10
194.8713328587732
 20
17.172249596366779
 30
0.0
 11
194.8713328587732
 21
133.88000785130819
 31
0.0
  0
LINE
  8
SIZE
  6
CONTINUOUS
 62
    30
 10
-183.09755289106391
 20
113.88000785130821
 30
0.0
 11
182.8713328587732
 21
113.88000785130821
 31
0.0
  0
CIRCLE
  8
SIZE
  6
CONTINUOUS
 62
    30
 10
-195.09755289106391
 20
113.88000785130821
 30
0.0
 40
6.0
  0
LINE
  8
SIZE
  6
CONTINUOUS
 62
    30
 10
-195.09755289106391
 20
113.88000785130821
 30
0.0
 11
-183.09755289106391
 21
113.88000785130821
 31
0.0
  0
CIRCLE
  8
SIZE
  6
CONTINUOUS
 62
    30
 10
194.8713328587732
 20
113.88000785130821
 30
0.0
 40
6.0
  0
LINE
  8
SIZE
  6
CONTINUOUS
 62
    30
 10
194.8713328587732
 20
113.88000785130821
 30
0.0
 11
182.8713328587732
 21
113.88000785130821
 31
0.0
  0
TEXT
  8
SIZE
  6
CONTINUOUS
 62
    30
 10
-74.132137631092888
 20
138.88000785130819
 30
0.0
 40
64.0
  1
390
 41
0.9
 72
     1
 11
-0.0749947739500385
 21
138.88000785130819
 31
0.0
  0
POINT
  8
DEFPOINTS
  6
CONTINUOUS
 62
    30
 10
-195.09755289106391
 20
-2.8277504036332179
 30
0.0
  0
POINT
  8
DEFPOINTS
  6
CONTINUOUS
 62
    30
 10
194.8713328587732
 20
-2.8277504036332179
 30
0.0
  0
POINT
  8
DEFPOINTS
  6
CONTINUOUS
 62
    30
 10
194.8713328587732
 20
113.88000785130821
 30
0.0
  0
CIRCLE
  8
FIX
  6
CONTINUOUS
 62
    11
 10
233.5
 20
-164.66684360447741
 30
0.0
 40
5.0
  0
LINE
  8
NOTE
  6
CONTINUOUS
 62
     4
 10
233.5
 20
-188.09022527099449
 30
0.0
 11
233.5
 21
-141.44346193796039
 31
0.0
  0
LINE
  8
NOTE
  6
CONTINUOUS
 62
     4
 10
262.07302281108377
 20
-164.66684360447741
 30
0.0
 11
204.3269771889162
 21
-164.66684360447741
 31
0.0
  0
CIRCLE
  8
FIX
  6
CONTINUOUS
 62
    11
 10
-233.5
 20
-164.66684360447741
 30
0.0
 40
5.0
  0
LINE
  8
NOTE
  6
CONTINUOUS
 62
     4
 10
-233.5
 20
-188.09022527099449
 30
0.0
 11
-233.5
 21
-141.44346193796039
 31
0.0
  0
LINE
  8
NOTE
  6
CONTINUOUS
 62
     4
 10
-205.12697718891619
 20
-164.66684360447741
 30
0.0
 11
-262.07302281108377
 21
-164.66684360447741
 31
0.0
  0
LINE
  8
SIZE
  6
CONTINUOUS
 62
    30
 10
-233.5
 20
-121.41177572148921
 30
0.0
 11
-233.5
 21
286.3358832951667
 31
0.0
  0
LINE
  8
SIZE
  6
CONTINUOUS
 62
    30
 10
233.5
 20
-121.44346193796039
 30
0.0
 11
233.5
 21
286.3358832951667
 31
0.0
  0
LINE
  8
SIZE
  6
CONTINUOUS
 62
    30
 10
-221.5
 20
266.3358832951667
 30
0.0
 11
221.5
 21
266.3358832951667
 31
0.0
  0
CIRCLE
  8
SIZE
  6
CONTINUOUS
 62
    30
 10
-233.5
 20
266.3358832951667
 30
0.0
 40
6.0
  0
LINE
  8
SIZE
  6
CONTINUOUS
 62
    30
 10
-233.5
 20
266.3358832951667
 30
0.0
 11
-221.5
 21
266.3358832951667
 31
0.0
  0
CIRCLE
  8
SIZE
  6
CONTINUOUS
 62
    30
 10
233.5
 20
266.3358832951667
 30
0.0
 40
6.0
  0
LINE
  8
SIZE
  6
CONTINUOUS
 62
    30
 10
233.5
 20
266.3358832951667
 30
0.0
 11
221.5
 21
266.3358832951667
 31
0.0
  0
TEXT
  8
SIZE
  6
CONTINUOUS
 62
    30
 10
-74.057142857142821
 20
291.3358832951667
 30
0.0
 40
64.0
  1
467
 41
0.9
 72
     1
 11
0.0000000000000284
 21
291.3358832951667
 31
0.0
  0
POINT
  8
DEFPOINTS
  6
CONTINUOUS
 62
    30
 10
-233.5
 20
-141.41177572148919
 30
0.0
  0
POINT
  8
DEFPOINTS
  6
CONTINUOUS
 62
    30
 10
233.5
 20
-141.44346193796039
 30
0.0
  0
POINT
  8
DEFPOINTS
  6
CONTINUOUS
 62
    30
 10
233.5
 20
266.3358832951667
 30
0.0
  0
LINE
  8
SIZE
  6
CONTINUOUS
 62
    30
 10
253.64021613325639
 20
-144.66684360447741
 30
0.0
 11
253.6402161332565
 21
425.47037446834611
 31
0.0
  0
LINE
  8
SIZE
  6
CONTINUOUS
 62
    30
 10
-253.2098811574748
 20
-144.66684360447741
 30
0.0
 11
-253.2098811574748
 21
425.47037446834611
 31
0.0
  0
LINE
  8
SIZE
  6
CONTINUOUS
 62
    30
 10
241.6402161332565
 20
405.47037446834611
 30
0.0
 11
-241.2098811574748
 21
405.47037446834611
 31
0.0
  0
CIRCLE
  8
SIZE
  6
CONTINUOUS
 62
    30
 10
253.6402161332565
 20
405.47037446834611
 30
0.0
 40
6.0
  0
LINE
  8
SIZE
  6
CONTINUOUS
 62
    30
 10
253.6402161332565
 20
405.47037446834611
 30
0.0
 11
241.6402161332565
 21
405.47037446834611
 31
0.0
  0
CIRCLE
  8
SIZE
  6
CONTINUOUS
 62
    30
 10
-253.2098811574748
 20
405.47037446834611
 30
0.0
 40
6.0
  0
LINE
  8
SIZE
  6
CONTINUOUS
 62
    30
 10
-253.2098811574748
 20
405.47037446834611
 30
0.0
 11
-241.2098811574748
 21
405.47037446834611
 31
0.0
  0
TEXT
  8
SIZE
  6
CONTINUOUS
 62
    30
 10
-73.682141115126143
 20
430.47037446834611
 30
0.0
 40
64.0
  1
507
 41
0.9
 72
     1
 11
0.3750017420167069
 21
430.47037446834611
 31
0.0
  0
POINT
  8
DEFPOINTS
  6
CONTINUOUS
 62
    30
 10
253.64021613325639
 20
-164.66684360447741
 30
0.0
  0
POINT
  8
DEFPOINTS
  6
CONTINUOUS
 62
    30
 10
-253.2098811574748
 20
-164.66684360447741
 30
0.0
  0
POINT
  8
DEFPOINTS
  6
CONTINUOUS
 62
    30
 10
-253.2098811574748
 20
405.47037446834611
 30
0.0
  0
LINE
  8
SIZE
  6
CONTINUOUS
 62
    30
 10
-203.89966129267569
 20
0.0
 30
0.0
 11
-336.88750160825788
 21
0.0000000000000568
 31
0.0
  0
LINE
  8
SIZE
  6
CONTINUOUS
 62
    30
 10
-213.90989772153799
 20
-350.14593017969651
 30
0.0
 11
-336.88750160825788
 21
-350.14593017969651
 31
0.0
  0
LINE
  8
SIZE
  6
CONTINUOUS
 62
    30
 10
-316.88750160825788
 20
-12.0
 30
0.0
 11
-316.88750160825799
 21
-338.14593017969651
 31
0.0
  0
CIRCLE
  8
SIZE
  6
CONTINUOUS
 62
    30
 10
-316.88750160825788
 20
0.0
 30
0.0
 40
6.0
  0
LINE
  8
SIZE
  6
CONTINUOUS
 62
    30
 10
-316.88750160825788
 20
0.0
 30
0.0
 11
-316.88750160825788
 21
-12.0
 31
0.0
  0
CIRCLE
  8
SIZE
  6
CONTINUOUS
 62
    30
 10
-316.88750160825799
 20
-350.14593017969651
 30
0.0
 40
6.0
  0
LINE
  8
SIZE
  6
CONTINUOUS
 62
    30
 10
-316.88750160825799
 20
-350.14593017969651
 30
0.0
 11
-316.88750160825799
 21
-338.14593017969651
 31
0.0
  0
TEXT
  8
SIZE
  6
CONTINUOUS
 62
    30
 10
-341.88750160825788
 20
-248.74162725255081
 30
0.0
 40
64.0
  1
350
 50
90.0
 41
0.9
 72
     1
 11
-341.88750160825788
 21
-174.68448439540799
 31
0.0
  0
POINT
  8
DEFPOINTS
  6
CONTINUOUS
 62
    30
 10
-183.89966129267569
 20
0.0
 30
0.0
  0
POINT
  8
DEFPOINTS
  6
CONTINUOUS
 62
    30
 10
-193.90989772153799
 20
-350.14593017969651
 30
0.0
  0
POINT
  8
DEFPOINTS
  6
CONTINUOUS
 62
    30
 10
-316.88750160825799
 20
-350.14593017969651
 30
0.0
  0
TEXT
  8
NOTE
  6
CONTINUOUS
 62
     4
 10
309.04449357503103
 20
54.385010610923189
 30
0.0
 40
64.0
  1
AH
 41
0.9
  0
LINE
  8
NOTE
  6
CONTINUOUS
 62
     4
 10
236.8393575816946
 20
-159.4291542063192
 30
0.0
 11
233.5
 21
-164.66684360447741
 31
0.0
  0
LINE
  8
NOTE
  6
CONTINUOUS
 62
     4
 10
233.5
 20
-164.66684360447741
 30
0.0
 11
233.77311444742159
 21
-158.4611923261175
 31
0.0
  0
LINE
  8
NOTE
  6
CONTINUOUS
 62
     4
 10
233.5
 20
-164.66684360447741
 30
0.0
 11
237.11247202911611
 21
-153.22350292795929
 31
0.0
  0
LINE
  8
NOTE
  6
CONTINUOUS
 62
     4
 10
237.11247202911611
 20
-153.22350292795929
 30
0.0
 11
297.34091400399939
 21
37.564017191089761
 31
0.0
  0
LINE
  8
NOTE
  6
CONTINUOUS
 62
     4
 10
297.34091400399939
 20
37.564017191089761
 30
0.0
 11
433.08377114685652
 21
37.564017191089761
 31
0.0
  0
TEXT
  8
NOTE
  6
CONTINUOUS
 62
     4
 10
-50.042905919323793
 20
-208.3292865129024
 30
0.0
 40
64.0
  1
RA
 41
0.9
 72
     1
 11
0.6999512235333611
 21
-208.3292865129024
 31
0.0
  0
TEXT
  8
ETC
  6
CONTINUOUS
 62
    61
 10
301.44744027040502
 20
527.69065424329551
 30
0.0
 40
64.0
  1
BFS-120SKA2_3
 41
0.9
  0
TEXT
  8
ETC
  6
CONTINUOUS
 62
    61
 10
297.26144627040458
 20
409.73534422846433
 30
0.0
 40
64.0
  1
産業扇
 41
0.9
  0
TEXT
  8
ETC
  6
CONTINUOUS
 62
    61
 10
347.96284451896048
 20
301.58657134223893
 30
0.0
 40
40.0
  1
BFS-120SKA2
 41
0.9
  0
TEXT
  8
ETC
  6
CONTINUOUS
 62
    61
 10
347.96284451896048
 20
235.5865713422389
 30
0.0
 40
40.0
  1
BFS-150SKA2
 41
0.9
  0
LINE
  8
DETAIL
  6
CONTINUOUS
 62
     5
 10
95.238633594370867
 20
-271.95169391832638
 30
0.0
 11
95.238633594370867
 21
-271.44269884567228
 31
0.0
  0
LINE
  8
DETAIL
  6
CONTINUOUS
 62
     5
 10
95.238633594370867
 20
-271.44269884567228
 30
0.0
 11
95.577963642806935
 21
-270.99025878109092
 31
0.0
  0
LINE
  8
DETAIL
  6
CONTINUOUS
 62
     5
 10
95.577963642806935
 20
-270.99025878109092
 30
0.0
 11
96.086958715460923
 21
-270.65092873265507
 31
0.0
  0
LINE
  8
DETAIL
  6
CONTINUOUS
 62
     5
 10
96.086958715460923
 20
-270.65092873265507
 30
0.0
 11
96.256623739678844
 21
-270.3681536922918
 31
0.0
  0
LINE
  8
DETAIL
  6
CONTINUOUS
 62
     5
 10
96.256623739678844
 20
-270.3681536922918
 30
0.0
 11
96.878728828478302
 21
-270.3681536922918
 31
0.0
  0
LINE
  8
DETAIL
  6
CONTINUOUS
 62
     5
 10
96.878728828478302
 20
-270.3681536922918
 30
0.0
 11
97.387723901132276
 21
-270.3681536922918
 31
0.0
  0
LINE
  8
DETAIL
  6
CONTINUOUS
 62
     5
 10
97.387723901132276
 20
-270.3681536922918
 30
0.0
 11
97.783608957640823
 21
-270.65092873265507
 31
0.0
  0
LINE
  8
DETAIL
  6
CONTINUOUS
 62
     5
 10
97.783608957640823
 20
-270.65092873265507
 30
0.0
 11
98.066383998004298
 21
-271.15992380530912
 31
0.0
  0
LINE
  8
DETAIL
  6
CONTINUOUS
 62
     5
 10
98.066383998004298
 20
-271.15992380530912
 30
0.0
 11
98.236049022222232
 21
-271.66891887796322
 31
0.0
  0
LINE
  8
DETAIL
  6
CONTINUOUS
 62
     5
 10
98.236049022222232
 20
-271.66891887796322
 30
0.0
 11
98.236049022222232
 21
-272.17791395061732
 31
0.0
  0
LINE
  8
DETAIL
  6
CONTINUOUS
 62
     5
 10
98.236049022222232
 20
-272.17791395061732
 30
0.0
 11
98.066383998004298
 21
-272.34757897483519
 31
0.0
  0
LINE
  8
DETAIL
  6
CONTINUOUS
 62
     5
 10
98.066383998004298
 20
-272.34757897483519
 30
0.0
 11
97.783608957640823
 21
-272.85657404748918
 31
0.0
  0
LINE
  8
DETAIL
  6
CONTINUOUS
 62
     5
 10
97.783608957640823
 20
-272.85657404748918
 30
0.0
 11
97.387723901132276
 21
-273.13934908785251
 31
0.0
  0
LINE
  8
DETAIL
  6
CONTINUOUS
 62
     5
 10
97.387723901132276
 20
-273.13934908785251
 30
0.0
 11
96.878728828478302
 21
-273.47867913628829
 31
0.0
  0
LINE
  8
DETAIL
  6
CONTINUOUS
 62
     5
 10
96.878728828478302
 20
-273.47867913628829
 30
0.0
 11
96.256623739678844
 21
-273.13934908785251
 31
0.0
  0
LINE
  8
DETAIL
  6
CONTINUOUS
 62
     5
 10
96.256623739678844
 20
-273.13934908785251
 30
0.0
 11
96.086958715460923
 21
-273.13934908785251
 31
0.0
  0
LINE
  8
DETAIL
  6
CONTINUOUS
 62
     5
 10
96.086958715460923
 20
-273.13934908785251
 30
0.0
 11
95.577963642806935
 21
-272.68690902327131
 31
0.0
  0
LINE
  8
DETAIL
  6
CONTINUOUS
 62
     5
 10
95.577963642806935
 20
-272.68690902327131
 30
0.0
 11
95.238633594370867
 21
-272.34757897483519
 31
0.0
  0
LINE
  8
DETAIL
  6
CONTINUOUS
 62
     5
 10
95.238633594370867
 20
-272.34757897483519
 30
0.0
 11
95.238633594370867
 21
-271.95169391832638
 31
0.0
  0
LINE
  8
DETAIL
  6
CONTINUOUS
 62
     5
 10
-193.62712268117451
 20
-0.8483251210898288
 30
0.0
 11
-193.62712268117451
 21
-2.8277504036332179
 31
0.0
  0
LINE
  8
DETAIL
  6
CONTINUOUS
 62
     5
 10
193.90989772153799
 20
-0.8483251210898288
 30
0.0
 11
193.90989772153799
 21
-2.8277504036332179
 31
0.0
  0
LINE
  8
DETAIL
  6
CONTINUOUS
 62
     5
 10
-183.673441260385
 20
-349.35416006667913
 30
0.0
 11
-183.673441260385
 21
-350.14593017969651
 31
0.0
  0
LINE
  8
DETAIL
  6
CONTINUOUS
 62
     5
 10
183.8996612926758
 20
-349.35416006667913
 30
0.0
 11
183.8996612926758
 21
-350.14593017969651
 31
0.0
  0
LINE
  8
DETAIL
  6
CONTINUOUS
 62
     5
 10
183.8996612926758
 20
-0.8483251210898288
 30
0.0
 11
194.07956274575591
 21
-0.8483251210898288
 31
0.0
  0
LINE
  8
DETAIL
  6
CONTINUOUS
 62
     5
 10
183.8996612926758
 20
-350.14593017969651
 30
0.0
 11
-183.673441260385
 21
-350.14593017969651
 31
0.0
  0
LINE
  8
DETAIL
  6
CONTINUOUS
 62
     5
 10
191.42147736634061
 20
-1.526985217961965
 30
0.0
 11
194.07956274575591
 21
-1.526985217961965
 31
0.0
  0
LINE
  8
DETAIL
  6
CONTINUOUS
 62
     5
 10
-194.871332858773
 20
-213.75659061155241
 30
0.0
 11
-194.871332858773
 21
-347.31817977606318
 31
0.0
  0
LINE
  8
DETAIL
  6
CONTINUOUS
 62
     5
 10
-185.9356415832917
 20
-168.62569416956421
 30
0.0
 11
-185.9356415832917
 21
-7.1045911140279259
 31
0.0
  0
LINE
  8
DETAIL
  6
CONTINUOUS
 62
     5
 10
-185.9356415832917
 20
-342.34133906566882
 30
0.0
 11
-186.16186161558241
 21
-343.86832428363073
 31
0.0
  0
LINE
  8
DETAIL
  6
CONTINUOUS
 62
     5
 10
-186.16186161558241
 20
-343.86832428363073
 30
0.0
 11
-186.95363172859959
 21
-345.3387544935199
 31
0.0
  0
LINE
  8
DETAIL
  6
CONTINUOUS
 62
     5
 10
-186.95363172859959
 20
-345.3387544935199
 30
0.0
 11
-187.97162187390759
 21
-346.35674463882788
 31
0.0
  0
LINE
  8
DETAIL
  6
CONTINUOUS
 62
     5
 10
-187.97162187390759
 20
-346.35674463882788
 30
0.0
 11
-189.44205208379699
 21
-347.03540473570001
 31
0.0
  0
LINE
  8
DETAIL
  6
CONTINUOUS
 62
     5
 10
-189.44205208379699
 20
-347.03540473570001
 30
0.0
 11
-190.9690373017589
 21
-347.31817977606318
 31
0.0
  0
LINE
  8
DETAIL
  6
CONTINUOUS
 62
     5
 10
-190.9690373017589
 20
-2.8277504036332179
 30
0.0
 11
-189.44205208379699
 21
-3.1105254439964942
 31
0.0
  0
LINE
  8
DETAIL
  6
CONTINUOUS
 62
     5
 10
-189.44205208379699
 20
-3.1105254439964942
 30
0.0
 11
-187.97162187390759
 21
-3.7891855408686301
 31
0.0
  0
LINE
  8
DETAIL
  6
CONTINUOUS
 62
     5
 10
-187.97162187390759
 20
-3.7891855408686301
 30
0.0
 11
-186.95363172859959
 21
-5.0333957184673181
 31
0.0
  0
LINE
  8
DETAIL
  6
CONTINUOUS
 62
     5
 10
-186.95363172859959
 20
-5.0333957184673181
 30
0.0
 11
-186.16186161558241
 21
-5.6341609041385254
 31
0.0
  0
LINE
  8
DETAIL
  6
CONTINUOUS
 62
     5
 10
-186.16186161558241
 20
-5.6341609041385254
 30
0.0
 11
-185.9356415832917
 21
-7.1045911140279259
 31
0.0
  0
LINE
  8
DETAIL
  6
CONTINUOUS
 62
     5
 10
-185.9356415832917
 20
-349.35416006667913
 30
0.0
 11
-185.9356415832917
 21
-350.14593017969651
 31
0.0
  0
LINE
  8
DETAIL
  6
CONTINUOUS
 62
     5
 10
-194.1361177538283
 20
-348.61894496173448
 30
0.0
 11
-193.45745765695639
 21
-348.61894496173448
 31
0.0
  0
LINE
  8
DETAIL
  6
CONTINUOUS
 62
     5
 10
-193.45745765695639
 20
-348.61894496173448
 30
0.0
 11
-193.45745765695639
 21
-349.01483001824317
 31
0.0
  0
LINE
  8
DETAIL
  6
CONTINUOUS
 62
     5
 10
-193.45745765695639
 20
-349.01483001824317
 30
0.0
 11
-193.62712268117451
 21
-349.35416006667913
 31
0.0
  0
LINE
  8
DETAIL
  6
CONTINUOUS
 62
     5
 10
194.07956274575591
 20
-349.35416006667913
 30
0.0
 11
-193.96645272961041
 21
-349.35416006667913
 31
0.0
  0
LINE
  8
DETAIL
  6
CONTINUOUS
 62
     5
 10
-193.96645272961041
 20
-349.35416006667913
 30
0.0
 11
-194.1361177538283
 21
-349.01483001824317
 31
0.0
  0
LINE
  8
DETAIL
  6
CONTINUOUS
 62
     5
 10
-194.1361177538283
 20
-349.01483001824317
 30
0.0
 11
-194.1361177538283
 21
-348.61894496173448
 31
0.0
  0
LINE
  8
DETAIL
  6
CONTINUOUS
 62
     5
 10
-185.9356415832917
 20
-350.14593017969651
 30
0.0
 11
-194.1361177538283
 21
-350.14593017969651
 31
0.0
  0
LINE
  8
DETAIL
  6
CONTINUOUS
 62
     5
 10
-194.1361177538283
 20
-350.14593017969651
 30
0.0
 11
-194.47544780226431
 21
-349.80660013126078
 31
0.0
  0
LINE
  8
DETAIL
  6
CONTINUOUS
 62
     5
 10
-194.47544780226431
 20
-349.80660013126078
 30
0.0
 11
-194.6451128264824
 21
-349.52382509089722
 31
0.0
  0
LINE
  8
DETAIL
  6
CONTINUOUS
 62
     5
 10
-194.6451128264824
 20
-349.52382509089722
 30
0.0
 11
-194.871332858773
 21
-349.35416006667913
 31
0.0
  0
LINE
  8
DETAIL
  6
CONTINUOUS
 62
     5
 10
-194.871332858773
 20
-349.35416006667913
 30
0.0
 11
-194.871332858773
 21
-348.61894496173448
 31
0.0
  0
LINE
  8
DETAIL
  6
CONTINUOUS
 62
     5
 10
-194.871332858773
 20
-348.61894496173448
 30
0.0
 11
-194.6451128264824
 21
-348.10994988908072
 31
0.0
  0
LINE
  8
DETAIL
  6
CONTINUOUS
 62
     5
 10
-194.6451128264824
 20
-348.10994988908072
 30
0.0
 11
-194.47544780226431
 21
-347.82717484871728
 31
0.0
  0
LINE
  8
DETAIL
  6
CONTINUOUS
 62
     5
 10
-194.47544780226431
 20
-347.82717484871728
 30
0.0
 11
-194.1361177538283
 21
-347.82717484871728
 31
0.0
  0
LINE
  8
DETAIL
  6
CONTINUOUS
 62
     5
 10
-194.1361177538283
 20
-347.82717484871728
 30
0.0
 11
-193.62712268117451
 21
-347.65750982449907
 31
0.0
  0
LINE
  8
DETAIL
  6
CONTINUOUS
 62
     5
 10
-185.9356415832917
 20
-342.34133906566882
 30
0.0
 11
-185.9356415832917
 21
-213.75659061155241
 31
0.0
  0
LINE
  8
DETAIL
  6
CONTINUOUS
 62
     5
 10
-193.62712268117451
 20
-2.5449753632699408
 30
0.0
 11
-194.1361177538283
 21
-2.3187553309792288
 31
0.0
  0
LINE
  8
DETAIL
  6
CONTINUOUS
 62
     5
 10
-194.1361177538283
 20
-2.3187553309792288
 30
0.0
 11
-194.47544780226431
 21
-2.3187553309792288
 31
0.0
  0
LINE
  8
DETAIL
  6
CONTINUOUS
 62
     5
 10
-194.47544780226431
 20
-2.3187553309792288
 30
0.0
 11
-194.6451128264824
 21
-2.0925352986885168
 31
0.0
  0
LINE
  8
DETAIL
  6
CONTINUOUS
 62
     5
 10
-194.6451128264824
 20
-2.0925352986885168
 30
0.0
 11
-194.871332858773
 21
-1.526985217961965
 31
0.0
  0
LINE
  8
DETAIL
  6
CONTINUOUS
 62
     5
 10
-194.871332858773
 20
-1.526985217961965
 30
0.0
 11
-194.871332858773
 21
-0.8483251210898288
 31
0.0
  0
LINE
  8
DETAIL
  6
CONTINUOUS
 62
     5
 10
-194.871332858773
 20
-0.8483251210898288
 30
0.0
 11
-194.6451128264824
 21
-0.6221050887991169
 31
0.0
  0
LINE
  8
DETAIL
  6
CONTINUOUS
 62
     5
 10
-194.6451128264824
 20
-0.6221050887991169
 30
0.0
 11
-194.47544780226431
 21
-0.3393300484358406
 31
0.0
  0
LINE
  8
DETAIL
  6
CONTINUOUS
 62
     5
 10
-194.47544780226431
 20
-0.3393300484358406
 30
0.0
 11
-194.1361177538283
 21
0.0
 31
0.0
  0
LINE
  8
DETAIL
  6
CONTINUOUS
 62
     5
 10
-194.1361177538283
 20
0.0
 30
0.0
 11
-185.9356415832917
 21
0.0
 31
0.0
  0
LINE
  8
DETAIL
  6
CONTINUOUS
 62
     5
 10
-194.1361177538283
 20
-1.1311001614531051
 30
0.0
 11
-193.96645272961041
 21
-1.1311001614531051
 31
0.0
  0
LINE
  8
DETAIL
  6
CONTINUOUS
 62
     5
 10
-193.96645272961041
 20
-1.1311001614531051
 30
0.0
 11
-193.96645272961041
 21
-0.8483251210898288
 31
0.0
  0
LINE
  8
DETAIL
  6
CONTINUOUS
 62
     5
 10
-193.96645272961041
 20
-0.8483251210898288
 30
0.0
 11
-183.673441260385
 21
-0.8483251210898288
 31
0.0
  0
LINE
  8
DETAIL
  6
CONTINUOUS
 62
     5
 10
-193.62712268117451
 20
-0.8483251210898288
 30
0.0
 11
-193.45745765695639
 21
-1.1311001614531051
 31
0.0
  0
LINE
  8
DETAIL
  6
CONTINUOUS
 62
     5
 10
-193.45745765695639
 20
-1.1311001614531051
 30
0.0
 11
-193.45745765695639
 21
-1.526985217961965
 31
0.0
  0
LINE
  8
DETAIL
  6
CONTINUOUS
 62
     5
 10
-191.13870232597711
 20
-1.526985217961965
 30
0.0
 11
-194.1361177538283
 21
-1.526985217961965
 31
0.0
  0
LINE
  8
DETAIL
  6
CONTINUOUS
 62
     5
 10
-194.1361177538283
 20
-1.526985217961965
 30
0.0
 11
-194.1361177538283
 21
-1.1311001614531051
 31
0.0
  0
LINE
  8
DETAIL
  6
CONTINUOUS
 62
     5
 10
-185.9356415832917
 20
-0.8483251210898288
 30
0.0
 11
-185.9356415832917
 21
0.0
 31
0.0
  0
LINE
  8
DETAIL
  6
CONTINUOUS
 62
     5
 10
-194.871332858773
 20
-347.31817977606318
 30
0.0
 11
-190.9690373017589
 21
-347.31817977606318
 31
0.0
  0
LINE
  8
DETAIL
  6
CONTINUOUS
 62
     5
 10
-194.871332858773
 20
-164.66684360447741
 30
0.0
 11
-194.871332858773
 21
-2.8277504036332179
 31
0.0
  0
LINE
  8
DETAIL
  6
CONTINUOUS
 62
     5
 10
-194.871332858773
 20
-2.8277504036332179
 30
0.0
 11
-190.9690373017589
 21
-2.8277504036332179
 31
0.0
  0
LINE
  8
DETAIL
  6
CONTINUOUS
 62
     5
 10
195.09755289106391
 20
-213.75659061155241
 30
0.0
 11
195.09755289106391
 21
-347.31817977606318
 31
0.0
  0
LINE
  8
DETAIL
  6
CONTINUOUS
 62
     5
 10
186.10530660750979
 20
-213.75659061155241
 30
0.0
 11
186.10530660750979
 21
-342.34133906566882
 31
0.0
  0
LINE
  8
DETAIL
  6
CONTINUOUS
 62
     5
 10
186.10530660750979
 20
-7.1045911140279259
 30
0.0
 11
186.38808164787321
 21
-5.6341609041385254
 31
0.0
  0
LINE
  8
DETAIL
  6
CONTINUOUS
 62
     5
 10
186.38808164787321
 20
-5.6341609041385254
 30
0.0
 11
187.12329675281779
 21
-5.0333957184673181
 31
0.0
  0
LINE
  8
DETAIL
  6
CONTINUOUS
 62
     5
 10
187.12329675281779
 20
-5.0333957184673181
 30
0.0
 11
188.08473189005321
 21
-3.7891855408686301
 31
0.0
  0
LINE
  8
DETAIL
  6
CONTINUOUS
 62
     5
 10
188.08473189005321
 20
-3.7891855408686301
 30
0.0
 11
189.6117171080152
 21
-3.1105254439964942
 31
0.0
  0
LINE
  8
DETAIL
  6
CONTINUOUS
 62
     5
 10
189.6117171080152
 20
-3.1105254439964942
 30
0.0
 11
191.0821473179046
 21
-2.8277504036332179
 31
0.0
  0
LINE
  8
DETAIL
  6
CONTINUOUS
 62
     5
 10
191.0821473179046
 20
-347.31817977606318
 30
0.0
 11
189.6117171080152
 21
-347.03540473570001
 31
0.0
  0
LINE
  8
DETAIL
  6
CONTINUOUS
 62
     5
 10
189.6117171080152
 20
-347.03540473570001
 30
0.0
 11
188.08473189005321
 21
-346.35674463882788
 31
0.0
  0
LINE
  8
DETAIL
  6
CONTINUOUS
 62
     5
 10
188.08473189005321
 20
-346.35674463882788
 30
0.0
 11
187.12329675281779
 21
-345.3387544935199
 31
0.0
  0
LINE
  8
DETAIL
  6
CONTINUOUS
 62
     5
 10
187.12329675281779
 20
-345.3387544935199
 30
0.0
 11
186.38808164787321
 21
-343.86832428363073
 31
0.0
  0
LINE
  8
DETAIL
  6
CONTINUOUS
 62
     5
 10
186.38808164787321
 20
-343.86832428363073
 30
0.0
 11
186.10530660750979
 21
-342.34133906566882
 31
0.0
  0
LINE
  8
DETAIL
  6
CONTINUOUS
 62
     5
 10
186.10530660750979
 20
-350.14593017969651
 30
0.0
 11
186.10530660750979
 21
-349.35416006667913
 31
0.0
  0
LINE
  8
DETAIL
  6
CONTINUOUS
 62
     5
 10
193.90989772153799
 20
-347.65750982449907
 30
0.0
 11
194.418892794192
 21
-347.82717484871728
 31
0.0
  0
LINE
  8
DETAIL
  6
CONTINUOUS
 62
     5
 10
194.418892794192
 20
-347.82717484871728
 30
0.0
 11
194.5885578184099
 21
-348.10994988908072
 31
0.0
  0
LINE
  8
DETAIL
  6
CONTINUOUS
 62
     5
 10
194.5885578184099
 20
-348.10994988908072
 30
0.0
 11
195.09755289106391
 21
-348.61894496173448
 31
0.0
  0
LINE
  8
DETAIL
  6
CONTINUOUS
 62
     5
 10
195.09755289106391
 20
-348.61894496173448
 30
0.0
 11
195.09755289106391
 21
-349.01483001824317
 31
0.0
  0
LINE
  8
DETAIL
  6
CONTINUOUS
 62
     5
 10
195.09755289106391
 20
-349.01483001824317
 30
0.0
 11
194.81477785070049
 21
-349.52382509089722
 31
0.0
  0
LINE
  8
DETAIL
  6
CONTINUOUS
 62
     5
 10
194.81477785070049
 20
-349.52382509089722
 30
0.0
 11
194.5885578184099
 21
-349.80660013126078
 31
0.0
  0
LINE
  8
DETAIL
  6
CONTINUOUS
 62
     5
 10
194.5885578184099
 20
-349.80660013126078
 30
0.0
 11
194.418892794192
 21
-350.14593017969651
 31
0.0
  0
LINE
  8
DETAIL
  6
CONTINUOUS
 62
     5
 10
193.28779263273859
 20
-348.84516499402531
 30
0.0
 11
193.57056767310189
 21
-348.61894496173448
 31
0.0
  0
LINE
  8
DETAIL
  6
CONTINUOUS
 62
     5
 10
193.57056767310189
 20
-348.61894496173448
 30
0.0
 11
194.07956274575591
 21
-348.61894496173448
 31
0.0
  0
LINE
  8
DETAIL
  6
CONTINUOUS
 62
     5
 10
194.07956274575591
 20
-348.61894496173448
 30
0.0
 11
194.07956274575591
 21
-348.84516499402531
 31
0.0
  0
LINE
  8
DETAIL
  6
CONTINUOUS
 62
     5
 10
194.07956274575591
 20
-348.84516499402531
 30
0.0
 11
194.418892794192
 21
-348.84516499402531
 31
0.0
  0
LINE
  8
DETAIL
  6
CONTINUOUS
 62
     5
 10
194.418892794192
 20
-348.84516499402531
 30
0.0
 11
194.418892794192
 21
-349.01483001824317
 31
0.0
  0
LINE
  8
DETAIL
  6
CONTINUOUS
 62
     5
 10
194.418892794192
 20
-349.01483001824317
 30
0.0
 11
194.07956274575591
 21
-349.01483001824317
 31
0.0
  0
LINE
  8
DETAIL
  6
CONTINUOUS
 62
     5
 10
194.07956274575591
 20
-349.01483001824317
 30
0.0
 11
194.07956274575591
 21
-349.35416006667913
 31
0.0
  0
LINE
  8
DETAIL
  6
CONTINUOUS
 62
     5
 10
193.57056767310189
 20
-349.35416006667913
 30
0.0
 11
193.57056767310189
 21
-349.01483001824317
 31
0.0
  0
LINE
  8
DETAIL
  6
CONTINUOUS
 62
     5
 10
193.57056767310189
 20
-349.01483001824317
 30
0.0
 11
193.28779263273859
 21
-349.01483001824317
 31
0.0
  0
LINE
  8
DETAIL
  6
CONTINUOUS
 62
     5
 10
193.28779263273859
 20
-349.01483001824317
 30
0.0
 11
193.28779263273859
 21
-348.84516499402531
 31
0.0
  0
LINE
  8
DETAIL
  6
CONTINUOUS
 62
     5
 10
186.10530660750979
 20
-350.14593017969651
 30
0.0
 11
195.09755289106391
 21
-350.14593017969651
 31
0.0
  0
LINE
  8
DETAIL
  6
CONTINUOUS
 62
     5
 10
194.418892794192
 20
0.0
 30
0.0
 11
194.5885578184099
 21
-0.3393300484358406
 31
0.0
  0
LINE
  8
DETAIL
  6
CONTINUOUS
 62
     5
 10
194.5885578184099
 20
-0.3393300484358406
 30
0.0
 11
194.81477785070049
 21
-0.6221050887991169
 31
0.0
  0
LINE
  8
DETAIL
  6
CONTINUOUS
 62
     5
 10
194.81477785070049
 20
-0.6221050887991169
 30
0.0
 11
195.09755289106391
 21
-1.1311001614531051
 31
0.0
  0
LINE
  8
DETAIL
  6
CONTINUOUS
 62
     5
 10
195.09755289106391
 20
-1.1311001614531051
 30
0.0
 11
195.09755289106391
 21
-1.526985217961965
 31
0.0
  0
LINE
  8
DETAIL
  6
CONTINUOUS
 62
     5
 10
195.09755289106391
 20
-1.526985217961965
 30
0.0
 11
194.81477785070049
 21
-1.809760258325241
 31
0.0
  0
LINE
  8
DETAIL
  6
CONTINUOUS
 62
     5
 10
194.81477785070049
 20
-1.809760258325241
 30
0.0
 11
194.5885578184099
 21
-2.3187553309792288
 31
0.0
  0
LINE
  8
DETAIL
  6
CONTINUOUS
 62
     5
 10
194.5885578184099
 20
-2.3187553309792288
 30
0.0
 11
194.418892794192
 21
-2.3187553309792288
 31
0.0
  0
LINE
  8
DETAIL
  6
CONTINUOUS
 62
     5
 10
194.418892794192
 20
-2.3187553309792288
 30
0.0
 11
193.90989772153799
 21
-2.5449753632699408
 31
0.0
  0
LINE
  8
DETAIL
  6
CONTINUOUS
 62
     5
 10
193.28779263273859
 20
-1.300765185671253
 30
0.0
 11
193.28779263273859
 21
-1.1311001614531051
 31
0.0
  0
LINE
  8
DETAIL
  6
CONTINUOUS
 62
     5
 10
193.28779263273859
 20
-1.1311001614531051
 30
0.0
 11
193.57056767310189
 21
-1.1311001614531051
 31
0.0
  0
LINE
  8
DETAIL
  6
CONTINUOUS
 62
     5
 10
193.57056767310189
 20
-1.1311001614531051
 30
0.0
 11
193.90989772153799
 21
-0.8483251210898288
 31
0.0
  0
LINE
  8
DETAIL
  6
CONTINUOUS
 62
     5
 10
194.07956274575591
 20
-0.8483251210898288
 30
0.0
 11
194.07956274575591
 21
-1.1311001614531051
 31
0.0
  0
LINE
  8
DETAIL
  6
CONTINUOUS
 62
     5
 10
194.07956274575591
 20
-1.1311001614531051
 30
0.0
 11
194.418892794192
 21
-1.300765185671253
 31
0.0
  0
LINE
  8
DETAIL
  6
CONTINUOUS
 62
     5
 10
194.418892794192
 20
-1.300765185671253
 30
0.0
 11
194.07956274575591
 21
-1.526985217961965
 31
0.0
  0
LINE
  8
DETAIL
  6
CONTINUOUS
 62
     5
 10
193.57056767310189
 20
-1.526985217961965
 30
0.0
 11
193.28779263273859
 21
-1.300765185671253
 31
0.0
  0
LINE
  8
DETAIL
  6
CONTINUOUS
 62
     5
 10
186.10530660750979
 20
-0.8483251210898288
 30
0.0
 11
186.10530660750979
 21
0.0
 31
0.0
  0
LINE
  8
DETAIL
  6
CONTINUOUS
 62
     5
 10
195.09755289106391
 20
0.0
 30
0.0
 11
186.10530660750979
 21
0.0
 31
0.0
  0
LINE
  8
DETAIL
  6
CONTINUOUS
 62
     5
 10
186.10530660750979
 20
-168.62569416956421
 30
0.0
 11
186.10530660750979
 21
-7.1045911140279259
 31
0.0
  0
LINE
  8
DETAIL
  6
CONTINUOUS
 62
     5
 10
195.09755289106391
 20
-2.8277504036332179
 30
0.0
 11
191.0821473179046
 21
-2.8277504036332179
 31
0.0
  0
LINE
  8
DETAIL
  6
CONTINUOUS
 62
     5
 10
195.09755289106391
 20
-347.31817977606318
 30
0.0
 11
191.0821473179046
 21
-347.31817977606318
 31
0.0
  0
LINE
  8
DETAIL
  6
CONTINUOUS
 62
     5
 10
195.09755289106391
 20
-164.66684360447741
 30
0.0
 11
195.09755289106391
 21
-2.8277504036332179
 31
0.0
  0
LINE
  8
DETAIL
  6
CONTINUOUS
 62
     5
 10
-193.62712268117451
 20
-347.31817977606318
 30
0.0
 11
-193.62712268117451
 21
-349.35416006667913
 31
0.0
  0
LINE
  8
DETAIL
  6
CONTINUOUS
 62
     5
 10
193.90989772153799
 20
-347.31817977606318
 30
0.0
 11
193.90989772153799
 21
-349.35416006667913
 31
0.0
  0
LINE
  8
DETAIL
  6
CONTINUOUS
 62
     5
 10
-190.62970725332289
 20
-1.300765185671253
 30
0.0
 11
-183.673441260385
 21
-1.300765185671253
 31
0.0
  0
LINE
  8
DETAIL
  6
CONTINUOUS
 62
     5
 10
-183.673441260385
 20
0.0
 30
0.0
 11
-183.673441260385
 21
-1.300765185671253
 31
0.0
  0
LINE
  8
DETAIL
  6
CONTINUOUS
 62
     5
 10
183.8996612926758
 20
-1.300765185671253
 30
0.0
 11
190.7993722775411
 21
-1.300765185671253
 31
0.0
  0
LINE
  8
DETAIL
  6
CONTINUOUS
 62
     5
 10
183.8996612926758
 20
0.0
 30
0.0
 11
183.8996612926758
 21
-1.300765185671253
 31
0.0
  0
LINE
  8
DETAIL
  6
CONTINUOUS
 62
     5
 10
-183.673441260385
 20
0.0
 30
0.0
 11
183.8996612926758
 21
0.0
 31
0.0
  0
LINE
  8
DETAIL
  6
CONTINUOUS
 62
     5
 10
190.7993722775411
 20
-1.300765185671253
 30
0.0
 11
192.32635749550309
 21
-2.8277504036332179
 31
0.0
  0
LINE
  8
DETAIL
  6
CONTINUOUS
 62
     5
 10
-190.62970725332289
 20
-1.300765185671253
 30
0.0
 11
-192.326357495503
 21
-2.8277504036332179
 31
0.0
  0
LINE
  8
DETAIL
  6
CONTINUOUS
 62
     5
 10
194.5885578184099
 20
-347.65750982449907
 30
0.0
 11
195.09755289106391
 21
-347.82717484871728
 31
0.0
  0
LINE
  8
DETAIL
  6
CONTINUOUS
 62
     5
 10
195.09755289106391
 20
-347.82717484871728
 30
0.0
 11
195.32377292335451
 21
-348.10994988908072
 31
0.0
  0
LINE
  8
DETAIL
  6
CONTINUOUS
 62
     5
 10
195.32377292335451
 20
-348.10994988908072
 30
0.0
 11
195.6065479637179
 21
-348.33616992137121
 31
0.0
  0
LINE
  8
DETAIL
  6
CONTINUOUS
 62
     5
 10
195.6065479637179
 20
-348.33616992137121
 30
0.0
 11
195.77621298793591
 21
-348.61894496173448
 31
0.0
  0
LINE
  8
DETAIL
  6
CONTINUOUS
 62
     5
 10
195.77621298793591
 20
-348.61894496173448
 30
0.0
 11
195.77621298793591
 21
-349.01483001824317
 31
0.0
  0
LINE
  8
DETAIL
  6
CONTINUOUS
 62
     5
 10
195.77621298793591
 20
-349.01483001824317
 30
0.0
 11
195.6065479637179
 21
-349.52382509089722
 31
0.0
  0
LINE
  8
DETAIL
  6
CONTINUOUS
 62
     5
 10
195.6065479637179
 20
-349.52382509089722
 30
0.0
 11
195.32377292335451
 21
-349.80660013126078
 31
0.0
  0
LINE
  8
DETAIL
  6
CONTINUOUS
 62
     5
 10
195.32377292335451
 20
-349.80660013126078
 30
0.0
 11
195.09755289106391
 21
-350.14593017969651
 31
0.0
  0
LINE
  8
DETAIL
  6
CONTINUOUS
 62
     5
 10
194.5885578184099
 20
-2.5449753632699408
 30
0.0
 11
193.90989772153799
 21
-2.5449753632699408
 31
0.0
  0
LINE
  8
DETAIL
  6
CONTINUOUS
 62
     5
 10
195.09755289106391
 20
0.0
 30
0.0
 11
195.32377292335451
 21
-0.3393300484358406
 31
0.0
  0
LINE
  8
DETAIL
  6
CONTINUOUS
 62
     5
 10
195.32377292335451
 20
-0.3393300484358406
 30
0.0
 11
195.6065479637179
 21
-0.6221050887991169
 31
0.0
  0
LINE
  8
DETAIL
  6
CONTINUOUS
 62
     5
 10
195.6065479637179
 20
-0.6221050887991169
 30
0.0
 11
195.77621298793591
 21
-1.1311001614531051
 31
0.0
  0
LINE
  8
DETAIL
  6
CONTINUOUS
 62
     5
 10
195.77621298793591
 20
-1.1311001614531051
 30
0.0
 11
195.77621298793591
 21
-1.526985217961965
 31
0.0
  0
LINE
  8
DETAIL
  6
CONTINUOUS
 62
     5
 10
195.77621298793591
 20
-1.526985217961965
 30
0.0
 11
195.6065479637179
 21
-1.809760258325241
 31
0.0
  0
LINE
  8
DETAIL
  6
CONTINUOUS
 62
     5
 10
195.6065479637179
 20
-1.809760258325241
 30
0.0
 11
195.32377292335451
 21
-2.3187553309792288
 31
0.0
  0
LINE
  8
DETAIL
  6
CONTINUOUS
 62
     5
 10
195.32377292335451
 20
-2.3187553309792288
 30
0.0
 11
195.09755289106391
 21
-2.3187553309792288
 31
0.0
  0
LINE
  8
DETAIL
  6
CONTINUOUS
 62
     5
 10
195.09755289106391
 20
-2.3187553309792288
 30
0.0
 11
194.5885578184099
 21
-2.5449753632699408
 31
0.0
  0
LINE
  8
DETAIL
  6
CONTINUOUS
 62
     5
 10
195.77621298793591
 20
-164.66684360447741
 30
0.0
 11
195.77621298793591
 21
-3.619520516650482
 31
0.0
  0
LINE
  8
DETAIL
  6
CONTINUOUS
 62
     5
 10
195.77621298793591
 20
-346.5264096630458
 30
0.0
 11
195.09755289106391
 21
-346.5264096630458
 31
0.0
  0
LINE
  8
DETAIL
  6
CONTINUOUS
 62
     5
 10
195.77621298793591
 20
-3.619520516650482
 30
0.0
 11
195.09755289106391
 21
-3.619520516650482
 31
0.0
  0
LINE
  8
DETAIL
  6
CONTINUOUS
 62
     5
 10
195.77621298793591
 20
-346.5264096630458
 30
0.0
 11
195.77621298793591
 21
-213.75659061155241
 31
0.0
  0
LINE
  8
DETAIL
  6
CONTINUOUS
 62
     5
 10
194.5885578184099
 20
-347.65750982449907
 30
0.0
 11
193.90989772153799
 21
-347.65750982449907
 31
0.0
  0
LINE
  8
DETAIL
  6
CONTINUOUS
 62
     5
 10
-168.0077040242565
 20
-203.9725742149808
 30
0.0
 11
-167.3855989354569
 21
-206.29132954596031
 31
0.0
  0
LINE
  8
DETAIL
  6
CONTINUOUS
 62
     5
 10
-167.3855989354569
 20
-206.29132954596031
 30
0.0
 11
-167.6683739758204
 21
-208.55352986886709
 31
0.0
  0
LINE
  8
DETAIL
  6
CONTINUOUS
 62
     5
 10
-167.6683739758204
 20
-208.55352986886709
 30
0.0
 11
-168.68636412112841
 21
-210.47640014333771
 31
0.0
  0
LINE
  8
DETAIL
  6
CONTINUOUS
 62
     5
 10
-168.68636412112841
 20
-210.47640014333771
 30
0.0
 11
-170.2133493390906
 21
-212.28616040166301
 31
0.0
  0
LINE
  8
DETAIL
  6
CONTINUOUS
 62
     5
 10
-170.2133493390906
 20
-212.28616040166301
 30
0.0
 11
-172.1927746216335
 21
-213.24759553889839
 31
0.0
  0
LINE
  8
DETAIL
  6
CONTINUOUS
 62
     5
 10
-172.1927746216335
 20
-213.24759553889839
 30
0.0
 11
-174.4549749445404
 21
-213.75659061155241
 31
0.0
  0
LINE
  8
DETAIL
  6
CONTINUOUS
 62
     5
 10
-182.1464560424233
 20
-168.62569416956421
 30
0.0
 11
-180.16703075987971
 21
-169.02157922607279
 31
0.0
  0
LINE
  8
DETAIL
  6
CONTINUOUS
 62
     5
 10
-180.16703075987971
 20
-169.02157922607279
 30
0.0
 11
-178.1876054773364
 21
-169.81334933909031
 31
0.0
  0
LINE
  8
DETAIL
  6
CONTINUOUS
 62
     5
 10
-178.1876054773364
 20
-169.81334933909031
 30
0.0
 11
-176.66062025937441
 21
-171.3403345570523
 31
0.0
  0
LINE
  8
DETAIL
  6
CONTINUOUS
 62
     5
 10
-176.66062025937441
 20
-171.3403345570523
 30
0.0
 11
-175.6991851221392
 21
-173.03698479923219
 31
0.0
  0
LINE
  8
DETAIL
  6
CONTINUOUS
 62
     5
 10
-175.6991851221392
 20
-173.03698479923219
 30
0.0
 11
-175.1901900494849
 21
-175.1295200979207
 31
0.0
  0
LINE
  8
DETAIL
  6
CONTINUOUS
 62
     5
 10
-195.94587801215371
 20
-168.62569416956421
 30
0.0
 11
-195.94587801215371
 21
-164.66684360447741
 31
0.0
  0
LINE
  8
DETAIL
  6
CONTINUOUS
 62
     5
 10
-195.94587801215371
 20
-168.62569416956421
 30
0.0
 11
-182.1464560424233
 21
-168.62569416956421
 31
0.0
  0
LINE
  8
DETAIL
  6
CONTINUOUS
 62
     5
 10
-189.83793714030591
 20
-166.5331588708757
 30
0.0
 11
-189.83793714030591
 21
-168.62569416956421
 31
0.0
  0
LINE
  8
DETAIL
  6
CONTINUOUS
 62
     5
 10
-189.83793714030591
 20
-166.5331588708757
 30
0.0
 11
-189.44205208379699
 21
-166.815933911239
 31
0.0
  0
LINE
  8
DETAIL
  6
CONTINUOUS
 62
     5
 10
-189.44205208379699
 20
-166.815933911239
 30
0.0
 11
-188.93305701114301
 21
-167.15526395967481
 31
0.0
  0
LINE
  8
DETAIL
  6
CONTINUOUS
 62
     5
 10
-188.93305701114301
 20
-167.15526395967481
 30
0.0
 11
-188.48061694656181
 21
-167.6642590323288
 31
0.0
  0
LINE
  8
DETAIL
  6
CONTINUOUS
 62
     5
 10
-188.48061694656181
 20
-167.6642590323288
 30
0.0
 11
-188.141286898126
 21
-168.06014408883769
 31
0.0
  0
LINE
  8
DETAIL
  6
CONTINUOUS
 62
     5
 10
-188.141286898126
 20
-168.06014408883769
 30
0.0
 11
-187.97162187390759
 21
-168.62569416956421
 31
0.0
  0
LINE
  8
DETAIL
  6
CONTINUOUS
 62
     5
 10
-189.83793714030591
 20
-164.66684360447741
 30
0.0
 11
-188.93305701114301
 21
-164.83650862869541
 31
0.0
  0
LINE
  8
DETAIL
  6
CONTINUOUS
 62
     5
 10
-188.93305701114301
 20
-164.83650862869541
 30
0.0
 11
-187.63229182547181
 21
-165.51516872556769
 31
0.0
  0
LINE
  8
DETAIL
  6
CONTINUOUS
 62
     5
 10
-187.63229182547181
 20
-165.51516872556769
 30
0.0
 11
-186.95363172859959
 21
-166.3634938466578
 31
0.0
  0
LINE
  8
DETAIL
  6
CONTINUOUS
 62
     5
 10
-186.95363172859959
 20
-166.3634938466578
 30
0.0
 11
-186.16186161558241
 21
-167.6642590323288
 31
0.0
  0
LINE
  8
DETAIL
  6
CONTINUOUS
 62
     5
 10
-186.16186161558241
 20
-167.6642590323288
 30
0.0
 11
-185.9356415832917
 21
-168.62569416956421
 31
0.0
  0
LINE
  8
DETAIL
  6
CONTINUOUS
 62
     5
 10
-195.94587801215371
 20
-166.5331588708757
 30
0.0
 11
-189.83793714030591
 21
-166.5331588708757
 31
0.0
  0
LINE
  8
DETAIL
  6
CONTINUOUS
 62
     5
 10
-253.3402161332564
 20
-164.66684360447741
 30
0.0
 11
-189.83793714030591
 21
-164.66684360447741
 31
0.0
  0
LINE
  8
DETAIL
  6
CONTINUOUS
 62
     5
 10
-183.44722122809429
 20
-187.28884683354431
 30
0.0
 11
-181.97679101820509
 21
-187.62817688198041
 31
0.0
  0
LINE
  8
DETAIL
  6
CONTINUOUS
 62
     5
 10
-181.97679101820509
 20
-187.62817688198041
 30
0.0
 11
-180.44980580024321
 21
-188.58961201921571
 31
0.0
  0
LINE
  8
DETAIL
  6
CONTINUOUS
 62
     5
 10
-180.44980580024321
 20
-188.58961201921571
 30
0.0
 11
-179.14904061457139
 21
-189.77726718874169
 31
0.0
  0
LINE
  8
DETAIL
  6
CONTINUOUS
 62
     5
 10
-179.14904061457139
 20
-189.77726718874169
 30
0.0
 11
-178.69660054999031
 21
-191.30425240670371
 31
0.0
  0
LINE
  8
DETAIL
  6
CONTINUOUS
 62
     5
 10
-178.69660054999031
 20
-191.30425240670371
 30
0.0
 11
-178.69660054999031
 21
-193.00090264888351
 31
0.0
  0
LINE
  8
DETAIL
  6
CONTINUOUS
 62
     5
 10
-178.69660054999031
 20
-193.00090264888351
 30
0.0
 11
-179.14904061457139
 21
-194.81066290720901
 31
0.0
  0
LINE
  8
DETAIL
  6
CONTINUOUS
 62
     5
 10
-179.14904061457139
 20
-194.81066290720901
 30
0.0
 11
-180.44980580024321
 21
-196.11142809288
 31
0.0
  0
LINE
  8
DETAIL
  6
CONTINUOUS
 62
     5
 10
-180.44980580024321
 20
-196.11142809288
 30
0.0
 11
-181.97679101820509
 21
-197.07286323011539
 31
0.0
  0
LINE
  8
DETAIL
  6
CONTINUOUS
 62
     5
 10
-181.97679101820509
 20
-197.07286323011539
 30
0.0
 11
-183.44722122809429
 21
-197.29908326240621
 31
0.0
  0
LINE
  8
DETAIL
  6
CONTINUOUS
 62
     5
 10
-207.44376961054169
 20
-187.28884683354431
 30
0.0
 11
-183.44722122809429
 21
-187.28884683354431
 31
0.0
  0
LINE
  8
DETAIL
  6
CONTINUOUS
 62
     5
 10
-176.49095523515641
 20
-200.29649869025769
 30
0.0
 11
-170.49612437945359
 21
-200.29649869025769
 31
0.0
  0
LINE
  8
DETAIL
  6
CONTINUOUS
 62
     5
 10
-168.0077040242565
 20
-203.9725742149808
 30
0.0
 11
-171.5141145247616
 21
-194.5844428749181
 31
0.0
  0
LINE
  8
DETAIL
  6
CONTINUOUS
 62
     5
 10
-171.5141145247616
 20
-194.5844428749181
 30
0.0
 11
-174.002534879959
 21
-185.08320151871021
 31
0.0
  0
LINE
  8
DETAIL
  6
CONTINUOUS
 62
     5
 10
-174.002534879959
 20
-185.08320151871021
 30
0.0
 11
-175.1901900494849
 21
-175.1295200979207
 31
0.0
  0
LINE
  8
DETAIL
  6
CONTINUOUS
 62
     5
 10
-182.9947811635131
 20
-206.80032461861421
 30
0.0
 11
-182.37267607471381
 21
-204.76434432799829
 31
0.0
  0
LINE
  8
DETAIL
  6
CONTINUOUS
 62
     5
 10
-182.37267607471381
 20
-204.76434432799829
 30
0.0
 11
-181.69401597784179
 21
-202.95458406967279
 31
0.0
  0
LINE
  8
DETAIL
  6
CONTINUOUS
 62
     5
 10
-181.69401597784179
 20
-202.95458406967279
 30
0.0
 11
-180.16703075987971
 21
-201.4841538597839
 31
0.0
  0
LINE
  8
DETAIL
  6
CONTINUOUS
 62
     5
 10
-180.16703075987971
 20
-201.4841538597839
 30
0.0
 11
-178.47038051769951
 21
-200.80549376291171
 31
0.0
  0
LINE
  8
DETAIL
  6
CONTINUOUS
 62
     5
 10
-178.47038051769951
 20
-200.80549376291171
 30
0.0
 11
-176.49095523515641
 21
-200.29649869025769
 31
0.0
  0
LINE
  8
DETAIL
  6
CONTINUOUS
 62
     5
 10
-182.9947811635131
 20
-206.80032461861421
 30
0.0
 11
-182.9947811635131
 21
-212.73860046624441
 31
0.0
  0
LINE
  8
DETAIL
  6
CONTINUOUS
 62
     5
 10
-222.20462671750809
 20
-213.75659061155241
 30
0.0
 11
-223.90127695968789
 21
-213.58692558733449
 31
0.0
  0
LINE
  8
DETAIL
  6
CONTINUOUS
 62
     5
 10
-223.90127695968789
 20
-213.58692558733449
 30
0.0
 11
-225.71103721801299
 21
-212.73860046624441
 31
0.0
  0
LINE
  8
DETAIL
  6
CONTINUOUS
 62
     5
 10
-225.71103721801299
 20
-212.73860046624441
 30
0.0
 11
-227.18146742790239
 21
-211.77716532900899
 31
0.0
  0
LINE
  8
DETAIL
  6
CONTINUOUS
 62
     5
 10
-251.3607908507133
 20
-187.7978419061983
 30
0.0
 11
-252.37878099602119
 21
-186.3274116963089
 31
0.0
  0
LINE
  8
DETAIL
  6
CONTINUOUS
 62
     5
 10
-252.37878099602119
 20
-186.3274116963089
 30
0.0
 11
-253.05744109289321
 21
-184.63076145412879
 31
0.0
  0
LINE
  8
DETAIL
  6
CONTINUOUS
 62
     5
 10
-253.05744109289321
 20
-184.63076145412879
 30
0.0
 11
-253.3402161332564
 21
-182.82100119580349
 31
0.0
  0
LINE
  8
DETAIL
  6
CONTINUOUS
 62
     5
 10
-251.3607908507133
 20
-187.7978419061983
 30
0.0
 11
-227.18146742790239
 21
-211.77716532900899
 31
0.0
  0
LINE
  8
DETAIL
  6
CONTINUOUS
 62
     5
 10
-222.20462671750809
 20
-213.75659061155241
 30
0.0
 11
-174.4549749445404
 21
-213.75659061155241
 31
0.0
  0
LINE
  8
DETAIL
  6
CONTINUOUS
 62
     5
 10
-207.44376961054169
 20
-197.29908326240621
 30
0.0
 11
-208.91419982043109
 21
-197.07286323011539
 31
0.0
  0
LINE
  8
DETAIL
  6
CONTINUOUS
 62
     5
 10
-208.91419982043109
 20
-197.07286323011539
 30
0.0
 11
-210.44118503839329
 21
-196.28109311709821
 31
0.0
  0
LINE
  8
DETAIL
  6
CONTINUOUS
 62
     5
 10
-210.44118503839329
 20
-196.28109311709821
 30
0.0
 11
-211.4026201756285
 21
-195.319657979863
 31
0.0
  0
LINE
  8
DETAIL
  6
CONTINUOUS
 62
     5
 10
-211.4026201756285
 20
-195.319657979863
 30
0.0
 11
-212.19439028864551
 21
-193.792672761901
 31
0.0
  0
LINE
  8
DETAIL
  6
CONTINUOUS
 62
     5
 10
-212.19439028864551
 20
-193.792672761901
 30
0.0
 11
-212.4206103209365
 21
-192.3222425520116
 31
0.0
  0
LINE
  8
DETAIL
  6
CONTINUOUS
 62
     5
 10
-212.4206103209365
 20
-192.3222425520116
 30
0.0
 11
-212.19439028864551
 21
-190.79525733404969
 31
0.0
  0
LINE
  8
DETAIL
  6
CONTINUOUS
 62
     5
 10
-212.19439028864551
 20
-190.79525733404969
 30
0.0
 11
-211.4026201756285
 21
-189.32482712416029
 31
0.0
  0
LINE
  8
DETAIL
  6
CONTINUOUS
 62
     5
 10
-211.4026201756285
 20
-189.32482712416029
 30
0.0
 11
-210.44118503839329
 21
-188.30683697885229
 31
0.0
  0
LINE
  8
DETAIL
  6
CONTINUOUS
 62
     5
 10
-210.44118503839329
 20
-188.30683697885229
 30
0.0
 11
-208.91419982043109
 21
-187.62817688198041
 31
0.0
  0
LINE
  8
DETAIL
  6
CONTINUOUS
 62
     5
 10
-208.91419982043109
 20
-187.62817688198041
 30
0.0
 11
-207.44376961054169
 21
-187.28884683354431
 31
0.0
  0
LINE
  8
DETAIL
  6
CONTINUOUS
 62
     5
 10
-183.44722122809429
 20
-197.29908326240621
 30
0.0
 11
-207.44376961054169
 21
-197.29908326240621
 31
0.0
  0
LINE
  8
DETAIL
  6
CONTINUOUS
 62
     5
 10
-236.17371371145671
 20
-188.58961201921571
 30
0.0
 11
-235.89093867109321
 21
-187.7978419061983
 31
0.0
  0
LINE
  8
DETAIL
  6
CONTINUOUS
 62
     5
 10
-235.89093867109321
 20
-187.7978419061983
 30
0.0
 11
-235.6647186388027
 21
-186.7798517608903
 31
0.0
  0
LINE
  8
DETAIL
  6
CONTINUOUS
 62
     5
 10
-235.6647186388027
 20
-186.7798517608903
 30
0.0
 11
-234.8729485257852
 21
-186.10119166401819
 31
0.0
  0
LINE
  8
DETAIL
  6
CONTINUOUS
 62
     5
 10
-234.8729485257852
 20
-186.10119166401819
 30
0.0
 11
-233.854958380477
 21
-185.81841662365491
 31
0.0
  0
LINE
  8
DETAIL
  6
CONTINUOUS
 62
     5
 10
-233.854958380477
 20
-185.81841662365491
 30
0.0
 11
-232.89352324324179
 21
-185.81841662365491
 31
0.0
  0
LINE
  8
DETAIL
  6
CONTINUOUS
 62
     5
 10
-232.89352324324179
 20
-185.81841662365491
 30
0.0
 11
-231.87553309793381
 21
-185.81841662365491
 31
0.0
  0
LINE
  8
DETAIL
  6
CONTINUOUS
 62
     5
 10
-231.87553309793381
 20
-185.81841662365491
 30
0.0
 11
-231.1968730010619
 21
-186.49707672052679
 31
0.0
  0
LINE
  8
DETAIL
  6
CONTINUOUS
 62
     5
 10
-231.1968730010619
 20
-186.49707672052679
 30
0.0
 11
-230.6878779284078
 21
-187.28884683354431
 31
0.0
  0
LINE
  8
DETAIL
  6
CONTINUOUS
 62
     5
 10
-230.6878779284078
 20
-187.28884683354431
 30
0.0
 11
-230.0657728396084
 21
-188.02406193848901
 31
0.0
  0
LINE
  8
DETAIL
  6
CONTINUOUS
 62
     5
 10
-230.0657728396084
 20
-188.02406193848901
 30
0.0
 11
-230.0657728396084
 21
-188.9854970757242
 31
0.0
  0
LINE
  8
DETAIL
  6
CONTINUOUS
 62
     5
 10
-230.0657728396084
 20
-188.9854970757242
 30
0.0
 11
-230.6878779284078
 21
-190.11659723717781
 31
0.0
  0
LINE
  8
DETAIL
  6
CONTINUOUS
 62
     5
 10
-230.6878779284078
 20
-190.11659723717781
 30
0.0
 11
-231.1968730010619
 21
-190.79525733404969
 31
0.0
  0
LINE
  8
DETAIL
  6
CONTINUOUS
 62
     5
 10
-231.1968730010619
 20
-190.79525733404969
 30
0.0
 11
-231.87553309793381
 21
-191.30425240670371
 31
0.0
  0
LINE
  8
DETAIL
  6
CONTINUOUS
 62
     5
 10
-231.87553309793381
 20
-191.30425240670371
 30
0.0
 11
-232.89352324324179
 21
-191.4739174309216
 31
0.0
  0
LINE
  8
DETAIL
  6
CONTINUOUS
 62
     5
 10
-232.89352324324179
 20
-191.4739174309216
 30
0.0
 11
-233.854958380477
 21
-191.4739174309216
 31
0.0
  0
LINE
  8
DETAIL
  6
CONTINUOUS
 62
     5
 10
-233.854958380477
 20
-191.4739174309216
 30
0.0
 11
-234.8729485257852
 21
-191.30425240670371
 31
0.0
  0
LINE
  8
DETAIL
  6
CONTINUOUS
 62
     5
 10
-234.8729485257852
 20
-191.30425240670371
 30
0.0
 11
-235.6647186388027
 21
-190.51248229368611
 31
0.0
  0
LINE
  8
DETAIL
  6
CONTINUOUS
 62
     5
 10
-235.6647186388027
 20
-190.51248229368611
 30
0.0
 11
-235.89093867109321
 21
-189.6076021645238
 31
0.0
  0
LINE
  8
DETAIL
  6
CONTINUOUS
 62
     5
 10
-235.89093867109321
 20
-189.6076021645238
 30
0.0
 11
-236.17371371145671
 21
-188.58961201921571
 31
0.0
  0
LINE
  8
DETAIL
  6
CONTINUOUS
 62
     5
 10
-253.3402161332564
 20
-164.66684360447741
 30
0.0
 11
-253.3402161332564
 21
-182.82100119580349
 31
0.0
  0
LINE
  8
DETAIL
  6
CONTINUOUS
 62
     5
 10
-250.22969068925971
 20
-164.66684360447741
 30
0.0
 11
-247.14538527755391
 21
-169.64368431487219
 31
0.0
  0
LINE
  8
DETAIL
  6
CONTINUOUS
 62
     5
 10
-244.37418988199329
 20
-164.66684360447741
 30
0.0
 11
-247.14538527755391
 21
-169.64368431487219
 31
0.0
  0
LINE
  8
DETAIL
  6
CONTINUOUS
 62
     5
 10
-247.14538527755391
 20
-169.64368431487219
 30
0.0
 11
-247.14538527755391
 21
-164.66684360447741
 31
0.0
  0
LINE
  8
DETAIL
  6
CONTINUOUS
 62
     5
 10
-216.43601589409579
 20
-164.66684360447741
 30
0.0
 11
-219.2072112896561
 21
-169.64368431487219
 31
0.0
  0
LINE
  8
DETAIL
  6
CONTINUOUS
 62
     5
 10
-222.20462671750809
 20
-164.66684360447741
 30
0.0
 11
-219.2072112896561
 21
-169.64368431487219
 31
0.0
  0
LINE
  8
DETAIL
  6
CONTINUOUS
 62
     5
 10
-219.2072112896561
 20
-169.64368431487219
 30
0.0
 11
-219.2072112896561
 21
-164.66684360447741
 31
0.0
  0
LINE
  8
DETAIL
  6
CONTINUOUS
 62
     5
 10
230.34854787997199
 20
-188.58961201921571
 30
0.0
 11
230.34854787997199
 21
-187.7978419061983
 31
0.0
  0
LINE
  8
DETAIL
  6
CONTINUOUS
 62
     5
 10
230.34854787997199
 20
-187.7978419061983
 30
0.0
 11
230.85754295262601
 21
-186.7798517608903
 31
0.0
  0
LINE
  8
DETAIL
  6
CONTINUOUS
 62
     5
 10
230.85754295262601
 20
-186.7798517608903
 30
0.0
 11
231.64931306564341
 21
-186.10119166401819
 31
0.0
  0
LINE
  8
DETAIL
  6
CONTINUOUS
 62
     5
 10
231.64931306564341
 20
-186.10119166401819
 30
0.0
 11
232.554193194806
 21
-185.81841662365491
 31
0.0
  0
LINE
  8
DETAIL
  6
CONTINUOUS
 62
     5
 10
232.554193194806
 20
-185.81841662365491
 30
0.0
 11
233.51562833204139
 21
-185.81841662365491
 31
0.0
  0
LINE
  8
DETAIL
  6
CONTINUOUS
 62
     5
 10
233.51562833204139
 20
-185.81841662365491
 30
0.0
 11
234.64672849349469
 21
-185.81841662365491
 31
0.0
  0
LINE
  8
DETAIL
  6
CONTINUOUS
 62
     5
 10
234.64672849349469
 20
-185.81841662365491
 30
0.0
 11
235.3253885903666
 21
-186.49707672052679
 31
0.0
  0
LINE
  8
DETAIL
  6
CONTINUOUS
 62
     5
 10
235.3253885903666
 20
-186.49707672052679
 30
0.0
 11
235.83438366302059
 21
-187.28884683354431
 31
0.0
  0
LINE
  8
DETAIL
  6
CONTINUOUS
 62
     5
 10
235.83438366302059
 20
-187.28884683354431
 30
0.0
 11
236.34337873567461
 21
-188.02406193848901
 31
0.0
  0
LINE
  8
DETAIL
  6
CONTINUOUS
 62
     5
 10
236.34337873567461
 20
-188.02406193848901
 30
0.0
 11
236.34337873567461
 21
-188.9854970757242
 31
0.0
  0
LINE
  8
DETAIL
  6
CONTINUOUS
 62
     5
 10
236.34337873567461
 20
-188.9854970757242
 30
0.0
 11
235.83438366302059
 21
-190.11659723717781
 31
0.0
  0
LINE
  8
DETAIL
  6
CONTINUOUS
 62
     5
 10
235.83438366302059
 20
-190.11659723717781
 30
0.0
 11
235.3253885903666
 21
-190.79525733404969
 31
0.0
  0
LINE
  8
DETAIL
  6
CONTINUOUS
 62
     5
 10
235.3253885903666
 20
-190.79525733404969
 30
0.0
 11
234.64672849349469
 21
-191.30425240670371
 31
0.0
  0
LINE
  8
DETAIL
  6
CONTINUOUS
 62
     5
 10
234.64672849349469
 20
-191.30425240670371
 30
0.0
 11
233.51562833204139
 21
-191.4739174309216
 31
0.0
  0
LINE
  8
DETAIL
  6
CONTINUOUS
 62
     5
 10
233.51562833204139
 20
-191.4739174309216
 30
0.0
 11
232.554193194806
 21
-191.4739174309216
 31
0.0
  0
LINE
  8
DETAIL
  6
CONTINUOUS
 62
     5
 10
232.554193194806
 20
-191.4739174309216
 30
0.0
 11
231.64931306564341
 21
-191.30425240670371
 31
0.0
  0
LINE
  8
DETAIL
  6
CONTINUOUS
 62
     5
 10
231.64931306564341
 20
-191.30425240670371
 30
0.0
 11
230.85754295262601
 21
-190.51248229368611
 31
0.0
  0
LINE
  8
DETAIL
  6
CONTINUOUS
 62
     5
 10
230.85754295262601
 20
-190.51248229368611
 30
0.0
 11
230.34854787997199
 21
-189.6076021645238
 31
0.0
  0
LINE
  8
DETAIL
  6
CONTINUOUS
 62
     5
 10
230.34854787997199
 20
-189.6076021645238
 30
0.0
 11
230.34854787997199
 21
-188.58961201921571
 31
0.0
  0
LINE
  8
DETAIL
  6
CONTINUOUS
 62
     5
 10
175.30330006563051
 20
-175.1295200979207
 30
0.0
 11
173.94597987188649
 21
-185.08320151871021
 31
0.0
  0
LINE
  8
DETAIL
  6
CONTINUOUS
 62
     5
 10
173.94597987188649
 20
-185.08320151871021
 30
0.0
 11
171.62722454090721
 21
-194.5844428749181
 31
0.0
  0
LINE
  8
DETAIL
  6
CONTINUOUS
 62
     5
 10
171.62722454090721
 20
-194.5844428749181
 30
0.0
 11
168.12081404040191
 21
-203.9725742149808
 31
0.0
  0
LINE
  8
DETAIL
  6
CONTINUOUS
 62
     5
 10
196.11554303637189
 20
-166.5331588708757
 30
0.0
 11
190.12071218066919
 21
-166.5331588708757
 31
0.0
  0
LINE
  8
DETAIL
  6
CONTINUOUS
 62
     5
 10
175.30330006563051
 20
-175.1295200979207
 30
0.0
 11
175.64263011406649
 21
-173.03698479923219
 31
0.0
  0
LINE
  8
DETAIL
  6
CONTINUOUS
 62
     5
 10
175.64263011406649
 20
-173.03698479923219
 30
0.0
 11
176.94339529973789
 21
-171.3403345570523
 31
0.0
  0
LINE
  8
DETAIL
  6
CONTINUOUS
 62
     5
 10
176.94339529973789
 20
-171.3403345570523
 30
0.0
 11
178.30071549348179
 21
-169.81334933909031
 31
0.0
  0
LINE
  8
DETAIL
  6
CONTINUOUS
 62
     5
 10
178.30071549348179
 20
-169.81334933909031
 30
0.0
 11
180.11047575180709
 21
-169.02157922607279
 31
0.0
  0
LINE
  8
DETAIL
  6
CONTINUOUS
 62
     5
 10
180.11047575180709
 20
-169.02157922607279
 30
0.0
 11
182.0899010343505
 21
-168.62569416956421
 31
0.0
  0
LINE
  8
DETAIL
  6
CONTINUOUS
 62
     5
 10
196.11554303637189
 20
-168.62569416956421
 30
0.0
 11
182.0899010343505
 21
-168.62569416956421
 31
0.0
  0
LINE
  8
DETAIL
  6
CONTINUOUS
 62
     5
 10
219.37687631387459
 20
-169.64368431487219
 30
0.0
 11
219.37687631387459
 21
-164.66684360447741
 31
0.0
  0
LINE
  8
DETAIL
  6
CONTINUOUS
 62
     5
 10
222.1480717094353
 20
-164.66684360447741
 30
0.0
 11
219.37687631387459
 21
-169.64368431487219
 31
0.0
  0
LINE
  8
DETAIL
  6
CONTINUOUS
 62
     5
 10
216.3794608860234
 20
-164.66684360447741
 30
0.0
 11
219.37687631387459
 21
-169.64368431487219
 31
0.0
  0
LINE
  8
DETAIL
  6
CONTINUOUS
 62
     5
 10
247.51505030177211
 20
-169.64368431487219
 30
0.0
 11
247.51505030177211
 21
-164.66684360447741
 31
0.0
  0
LINE
  8
DETAIL
  6
CONTINUOUS
 62
     5
 10
244.51763487392071
 20
-164.66684360447741
 30
0.0
 11
247.51505030177211
 21
-169.64368431487219
 31
0.0
  0
LINE
  8
DETAIL
  6
CONTINUOUS
 62
     5
 10
250.22969068925991
 20
-164.66684360447741
 30
0.0
 11
247.51505030177211
 21
-169.64368431487219
 31
0.0
  0
LINE
  8
DETAIL
  6
CONTINUOUS
 62
     5
 10
207.55687962668719
 20
-187.28884683354431
 30
0.0
 11
183.61688625231261
 21
-187.28884683354431
 31
0.0
  0
LINE
  8
DETAIL
  6
CONTINUOUS
 62
     5
 10
183.61688625231261
 20
-197.29908326240621
 30
0.0
 11
182.0899010343505
 21
-197.07286323011539
 31
0.0
  0
LINE
  8
DETAIL
  6
CONTINUOUS
 62
     5
 10
182.0899010343505
 20
-197.07286323011539
 30
0.0
 11
180.61947082446119
 21
-196.28109311709821
 31
0.0
  0
LINE
  8
DETAIL
  6
CONTINUOUS
 62
     5
 10
180.61947082446119
 20
-196.28109311709821
 30
0.0
 11
179.6014806791531
 21
-195.319657979863
 31
0.0
  0
LINE
  8
DETAIL
  6
CONTINUOUS
 62
     5
 10
179.6014806791531
 20
-195.319657979863
 30
0.0
 11
178.92282058228119
 21
-193.792672761901
 31
0.0
  0
LINE
  8
DETAIL
  6
CONTINUOUS
 62
     5
 10
178.92282058228119
 20
-193.792672761901
 30
0.0
 11
178.64004554191791
 21
-192.3222425520116
 31
0.0
  0
LINE
  8
DETAIL
  6
CONTINUOUS
 62
     5
 10
178.64004554191791
 20
-192.3222425520116
 30
0.0
 11
178.92282058228119
 21
-190.79525733404969
 31
0.0
  0
LINE
  8
DETAIL
  6
CONTINUOUS
 62
     5
 10
178.92282058228119
 20
-190.79525733404969
 30
0.0
 11
179.6014806791531
 21
-189.32482712416029
 31
0.0
  0
LINE
  8
DETAIL
  6
CONTINUOUS
 62
     5
 10
179.6014806791531
 20
-189.32482712416029
 30
0.0
 11
180.61947082446119
 21
-188.30683697885229
 31
0.0
  0
LINE
  8
DETAIL
  6
CONTINUOUS
 62
     5
 10
180.61947082446119
 20
-188.30683697885229
 30
0.0
 11
182.0899010343505
 21
-187.62817688198041
 31
0.0
  0
LINE
  8
DETAIL
  6
CONTINUOUS
 62
     5
 10
182.0899010343505
 20
-187.62817688198041
 30
0.0
 11
183.61688625231261
 21
-187.28884683354431
 31
0.0
  0
LINE
  8
DETAIL
  6
CONTINUOUS
 62
     5
 10
183.61688625231261
 20
-197.29908326240621
 30
0.0
 11
207.55687962668719
 21
-197.29908326240621
 31
0.0
  0
LINE
  8
DETAIL
  6
CONTINUOUS
 62
     5
 10
207.55687962668719
 20
-187.28884683354431
 30
0.0
 11
209.36663988501249
 21
-187.62817688198041
 31
0.0
  0
LINE
  8
DETAIL
  6
CONTINUOUS
 62
     5
 10
209.36663988501249
 20
-187.62817688198041
 30
0.0
 11
210.89362510297451
 21
-188.58961201921571
 31
0.0
  0
LINE
  8
DETAIL
  6
CONTINUOUS
 62
     5
 10
210.89362510297451
 20
-188.58961201921571
 30
0.0
 11
211.85506024020989
 21
-189.77726718874169
 31
0.0
  0
LINE
  8
DETAIL
  6
CONTINUOUS
 62
     5
 10
211.85506024020989
 20
-189.77726718874169
 30
0.0
 11
212.59027534515459
 21
-191.30425240670371
 31
0.0
  0
LINE
  8
DETAIL
  6
CONTINUOUS
 62
     5
 10
212.59027534515459
 20
-191.30425240670371
 30
0.0
 11
212.59027534515459
 21
-193.00090264888351
 31
0.0
  0
LINE
  8
DETAIL
  6
CONTINUOUS
 62
     5
 10
212.59027534515459
 20
-193.00090264888351
 30
0.0
 11
211.85506024020989
 21
-194.81066290720901
 31
0.0
  0
LINE
  8
DETAIL
  6
CONTINUOUS
 62
     5
 10
211.85506024020989
 20
-194.81066290720901
 30
0.0
 11
210.89362510297451
 21
-196.11142809288
 31
0.0
  0
LINE
  8
DETAIL
  6
CONTINUOUS
 62
     5
 10
210.89362510297451
 20
-196.11142809288
 30
0.0
 11
209.36663988501249
 21
-197.07286323011539
 31
0.0
  0
LINE
  8
DETAIL
  6
CONTINUOUS
 62
     5
 10
209.36663988501249
 20
-197.07286323011539
 30
0.0
 11
207.55687962668719
 21
-197.29908326240621
 31
0.0
  0
LINE
  8
DETAIL
  6
CONTINUOUS
 62
     5
 10
174.6246399687586
 20
-213.75659061155241
 30
0.0
 11
172.30588463777909
 21
-213.24759553889839
 31
0.0
  0
LINE
  8
DETAIL
  6
CONTINUOUS
 62
     5
 10
172.30588463777909
 20
-213.24759553889839
 30
0.0
 11
170.3264593552357
 21
-212.28616040166301
 31
0.0
  0
LINE
  8
DETAIL
  6
CONTINUOUS
 62
     5
 10
170.3264593552357
 20
-212.28616040166301
 30
0.0
 11
168.62980911305581
 21
-210.47640014333771
 31
0.0
  0
LINE
  8
DETAIL
  6
CONTINUOUS
 62
     5
 10
168.62980911305581
 20
-210.47640014333771
 30
0.0
 11
167.83803900003861
 21
-208.55352986886709
 31
0.0
  0
LINE
  8
DETAIL
  6
CONTINUOUS
 62
     5
 10
167.83803900003861
 20
-208.55352986886709
 30
0.0
 11
167.6683739758204
 21
-206.29132954596031
 31
0.0
  0
LINE
  8
DETAIL
  6
CONTINUOUS
 62
     5
 10
167.6683739758204
 20
-206.29132954596031
 30
0.0
 11
168.12081404040191
 21
-203.9725742149808
 31
0.0
  0
LINE
  8
DETAIL
  6
CONTINUOUS
 62
     5
 10
222.37429174172601
 20
-213.75659061155241
 30
0.0
 11
174.6246399687586
 21
-213.75659061155241
 31
0.0
  0
LINE
  8
DETAIL
  6
CONTINUOUS
 62
     5
 10
253.50988115747481
 20
-164.66684360447741
 30
0.0
 11
190.12071218066919
 21
-164.66684360447741
 31
0.0
  0
LINE
  8
DETAIL
  6
CONTINUOUS
 62
     5
 10
253.50988115747481
 20
-164.66684360447741
 30
0.0
 11
253.50988115747481
 21
-182.82100119580349
 31
0.0
  0
LINE
  8
DETAIL
  6
CONTINUOUS
 62
     5
 10
176.60406525130171
 20
-200.29649869025769
 30
0.0
 11
178.64004554191791
 21
-200.80549376291171
 31
0.0
  0
LINE
  8
DETAIL
  6
CONTINUOUS
 62
     5
 10
178.64004554191791
 20
-200.80549376291171
 30
0.0
 11
180.3366957840978
 21
-201.4841538597839
 31
0.0
  0
LINE
  8
DETAIL
  6
CONTINUOUS
 62
     5
 10
180.3366957840978
 20
-201.4841538597839
 30
0.0
 11
181.63746096976919
 21
-202.95458406967279
 31
0.0
  0
LINE
  8
DETAIL
  6
CONTINUOUS
 62
     5
 10
181.63746096976919
 20
-202.95458406967279
 30
0.0
 11
182.59889610700449
 21
-204.76434432799829
 31
0.0
  0
LINE
  8
DETAIL
  6
CONTINUOUS
 62
     5
 10
182.59889610700449
 20
-204.76434432799829
 30
0.0
 11
182.82511613929529
 21
-206.80032461861421
 31
0.0
  0
LINE
  8
DETAIL
  6
CONTINUOUS
 62
     5
 10
182.82511613929529
 20
-206.80032461861421
 30
0.0
 11
182.82511613929529
 21
-212.73860046624441
 31
0.0
  0
LINE
  8
DETAIL
  6
CONTINUOUS
 62
     5
 10
176.60406525130171
 20
-200.29649869025769
 30
0.0
 11
170.6092343955992
 21
-200.29649869025769
 31
0.0
  0
LINE
  8
DETAIL
  6
CONTINUOUS
 62
     5
 10
196.11554303637189
 20
-168.62569416956421
 30
0.0
 11
196.11554303637189
 21
-164.66684360447741
 31
0.0
  0
LINE
  8
DETAIL
  6
CONTINUOUS
 62
     5
 10
251.4739008668586
 20
-187.7978419061983
 30
0.0
 11
227.35113245212051
 21
-211.77716532900899
 31
0.0
  0
LINE
  8
DETAIL
  6
CONTINUOUS
 62
     5
 10
253.50988115747481
 20
-182.82100119580349
 30
0.0
 11
253.2271061171113
 21
-184.63076145412879
 31
0.0
  0
LINE
  8
DETAIL
  6
CONTINUOUS
 62
     5
 10
253.2271061171113
 20
-184.63076145412879
 30
0.0
 11
252.4918910121666
 21
-186.3274116963089
 31
0.0
  0
LINE
  8
DETAIL
  6
CONTINUOUS
 62
     5
 10
252.4918910121666
 20
-186.3274116963089
 30
0.0
 11
251.4739008668586
 21
-187.7978419061983
 31
0.0
  0
LINE
  8
DETAIL
  6
CONTINUOUS
 62
     5
 10
227.35113245212051
 20
-211.77716532900899
 30
0.0
 11
225.82414723415869
 21
-212.73860046624441
 31
0.0
  0
LINE
  8
DETAIL
  6
CONTINUOUS
 62
     5
 10
225.82414723415869
 20
-212.73860046624441
 30
0.0
 11
224.12749699197869
 21
-213.58692558733449
 31
0.0
  0
LINE
  8
DETAIL
  6
CONTINUOUS
 62
     5
 10
224.12749699197869
 20
-213.58692558733449
 30
0.0
 11
222.37429174172601
 21
-213.75659061155241
 31
0.0
  0
LINE
  8
DETAIL
  6
CONTINUOUS
 62
     5
 10
186.10530660750979
 20
-168.62569416956421
 30
0.0
 11
186.38808164787321
 21
-167.6642590323288
 31
0.0
  0
LINE
  8
DETAIL
  6
CONTINUOUS
 62
     5
 10
186.38808164787321
 20
-167.6642590323288
 30
0.0
 11
186.8970767205272
 21
-166.3634938466578
 31
0.0
  0
LINE
  8
DETAIL
  6
CONTINUOUS
 62
     5
 10
186.8970767205272
 20
-166.3634938466578
 30
0.0
 11
187.8019568496897
 21
-165.51516872556769
 31
0.0
  0
LINE
  8
DETAIL
  6
CONTINUOUS
 62
     5
 10
187.8019568496897
 20
-165.51516872556769
 30
0.0
 11
188.93305701114329
 21
-164.83650862869541
 31
0.0
  0
LINE
  8
DETAIL
  6
CONTINUOUS
 62
     5
 10
188.93305701114329
 20
-164.83650862869541
 30
0.0
 11
190.12071218066919
 21
-164.66684360447741
 31
0.0
  0
LINE
  8
DETAIL
  6
CONTINUOUS
 62
     5
 10
188.08473189005321
 20
-168.62569416956421
 30
0.0
 11
188.31095192234369
 21
-168.06014408883769
 31
0.0
  0
LINE
  8
DETAIL
  6
CONTINUOUS
 62
     5
 10
188.31095192234369
 20
-168.06014408883769
 30
0.0
 11
188.59372696270719
 21
-167.6642590323288
 31
0.0
  0
LINE
  8
DETAIL
  6
CONTINUOUS
 62
     5
 10
188.59372696270719
 20
-167.6642590323288
 30
0.0
 11
188.93305701114329
 21
-167.15526395967481
 31
0.0
  0
LINE
  8
DETAIL
  6
CONTINUOUS
 62
     5
 10
188.93305701114329
 20
-167.15526395967481
 30
0.0
 11
189.6117171080152
 21
-166.815933911239
 31
0.0
  0
LINE
  8
DETAIL
  6
CONTINUOUS
 62
     5
 10
189.6117171080152
 20
-166.815933911239
 30
0.0
 11
190.12071218066919
 21
-166.5331588708757
 31
0.0
  0
LINE
  8
DETAIL
  6
CONTINUOUS
 62
     5
 10
190.12071218066919
 20
-166.5331588708757
 30
0.0
 11
190.12071218066919
 21
-168.62569416956421
 31
0.0
  0
LINE
  8
DETAIL
  6
CONTINUOUS
 62
     5
 10
-128.8323083895348
 20
-175.1295200979207
 30
0.0
 11
-128.37986832495361
 21
-165.3455037013496
 31
0.0
  0
LINE
  8
DETAIL
  6
CONTINUOUS
 62
     5
 10
-128.37986832495361
 20
-165.3455037013496
 30
0.0
 11
-127.2487681635002
 21
-155.3352672724877
 31
0.0
  0
LINE
  8
DETAIL
  6
CONTINUOUS
 62
     5
 10
-127.2487681635002
 20
-155.3352672724877
 30
0.0
 11
-125.2693428809569
 21
-145.55125087591639
 31
0.0
  0
LINE
  8
DETAIL
  6
CONTINUOUS
 62
     5
 10
-125.2693428809569
 20
-145.55125087591639
 30
0.0
 11
-122.78092252575949
 21
-136.2196745439262
 31
0.0
  0
LINE
  8
DETAIL
  6
CONTINUOUS
 62
     5
 10
-122.78092252575949
 20
-136.2196745439262
 30
0.0
 11
-119.3876220413995
 21
-126.888098211936
 31
0.0
  0
LINE
  8
DETAIL
  6
CONTINUOUS
 62
     5
 10
-119.3876220413995
 20
-126.888098211936
 30
0.0
 11
-115.259106452095
 21
-117.8958519283822
 31
0.0
  0
LINE
  8
DETAIL
  6
CONTINUOUS
 62
     5
 10
-115.259106452095
 20
-117.8958519283822
 30
0.0
 11
-110.56504078206331
 21
-109.1298256771186
 31
0.0
  0
LINE
  8
DETAIL
  6
CONTINUOUS
 62
     5
 10
-110.56504078206331
 20
-109.1298256771186
 30
0.0
 11
-105.3054250313055
 21
-100.9293495065822
 31
0.0
  0
LINE
  8
DETAIL
  6
CONTINUOUS
 62
     5
 10
-105.3054250313055
 20
-100.9293495065822
 30
0.0
 11
-99.423704191748129
 21
-93.181313400626777
 31
0.0
  0
LINE
  8
DETAIL
  6
CONTINUOUS
 62
     5
 10
-99.423704191748129
 20
-93.181313400626777
 30
0.0
 11
-92.637103223027907
 21
-85.659497326962082
 31
0.0
  0
LINE
  8
DETAIL
  6
CONTINUOUS
 62
     5
 10
-92.637103223027907
 20
-85.659497326962082
 30
0.0
 11
-85.624282222017428
 21
-78.986006374387443
 31
0.0
  0
LINE
  8
DETAIL
  6
CONTINUOUS
 62
     5
 10
-85.624282222017428
 20
-78.986006374387443
 30
0.0
 11
-77.819691107989229
 21
-72.821510494466565
 31
0.0
  0
LINE
  8
DETAIL
  6
CONTINUOUS
 62
     5
 10
-77.819691107989229
 20
-72.821510494466565
 30
0.0
 11
-69.845434969743337
 21
-66.996344662981755
 31
0.0
  0
LINE
  8
DETAIL
  6
CONTINUOUS
 62
     5
 10
-69.845434969743337
 20
-66.996344662981755
 30
0.0
 11
-61.475293774988813
 21
-62.019503952587229
 31
0.0
  0
LINE
  8
DETAIL
  6
CONTINUOUS
 62
     5
 10
-61.475293774988813
 20
-62.019503952587229
 30
0.0
 11
-52.70926752372543
 21
-57.551658314846463
 31
0.0
  0
LINE
  8
DETAIL
  6
CONTINUOUS
 62
     5
 10
-52.70926752372543
 20
-57.551658314846463
 30
0.0
 11
-43.490801207880743
 21
-53.819027782050632
 31
0.0
  0
LINE
  8
DETAIL
  6
CONTINUOUS
 62
     5
 10
-43.490801207880743
 20
-53.819027782050632
 30
0.0
 11
-34.046114859745437
 21
-51.047832386489972
 31
0.0
  0
LINE
  8
DETAIL
  6
CONTINUOUS
 62
     5
 10
-34.046114859745437
 20
-51.047832386489972
 30
0.0
 11
-24.54487350353725
 21
-48.842187071656099
 31
0.0
  0
LINE
  8
DETAIL
  6
CONTINUOUS
 62
     5
 10
-24.54487350353725
 20
-48.842187071656099
 30
0.0
 11
-14.760857106966
 21
-47.03242681333063
 31
0.0
  0
LINE
  8
DETAIL
  6
CONTINUOUS
 62
     5
 10
-14.760857106966
 20
-47.03242681333063
 30
0.0
 11
-4.7506206781041556
 21
-46.353766716458722
 31
0.0
  0
LINE
  8
DETAIL
  6
CONTINUOUS
 62
     5
 10
-4.7506206781041556
 20
-46.353766716458722
 30
0.0
 11
5.0333957184674318
 21
-46.353766716458722
 31
0.0
  0
LINE
  8
DETAIL
  6
CONTINUOUS
 62
     5
 10
5.0333957184674318
 20
-46.353766716458722
 30
0.0
 11
14.98707713925705
 21
-47.03242681333063
 31
0.0
  0
LINE
  8
DETAIL
  6
CONTINUOUS
 62
     5
 10
14.98707713925705
 20
-47.03242681333063
 30
0.0
 11
24.65798351968283
 21
-48.842187071656099
 31
0.0
  0
LINE
  8
DETAIL
  6
CONTINUOUS
 62
     5
 10
24.65798351968283
 20
-48.842187071656099
 30
0.0
 11
34.159224875890693
 21
-51.047832386489972
 31
0.0
  0
LINE
  8
DETAIL
  6
CONTINUOUS
 62
     5
 10
34.159224875890693
 20
-51.047832386489972
 30
0.0
 11
43.66046623209877
 21
-53.819027782050632
 31
0.0
  0
LINE
  8
DETAIL
  6
CONTINUOUS
 62
     5
 10
43.66046623209877
 20
-53.819027782050632
 30
0.0
 11
52.652712515652979
 21
-57.551658314846463
 31
0.0
  0
LINE
  8
DETAIL
  6
CONTINUOUS
 62
     5
 10
52.652712515652979
 20
-57.551658314846463
 30
0.0
 11
61.644958799206847
 21
-62.019503952587229
 31
0.0
  0
LINE
  8
DETAIL
  6
CONTINUOUS
 62
     5
 10
61.644958799206847
 20
-62.019503952587229
 30
0.0
 11
70.128210010107054
 21
-66.996344662981755
 31
0.0
  0
LINE
  8
DETAIL
  6
CONTINUOUS
 62
     5
 10
70.128210010107054
 20
-66.996344662981755
 30
0.0
 11
78.10246614835296
 21
-72.821510494466565
 31
0.0
  0
LINE
  8
DETAIL
  6
CONTINUOUS
 62
     5
 10
78.10246614835296
 20
-72.821510494466565
 30
0.0
 11
85.793947246235561
 21
-78.986006374387443
 31
0.0
  0
LINE
  8
DETAIL
  6
CONTINUOUS
 62
     5
 10
85.793947246235561
 20
-78.986006374387443
 30
0.0
 11
92.750213239173718
 21
-85.659497326962082
 31
0.0
  0
LINE
  8
DETAIL
  6
CONTINUOUS
 62
     5
 10
92.750213239173718
 20
-85.659497326962082
 30
0.0
 11
99.367149183675707
 21
-93.181313400626777
 31
0.0
  0
LINE
  8
DETAIL
  6
CONTINUOUS
 62
     5
 10
99.367149183675707
 20
-93.181313400626777
 30
0.0
 11
105.2488700232331
 21
-100.9293495065822
 31
0.0
  0
LINE
  8
DETAIL
  6
CONTINUOUS
 62
     5
 10
105.2488700232331
 20
-100.9293495065822
 30
0.0
 11
110.7347058062815
 21
-109.1298256771186
 31
0.0
  0
LINE
  8
DETAIL
  6
CONTINUOUS
 62
     5
 10
110.7347058062815
 20
-109.1298256771186
 30
0.0
 11
115.5418814924583
 21
-117.8958519283822
 31
0.0
  0
LINE
  8
DETAIL
  6
CONTINUOUS
 62
     5
 10
115.5418814924583
 20
-117.8958519283822
 30
0.0
 11
119.50073205754509
 21
-126.888098211936
 31
0.0
  0
LINE
  8
DETAIL
  6
CONTINUOUS
 62
     5
 10
119.50073205754509
 20
-126.888098211936
 30
0.0
 11
122.7243675176871
 21
-136.2196745439262
 31
0.0
  0
LINE
  8
DETAIL
  6
CONTINUOUS
 62
     5
 10
122.7243675176871
 20
-136.2196745439262
 30
0.0
 11
125.4955629132478
 21
-145.55125087591639
 31
0.0
  0
LINE
  8
DETAIL
  6
CONTINUOUS
 62
     5
 10
125.4955629132478
 20
-145.55125087591639
 30
0.0
 11
127.30532317157299
 21
-155.3352672724877
 31
0.0
  0
LINE
  8
DETAIL
  6
CONTINUOUS
 62
     5
 10
127.30532317157299
 20
-155.3352672724877
 30
0.0
 11
128.4929783410989
 21
-165.3455037013496
 31
0.0
  0
LINE
  8
DETAIL
  6
CONTINUOUS
 62
     5
 10
128.4929783410989
 20
-165.3455037013496
 30
0.0
 11
128.7191983733899
 21
-175.1295200979207
 31
0.0
  0
LINE
  8
DETAIL
  6
CONTINUOUS
 62
     5
 10
128.7191983733899
 20
-175.1295200979207
 30
0.0
 11
128.4929783410989
 21
-185.08320151871021
 31
0.0
  0
LINE
  8
DETAIL
  6
CONTINUOUS
 62
     5
 10
128.4929783410989
 20
-185.08320151871021
 30
0.0
 11
127.30532317157299
 21
-194.81066290720901
 31
0.0
  0
LINE
  8
DETAIL
  6
CONTINUOUS
 62
     5
 10
127.30532317157299
 20
-194.81066290720901
 30
0.0
 11
125.4955629132478
 21
-204.5946793037804
 31
0.0
  0
LINE
  8
DETAIL
  6
CONTINUOUS
 62
     5
 10
125.4955629132478
 20
-204.5946793037804
 30
0.0
 11
122.7243675176871
 21
-213.9828106438431
 31
0.0
  0
LINE
  8
DETAIL
  6
CONTINUOUS
 62
     5
 10
122.7243675176871
 20
-213.9828106438431
 30
0.0
 11
119.50073205754509
 21
-223.25783196776021
 31
0.0
  0
LINE
  8
DETAIL
  6
CONTINUOUS
 62
     5
 10
119.50073205754509
 20
-223.25783196776021
 30
0.0
 11
115.5418814924583
 21
-232.25007825131431
 31
0.0
  0
LINE
  8
DETAIL
  6
CONTINUOUS
 62
     5
 10
115.5418814924583
 20
-232.25007825131431
 30
0.0
 11
110.7347058062815
 21
-241.01610450257769
 31
0.0
  0
LINE
  8
DETAIL
  6
CONTINUOUS
 62
     5
 10
110.7347058062815
 20
-241.01610450257769
 30
0.0
 11
105.2488700232331
 21
-249.21658067311449
 31
0.0
  0
LINE
  8
DETAIL
  6
CONTINUOUS
 62
     5
 10
105.2488700232331
 20
-249.21658067311449
 30
0.0
 11
99.367149183675707
 21
-256.96461677906967
 31
0.0
  0
LINE
  8
DETAIL
  6
CONTINUOUS
 62
     5
 10
99.367149183675707
 20
-256.96461677906967
 30
0.0
 11
92.750213239173718
 21
-264.48643285273442
 31
0.0
  0
LINE
  8
DETAIL
  6
CONTINUOUS
 62
     5
 10
92.750213239173718
 20
-264.48643285273442
 30
0.0
 11
85.793947246235561
 21
-271.15992380530912
 31
0.0
  0
LINE
  8
DETAIL
  6
CONTINUOUS
 62
     5
 10
85.793947246235561
 20
-271.15992380530912
 30
0.0
 11
78.10246614835296
 21
-277.38097469330268
 31
0.0
  0
LINE
  8
DETAIL
  6
CONTINUOUS
 62
     5
 10
78.10246614835296
 20
-277.38097469330268
 30
0.0
 11
70.128210010107054
 21
-283.14958551671452
 31
0.0
  0
LINE
  8
DETAIL
  6
CONTINUOUS
 62
     5
 10
70.128210010107054
 20
-283.14958551671452
 30
0.0
 11
61.644958799206847
 21
-288.12642622710928
 31
0.0
  0
LINE
  8
DETAIL
  6
CONTINUOUS
 62
     5
 10
61.644958799206847
 20
-288.12642622710928
 30
0.0
 11
52.652712515652979
 21
-292.65082687292238
 31
0.0
  0
LINE
  8
DETAIL
  6
CONTINUOUS
 62
     5
 10
52.652712515652979
 20
-292.65082687292238
 30
0.0
 11
43.66046623209877
 21
-296.44001241379118
 31
0.0
  0
LINE
  8
DETAIL
  6
CONTINUOUS
 62
     5
 10
43.66046623209877
 20
-296.44001241379118
 30
0.0
 11
34.159224875890693
 21
-299.4374278416426
 31
0.0
  0
LINE
  8
DETAIL
  6
CONTINUOUS
 62
     5
 10
34.159224875890693
 20
-299.4374278416426
 30
0.0
 11
24.65798351968283
 21
-301.58651814840391
 31
0.0
  0
LINE
  8
DETAIL
  6
CONTINUOUS
 62
     5
 10
24.65798351968283
 20
-301.58651814840391
 30
0.0
 11
14.98707713925705
 21
-303.11350336636588
 31
0.0
  0
LINE
  8
DETAIL
  6
CONTINUOUS
 62
     5
 10
14.98707713925705
 20
-303.11350336636588
 30
0.0
 11
5.0333957184674318
 21
-303.90527347938303
 31
0.0
  0
LINE
  8
DETAIL
  6
CONTINUOUS
 62
     5
 10
5.0333957184674318
 20
-303.90527347938303
 30
0.0
 11
-4.7506206781041556
 21
-303.90527347938303
 31
0.0
  0
LINE
  8
DETAIL
  6
CONTINUOUS
 62
     5
 10
-4.7506206781041556
 20
-303.90527347938303
 30
0.0
 11
-14.760857106966
 21
-303.11350336636588
 31
0.0
  0
LINE
  8
DETAIL
  6
CONTINUOUS
 62
     5
 10
-14.760857106966
 20
-303.11350336636588
 30
0.0
 11
-24.54487350353725
 21
-301.58651814840391
 31
0.0
  0
LINE
  8
DETAIL
  6
CONTINUOUS
 62
     5
 10
-24.54487350353725
 20
-301.58651814840391
 30
0.0
 11
-34.046114859745437
 21
-299.4374278416426
 31
0.0
  0
LINE
  8
DETAIL
  6
CONTINUOUS
 62
     5
 10
-34.046114859745437
 20
-299.4374278416426
 30
0.0
 11
-43.490801207880743
 21
-296.44001241379118
 31
0.0
  0
LINE
  8
DETAIL
  6
CONTINUOUS
 62
     5
 10
-43.490801207880743
 20
-296.44001241379118
 30
0.0
 11
-52.70926752372543
 21
-292.65082687292238
 31
0.0
  0
LINE
  8
DETAIL
  6
CONTINUOUS
 62
     5
 10
-52.70926752372543
 20
-292.65082687292238
 30
0.0
 11
-61.475293774988813
 21
-288.12642622710928
 31
0.0
  0
LINE
  8
DETAIL
  6
CONTINUOUS
 62
     5
 10
-61.475293774988813
 20
-288.12642622710928
 30
0.0
 11
-69.845434969743337
 21
-283.14958551671452
 31
0.0
  0
LINE
  8
DETAIL
  6
CONTINUOUS
 62
     5
 10
-69.845434969743337
 20
-283.14958551671452
 30
0.0
 11
-77.819691107989229
 21
-277.38097469330268
 31
0.0
  0
LINE
  8
DETAIL
  6
CONTINUOUS
 62
     5
 10
-77.819691107989229
 20
-277.38097469330268
 30
0.0
 11
-85.624282222017428
 21
-271.15992380530912
 31
0.0
  0
LINE
  8
DETAIL
  6
CONTINUOUS
 62
     5
 10
-85.624282222017428
 20
-271.15992380530912
 30
0.0
 11
-92.637103223027907
 21
-264.48643285273442
 31
0.0
  0
LINE
  8
DETAIL
  6
CONTINUOUS
 62
     5
 10
-92.637103223027907
 20
-264.48643285273442
 30
0.0
 11
-99.423704191748129
 21
-256.96461677906967
 31
0.0
  0
LINE
  8
DETAIL
  6
CONTINUOUS
 62
     5
 10
-99.423704191748129
 20
-256.96461677906967
 30
0.0
 11
-105.3054250313055
 21
-249.21658067311449
 31
0.0
  0
LINE
  8
DETAIL
  6
CONTINUOUS
 62
     5
 10
-105.3054250313055
 20
-249.21658067311449
 30
0.0
 11
-110.56504078206331
 21
-241.01610450257769
 31
0.0
  0
LINE
  8
DETAIL
  6
CONTINUOUS
 62
     5
 10
-110.56504078206331
 20
-241.01610450257769
 30
0.0
 11
-115.259106452095
 21
-232.25007825131431
 31
0.0
  0
LINE
  8
DETAIL
  6
CONTINUOUS
 62
     5
 10
-115.259106452095
 20
-232.25007825131431
 30
0.0
 11
-119.3876220413995
 21
-223.25783196776021
 31
0.0
  0
LINE
  8
DETAIL
  6
CONTINUOUS
 62
     5
 10
-119.3876220413995
 20
-223.25783196776021
 30
0.0
 11
-122.78092252575949
 21
-213.9828106438431
 31
0.0
  0
LINE
  8
DETAIL
  6
CONTINUOUS
 62
     5
 10
-122.78092252575949
 20
-213.9828106438431
 30
0.0
 11
-125.2693428809569
 21
-204.5946793037804
 31
0.0
  0
LINE
  8
DETAIL
  6
CONTINUOUS
 62
     5
 10
-125.2693428809569
 20
-204.5946793037804
 30
0.0
 11
-127.2487681635002
 21
-194.81066290720901
 31
0.0
  0
LINE
  8
DETAIL
  6
CONTINUOUS
 62
     5
 10
-127.2487681635002
 20
-194.81066290720901
 30
0.0
 11
-128.37986832495361
 21
-185.08320151871021
 31
0.0
  0
LINE
  8
DETAIL
  6
CONTINUOUS
 62
     5
 10
-128.37986832495361
 20
-185.08320151871021
 30
0.0
 11
-128.8323083895348
 21
-175.1295200979207
 31
0.0
  0
LINE
  8
DETAIL
  6
CONTINUOUS
 62
     5
 10
-129.5675234944797
 20
-121.62848246117819
 30
0.0
 11
-127.2487681635002
 21
-122.4202525741955
 31
0.0
  0
LINE
  8
DETAIL
  6
CONTINUOUS
 62
     5
 10
-99.819589248256761
 20
-269.85915861963781
 30
0.0
 11
-98.122939006076876
 21
-268.67150345011191
 31
0.0
  0
LINE
  8
DETAIL
  6
CONTINUOUS
 62
     5
 10
-98.122939006076876
 20
-268.67150345011191
 30
0.0
 11
-96.086958715460696
 21
-268.16250837745798
 31
0.0
  0
LINE
  8
DETAIL
  6
CONTINUOUS
 62
     5
 10
-96.086958715460696
 20
-268.16250837745798
 30
0.0
 11
-94.107533432917762
 21
-268.44528341782097
 31
0.0
  0
LINE
  8
DETAIL
  6
CONTINUOUS
 62
     5
 10
-94.107533432917762
 20
-268.44528341782097
 30
0.0
 11
-92.297773174592066
 21
-269.1804985227659
 31
0.0
  0
LINE
  8
DETAIL
  6
CONTINUOUS
 62
     5
 10
-92.297773174592066
 20
-269.1804985227659
 30
0.0
 11
-90.940452980848022
 21
-270.65092873265507
 31
0.0
  0
LINE
  8
DETAIL
  6
CONTINUOUS
 62
     5
 10
-90.940452980848022
 20
-270.65092873265507
 30
0.0
 11
-89.809352819394917
 21
-272.34757897483519
 31
0.0
  0
LINE
  8
DETAIL
  6
CONTINUOUS
 62
     5
 10
-89.809352819394917
 20
-272.34757897483519
 30
0.0
 11
-89.639687795176769
 21
-274.66633430581442
 31
0.0
  0
LINE
  8
DETAIL
  6
CONTINUOUS
 62
     5
 10
-89.639687795176769
 20
-274.66633430581442
 30
0.0
 11
-90.148682867830985
 21
-276.64575958835781
 31
0.0
  0
LINE
  8
DETAIL
  6
CONTINUOUS
 62
     5
 10
-90.148682867830985
 20
-276.64575958835781
 30
0.0
 11
-91.110118005065942
 21
-278.17274480631983
 31
0.0
  0
LINE
  8
DETAIL
  6
CONTINUOUS
 62
     5
 10
-92.806768247245827
 20
-279.86939504849971
 30
0.0
 11
-91.44944805350201
 21
-278.45551984668327
 31
0.0
  0
LINE
  8
DETAIL
  6
CONTINUOUS
 62
     5
 10
-101.6293495065822
 20
-271.66891887796322
 30
0.0
 11
-99.819589248256761
 21
-269.85915861963781
 31
0.0
  0
LINE
  8
DETAIL
  6
CONTINUOUS
 62
     5
 10
-120.8580522512891
 20
-175.1295200979207
 30
0.0
 11
-120.2925021705621
 21
-165.3455037013496
 31
0.0
  0
LINE
  8
DETAIL
  6
CONTINUOUS
 62
     5
 10
-120.2925021705621
 20
-165.3455037013496
 30
0.0
 11
-119.0482919929634
 21
-155.3352672724877
 31
0.0
  0
LINE
  8
DETAIL
  6
CONTINUOUS
 62
     5
 10
-119.0482919929634
 20
-155.3352672724877
 30
0.0
 11
-117.06886671042029
 21
-145.89058092435241
 31
0.0
  0
LINE
  8
DETAIL
  6
CONTINUOUS
 62
     5
 10
-117.06886671042029
 20
-145.89058092435241
 30
0.0
 11
-114.410781331005
 21
-136.38933956814409
 31
0.0
  0
LINE
  8
DETAIL
  6
CONTINUOUS
 62
     5
 10
-114.410781331005
 20
-136.38933956814409
 30
0.0
 11
-110.9043708304994
 21
-127.22742826037209
 31
0.0
  0
LINE
  8
DETAIL
  6
CONTINUOUS
 62
     5
 10
-110.9043708304994
 20
-127.22742826037209
 30
0.0
 11
-106.606190216977
 21
-118.1220719606727
 31
0.0
  0
LINE
  8
DETAIL
  6
CONTINUOUS
 62
     5
 10
-106.606190216977
 20
-118.1220719606727
 30
0.0
 11
-101.6293495065822
 21
-109.7519307659181
 31
0.0
  0
LINE
  8
DETAIL
  6
CONTINUOUS
 62
     5
 10
-101.6293495065822
 20
-109.7519307659181
 30
0.0
 11
-95.917293691242776
 21
-101.6645646115267
 31
0.0
  0
LINE
  8
DETAIL
  6
CONTINUOUS
 62
     5
 10
-95.917293691242776
 20
-101.6645646115267
 30
0.0
 11
-89.639687795176769
 21
-94.142748537861962
 31
0.0
  0
LINE
  8
DETAIL
  6
CONTINUOUS
 62
     5
 10
-89.639687795176769
 20
-94.142748537861962
 30
0.0
 11
-82.626866794166062
 21
-87.299592561069176
 31
0.0
  0
LINE
  8
DETAIL
  6
CONTINUOUS
 62
     5
 10
-82.626866794166062
 20
-87.299592561069176
 30
0.0
 11
-75.161605728574159
 21
-80.682656616567328
 31
0.0
  0
LINE
  8
DETAIL
  6
CONTINUOUS
 62
     5
 10
-75.161605728574159
 20
-80.682656616567328
 30
0.0
 11
-67.35701461454596
 21
-74.800935777009954
 31
0.0
  0
LINE
  8
DETAIL
  6
CONTINUOUS
 62
     5
 10
-67.35701461454596
 20
-74.800935777009954
 30
0.0
 11
-58.986873419791657
 21
-69.824095066615428
 31
0.0
  0
LINE
  8
DETAIL
  6
CONTINUOUS
 62
     5
 10
-58.986873419791657
 20
-69.824095066615428
 30
0.0
 11
-50.164292160455147
 21
-65.29969442080187
 31
0.0
  0
LINE
  8
DETAIL
  6
CONTINUOUS
 62
     5
 10
-50.164292160455147
 20
-65.29969442080187
 30
0.0
 11
-41.002380852683252
 21
-61.510508879933241
 31
0.0
  0
LINE
  8
DETAIL
  6
CONTINUOUS
 62
     5
 10
-41.002380852683252
 20
-61.510508879933241
 30
0.0
 11
-31.727359528765991
 21
-58.513093452081883
 31
0.0
  0
LINE
  8
DETAIL
  6
CONTINUOUS
 62
     5
 10
-31.727359528765991
 20
-58.513093452081883
 30
0.0
 11
-22.05645314833987
 21
-56.307448137248002
 31
0.0
  0
LINE
  8
DETAIL
  6
CONTINUOUS
 62
     5
 10
-22.05645314833987
 20
-56.307448137248002
 30
0.0
 11
-12.27243675176862
 21
-55.006682951576522
 31
0.0
  0
LINE
  8
DETAIL
  6
CONTINUOUS
 62
     5
 10
-12.27243675176862
 20
-55.006682951576522
 30
0.0
 11
-2.4884203551973769
 21
-54.214912838559258
 31
0.0
  0
LINE
  8
DETAIL
  6
CONTINUOUS
 62
     5
 10
-2.4884203551973769
 20
-54.214912838559258
 30
0.0
 11
7.5218160736648088
 21
-54.554242886995098
 31
0.0
  0
LINE
  8
DETAIL
  6
CONTINUOUS
 62
     5
 10
7.5218160736648088
 20
-54.554242886995098
 30
0.0
 11
17.19272245409093
 21
-55.51567802423051
 31
0.0
  0
LINE
  8
DETAIL
  6
CONTINUOUS
 62
     5
 10
17.19272245409093
 20
-55.51567802423051
 30
0.0
 11
26.976738850661949
 21
-57.325438282555979
 31
0.0
  0
LINE
  8
DETAIL
  6
CONTINUOUS
 62
     5
 10
26.976738850661949
 20
-57.325438282555979
 30
0.0
 11
36.364870190724673
 21
-60.04007867004384
 31
0.0
  0
LINE
  8
DETAIL
  6
CONTINUOUS
 62
     5
 10
36.364870190724673
 20
-60.04007867004384
 30
0.0
 11
45.639891514642159
 21
-63.207159122113353
 31
0.0
  0
LINE
  8
DETAIL
  6
CONTINUOUS
 62
     5
 10
45.639891514642159
 20
-63.207159122113353
 30
0.0
 11
54.632137798196027
 21
-67.335674711417823
 31
0.0
  0
LINE
  8
DETAIL
  6
CONTINUOUS
 62
     5
 10
54.632137798196027
 20
-67.335674711417823
 30
0.0
 11
63.341609041386853
 21
-72.312515421812577
 31
0.0
  0
LINE
  8
DETAIL
  6
CONTINUOUS
 62
     5
 10
63.341609041386853
 20
-72.312515421812577
 30
0.0
 11
71.315865179632965
 21
-77.798351204861319
 31
0.0
  0
LINE
  8
DETAIL
  6
CONTINUOUS
 62
     5
 10
71.315865179632965
 20
-77.798351204861319
 30
0.0
 11
79.063901285588372
 21
-83.79318206056405
 31
0.0
  0
LINE
  8
DETAIL
  6
CONTINUOUS
 62
     5
 10
79.063901285588372
 20
-83.79318206056405
 30
0.0
 11
86.302942318889563
 21
-90.466673013138916
 31
0.0
  0
LINE
  8
DETAIL
  6
CONTINUOUS
 62
     5
 10
86.302942318889563
 20
-90.466673013138916
 30
0.0
 11
93.089543287609786
 21
-97.931934078730819
 31
0.0
  0
LINE
  8
DETAIL
  6
CONTINUOUS
 62
     5
 10
93.089543287609786
 20
-97.931934078730819
 30
0.0
 11
98.745044094876206
 21
-105.62341517661341
 31
0.0
  0
LINE
  8
DETAIL
  6
CONTINUOUS
 62
     5
 10
98.745044094876206
 20
-105.62341517661341
 30
0.0
 11
104.3439898940705
 21
-113.93700136329539
 31
0.0
  0
LINE
  8
DETAIL
  6
CONTINUOUS
 62
     5
 10
104.3439898940705
 20
-113.93700136329539
 30
0.0
 11
108.75528052373841
 21
-122.70302761455901
 31
0.0
  0
LINE
  8
DETAIL
  6
CONTINUOUS
 62
     5
 10
108.75528052373841
 20
-122.70302761455901
 30
0.0
 11
112.7141310888248
 21
-131.58216388196729
 31
0.0
  0
LINE
  8
DETAIL
  6
CONTINUOUS
 62
     5
 10
112.7141310888248
 20
-131.58216388196729
 30
0.0
 11
116.0508765651123
 21
-141.1965152543207
 31
0.0
  0
LINE
  8
DETAIL
  6
CONTINUOUS
 62
     5
 10
116.0508765651123
 20
-141.1965152543207
 30
0.0
 11
118.1999668718737
 21
-150.58464659438351
 31
0.0
  0
LINE
  8
DETAIL
  6
CONTINUOUS
 62
     5
 10
118.1999668718737
 20
-150.58464659438351
 30
0.0
 11
120.0097271301991
 21
-160.36866299095499
 31
0.0
  0
LINE
  8
DETAIL
  6
CONTINUOUS
 62
     5
 10
120.0097271301991
 20
-160.36866299095499
 30
0.0
 11
120.7449422351436
 21
-170.15267938752621
 31
0.0
  0
LINE
  8
DETAIL
  6
CONTINUOUS
 62
     5
 10
120.7449422351436
 20
-170.15267938752621
 30
0.0
 11
120.7449422351436
 21
-180.10636080831549
 31
0.0
  0
LINE
  8
DETAIL
  6
CONTINUOUS
 62
     5
 10
120.7449422351436
 20
-180.10636080831549
 30
0.0
 11
120.0097271301991
 21
-189.77726718874169
 31
0.0
  0
LINE
  8
DETAIL
  6
CONTINUOUS
 62
     5
 10
120.0097271301991
 20
-189.77726718874169
 30
0.0
 11
118.1999668718737
 21
-199.56128358531299
 31
0.0
  0
LINE
  8
DETAIL
  6
CONTINUOUS
 62
     5
 10
118.1999668718737
 20
-199.56128358531299
 30
0.0
 11
116.0508765651123
 21
-208.94941492537549
 31
0.0
  0
LINE
  8
DETAIL
  6
CONTINUOUS
 62
     5
 10
116.0508765651123
 20
-208.94941492537549
 30
0.0
 11
112.7141310888248
 21
-218.56376629772899
 31
0.0
  0
LINE
  8
DETAIL
  6
CONTINUOUS
 62
     5
 10
112.7141310888248
 20
-218.56376629772899
 30
0.0
 11
108.75528052373841
 21
-227.4429025651377
 31
0.0
  0
LINE
  8
DETAIL
  6
CONTINUOUS
 62
     5
 10
108.75528052373841
 20
-227.4429025651377
 30
0.0
 11
104.3439898940705
 21
-236.20892881640091
 31
0.0
  0
LINE
  8
DETAIL
  6
CONTINUOUS
 62
     5
 10
104.3439898940705
 20
-236.20892881640091
 30
0.0
 11
98.745044094876206
 21
-244.5225150030831
 31
0.0
  0
LINE
  8
DETAIL
  6
CONTINUOUS
 62
     5
 10
98.745044094876206
 20
-244.5225150030831
 30
0.0
 11
93.089543287609786
 21
-252.21399610096589
 31
0.0
  0
LINE
  8
DETAIL
  6
CONTINUOUS
 62
     5
 10
93.089543287609786
 20
-252.21399610096589
 30
0.0
 11
86.302942318889563
 21
-259.67925716655782
 31
0.0
  0
LINE
  8
DETAIL
  6
CONTINUOUS
 62
     5
 10
86.302942318889563
 20
-259.67925716655782
 30
0.0
 11
79.063901285588372
 21
-266.46585813527798
 31
0.0
  0
LINE
  8
DETAIL
  6
CONTINUOUS
 62
     5
 10
79.063901285588372
 20
-266.46585813527798
 30
0.0
 11
71.315865179632965
 21
-272.34757897483519
 31
0.0
  0
LINE
  8
DETAIL
  6
CONTINUOUS
 62
     5
 10
71.315865179632965
 20
-272.34757897483519
 30
0.0
 11
63.341609041386853
 21
-277.8334147578837
 31
0.0
  0
LINE
  8
DETAIL
  6
CONTINUOUS
 62
     5
 10
63.341609041386853
 20
-277.8334147578837
 30
0.0
 11
54.632137798196027
 21
-282.86681047635108
 31
0.0
  0
LINE
  8
DETAIL
  6
CONTINUOUS
 62
     5
 10
54.632137798196027
 20
-282.86681047635108
 30
0.0
 11
45.639891514642159
 21
-286.93877105758338
 31
0.0
  0
LINE
  8
DETAIL
  6
CONTINUOUS
 62
     5
 10
45.639891514642159
 20
-286.93877105758338
 30
0.0
 11
36.364870190724673
 21
-290.33207154194338
 31
0.0
  0
LINE
  8
DETAIL
  6
CONTINUOUS
 62
     5
 10
36.364870190724673
 20
-290.33207154194338
 30
0.0
 11
26.976738850661949
 21
-292.8204918971403
 31
0.0
  0
LINE
  8
DETAIL
  6
CONTINUOUS
 62
     5
 10
26.976738850661949
 20
-292.8204918971403
 30
0.0
 11
17.19272245409093
 21
-294.63025215546583
 31
0.0
  0
LINE
  8
DETAIL
  6
CONTINUOUS
 62
     5
 10
17.19272245409093
 20
-294.63025215546583
 30
0.0
 11
7.5218160736648088
 21
-295.64824230077369
 31
0.0
  0
LINE
  8
DETAIL
  6
CONTINUOUS
 62
     5
 10
7.5218160736648088
 20
-295.64824230077369
 30
0.0
 11
-2.4884203551973769
 21
-295.93101734113719
 31
0.0
  0
LINE
  8
DETAIL
  6
CONTINUOUS
 62
     5
 10
-2.4884203551973769
 20
-295.93101734113719
 30
0.0
 11
-12.27243675176862
 21
-295.30891225233768
 31
0.0
  0
LINE
  8
DETAIL
  6
CONTINUOUS
 62
     5
 10
-12.27243675176862
 20
-295.30891225233768
 30
0.0
 11
-22.05645314833987
 21
-293.95159205859392
 31
0.0
  0
LINE
  8
DETAIL
  6
CONTINUOUS
 62
     5
 10
-22.05645314833987
 20
-293.95159205859392
 30
0.0
 11
-31.727359528765991
 21
-291.63283672761429
 31
0.0
  0
LINE
  8
DETAIL
  6
CONTINUOUS
 62
     5
 10
-31.727359528765991
 20
-291.63283672761429
 30
0.0
 11
-41.002380852683252
 21
-288.63542129976332
 31
0.0
  0
LINE
  8
DETAIL
  6
CONTINUOUS
 62
     5
 10
-41.002380852683252
 20
-288.63542129976332
 30
0.0
 11
-50.164292160455147
 21
-284.84623575889441
 31
0.0
  0
LINE
  8
DETAIL
  6
CONTINUOUS
 62
     5
 10
-50.164292160455147
 20
-284.84623575889441
 30
0.0
 11
-58.986873419791657
 21
-280.32183511308108
 31
0.0
  0
LINE
  8
DETAIL
  6
CONTINUOUS
 62
     5
 10
-58.986873419791657
 20
-280.32183511308108
 30
0.0
 11
-67.35701461454596
 21
-275.34499440268661
 31
0.0
  0
LINE
  8
DETAIL
  6
CONTINUOUS
 62
     5
 10
-67.35701461454596
 20
-275.34499440268661
 30
0.0
 11
-75.161605728574159
 21
-269.46327356312901
 31
0.0
  0
LINE
  8
DETAIL
  6
CONTINUOUS
 62
     5
 10
-75.161605728574159
 20
-269.46327356312901
 30
0.0
 11
-82.626866794166062
 21
-263.18566766706323
 31
0.0
  0
LINE
  8
DETAIL
  6
CONTINUOUS
 62
     5
 10
-82.626866794166062
 20
-263.18566766706323
 30
0.0
 11
-89.639687795176769
 21
-256.00318164183432
 31
0.0
  0
LINE
  8
DETAIL
  6
CONTINUOUS
 62
     5
 10
-89.639687795176769
 20
-256.00318164183432
 30
0.0
 11
-95.917293691242776
 21
-248.48136556816959
 31
0.0
  0
LINE
  8
DETAIL
  6
CONTINUOUS
 62
     5
 10
-95.917293691242776
 20
-248.48136556816959
 30
0.0
 11
-101.6293495065822
 21
-240.3939994137784
 31
0.0
  0
LINE
  8
DETAIL
  6
CONTINUOUS
 62
     5
 10
-101.6293495065822
 20
-240.3939994137784
 30
0.0
 11
-106.606190216977
 21
-232.02385821902391
 31
0.0
  0
LINE
  8
DETAIL
  6
CONTINUOUS
 62
     5
 10
-106.606190216977
 20
-232.02385821902391
 30
0.0
 11
-110.9043708304994
 21
-222.9185019193244
 31
0.0
  0
LINE
  8
DETAIL
  6
CONTINUOUS
 62
     5
 10
-110.9043708304994
 20
-222.9185019193244
 30
0.0
 11
-114.410781331005
 21
-213.75659061155241
 31
0.0
  0
LINE
  8
DETAIL
  6
CONTINUOUS
 62
     5
 10
-114.410781331005
 20
-213.75659061155241
 30
0.0
 11
-117.06886671042029
 21
-204.2553492553443
 31
0.0
  0
LINE
  8
DETAIL
  6
CONTINUOUS
 62
     5
 10
-117.06886671042029
 20
-204.2553492553443
 30
0.0
 11
-119.0482919929634
 21
-194.81066290720901
 31
0.0
  0
LINE
  8
DETAIL
  6
CONTINUOUS
 62
     5
 10
-119.0482919929634
 20
-194.81066290720901
 30
0.0
 11
-120.2925021705621
 21
-185.08320151871021
 31
0.0
  0
LINE
  8
DETAIL
  6
CONTINUOUS
 62
     5
 10
-120.2925021705621
 20
-185.08320151871021
 30
0.0
 11
-120.8580522512891
 21
-175.1295200979207
 31
0.0
  0
LINE
  8
DETAIL
  6
CONTINUOUS
 62
     5
 10
-115.8812115408941
 20
-175.1295200979207
 30
0.0
 11
-115.259106452095
 21
-165.11928366905889
 31
0.0
  0
LINE
  8
DETAIL
  6
CONTINUOUS
 62
     5
 10
-115.259106452095
 20
-165.11928366905889
 30
0.0
 11
-114.0714512825691
 21
-155.3352672724877
 31
0.0
  0
LINE
  8
DETAIL
  6
CONTINUOUS
 62
     5
 10
-114.0714512825691
 20
-155.3352672724877
 30
0.0
 11
-111.8658059677348
 21
-145.55125087591639
 31
0.0
  0
LINE
  8
DETAIL
  6
CONTINUOUS
 62
     5
 10
-111.8658059677348
 20
-145.55125087591639
 30
0.0
 11
-108.86839053988341
 21
-135.88034449549011
 31
0.0
  0
LINE
  8
DETAIL
  6
CONTINUOUS
 62
     5
 10
-108.86839053988341
 20
-135.88034449549011
 30
0.0
 11
-105.07920499901481
 21
-126.605323171573
 31
0.0
  0
LINE
  8
DETAIL
  6
CONTINUOUS
 62
     5
 10
-105.07920499901481
 20
-126.605323171573
 30
0.0
 11
-100.6113593612743
 21
-117.8958519283822
 31
0.0
  0
LINE
  8
DETAIL
  6
CONTINUOUS
 62
     5
 10
-100.6113593612743
 20
-117.8958519283822
 30
0.0
 11
-95.295188602443659
 21
-109.41260071748211
 31
0.0
  0
LINE
  8
DETAIL
  6
CONTINUOUS
 62
     5
 10
-95.295188602443659
 20
-109.41260071748211
 30
0.0
 11
-89.413467762886057
 21
-101.4383445792362
 31
0.0
  0
LINE
  8
DETAIL
  6
CONTINUOUS
 62
     5
 10
-89.413467762886057
 20
-101.4383445792362
 30
0.0
 11
-82.626866794166062
 21
-94.142748537861962
 31
0.0
  0
LINE
  8
DETAIL
  6
CONTINUOUS
 62
     5
 10
-82.626866794166062
 20
-94.142748537861962
 30
0.0
 11
-75.331270752792307
 21
-87.299592561069176
 31
0.0
  0
LINE
  8
DETAIL
  6
CONTINUOUS
 62
     5
 10
-75.331270752792307
 20
-87.299592561069176
 30
0.0
 11
-67.639789654909464
 21
-81.304761705366673
 31
0.0
  0
LINE
  8
DETAIL
  6
CONTINUOUS
 62
     5
 10
-67.639789654909464
 20
-81.304761705366673
 30
0.0
 11
-59.156538444009577
 21
-75.705815906172575
 31
0.0
  0
LINE
  8
DETAIL
  6
CONTINUOUS
 62
     5
 10
-59.156538444009577
 20
-75.705815906172575
 30
0.0
 11
-50.390512192745973
 21
-71.011750236141552
 31
0.0
  0
LINE
  8
DETAIL
  6
CONTINUOUS
 62
     5
 10
-50.390512192745973
 20
-71.011750236141552
 30
0.0
 11
-41.511375925337347
 21
-66.996344662981755
 31
0.0
  0
LINE
  8
DETAIL
  6
CONTINUOUS
 62
     5
 10
-41.511375925337347
 20
-66.996344662981755
 30
0.0
 11
-32.010134569129491
 21
-63.829264210912697
 31
0.0
  0
LINE
  8
DETAIL
  6
CONTINUOUS
 62
     5
 10
-32.010134569129491
 20
-63.829264210912697
 30
0.0
 11
-22.2261181725579
 21
-61.510508879933241
 31
0.0
  0
LINE
  8
DETAIL
  6
CONTINUOUS
 62
     5
 10
-22.2261181725579
 20
-61.510508879933241
 30
0.0
 11
-12.27243675176862
 21
-60.04007867004384
 31
0.0
  0
LINE
  8
DETAIL
  6
CONTINUOUS
 62
     5
 10
-12.27243675176862
 20
-60.04007867004384
 30
0.0
 11
-2.4884203551973769
 21
-59.248308557026803
 31
0.0
  0
LINE
  8
DETAIL
  6
CONTINUOUS
 62
     5
 10
-2.4884203551973769
 20
-59.248308557026803
 30
0.0
 11
7.5218160736648088
 21
-59.531083597389852
 31
0.0
  0
LINE
  8
DETAIL
  6
CONTINUOUS
 62
     5
 10
7.5218160736648088
 20
-59.531083597389852
 30
0.0
 11
17.475497494454089
 21
-60.492518734625257
 31
0.0
  0
LINE
  8
DETAIL
  6
CONTINUOUS
 62
     5
 10
17.475497494454089
 20
-60.492518734625257
 30
0.0
 11
27.202958882952771
 21
-62.528499025241217
 31
0.0
  0
LINE
  8
DETAIL
  6
CONTINUOUS
 62
     5
 10
27.202958882952771
 20
-62.528499025241217
 30
0.0
 11
36.986975279524358
 21
-65.29969442080187
 31
0.0
  0
LINE
  8
DETAIL
  6
CONTINUOUS
 62
     5
 10
36.986975279524358
 20
-65.29969442080187
 30
0.0
 11
46.148886587296147
 21
-68.806104921307451
 31
0.0
  0
LINE
  8
DETAIL
  6
CONTINUOUS
 62
     5
 10
46.148886587296147
 20
-68.806104921307451
 30
0.0
 11
55.141132870850022
 21
-73.217395550975425
 31
0.0
  0
LINE
  8
DETAIL
  6
CONTINUOUS
 62
     5
 10
55.141132870850022
 20
-73.217395550975425
 30
0.0
 11
63.624384081750243
 21
-78.194236261369952
 31
0.0
  0
LINE
  8
DETAIL
  6
CONTINUOUS
 62
     5
 10
63.624384081750243
 20
-78.194236261369952
 30
0.0
 11
71.598640219996469
 21
-84.189067117072682
 31
0.0
  0
LINE
  8
DETAIL
  6
CONTINUOUS
 62
     5
 10
71.598640219996469
 20
-84.189067117072682
 30
0.0
 11
79.403231334024198
 21
-90.6928930454294
 31
0.0
  0
LINE
  8
DETAIL
  6
CONTINUOUS
 62
     5
 10
79.403231334024198
 20
-90.6928930454294
 30
0.0
 11
86.302942318889563
 21
-97.762269054512672
 31
0.0
  0
LINE
  8
DETAIL
  6
CONTINUOUS
 62
     5
 10
86.302942318889563
 20
-97.762269054512672
 30
0.0
 11
92.580548214955783
 21
-105.4537501523955
 31
0.0
  0
LINE
  8
DETAIL
  6
CONTINUOUS
 62
     5
 10
92.580548214955783
 20
-105.4537501523955
 30
0.0
 11
98.236049022222232
 21
-113.7107813310049
 31
0.0
  0
LINE
  8
DETAIL
  6
CONTINUOUS
 62
     5
 10
98.236049022222232
 20
-113.7107813310049
 30
0.0
 11
103.04322470839909
 21
-122.4202525741955
 31
0.0
  0
LINE
  8
DETAIL
  6
CONTINUOUS
 62
     5
 10
103.04322470839909
 20
-122.4202525741955
 30
0.0
 11
107.3414053219216
 21
-131.4124988577494
 31
0.0
  0
LINE
  8
DETAIL
  6
CONTINUOUS
 62
     5
 10
107.3414053219216
 20
-131.4124988577494
 30
0.0
 11
110.56504078206351
 21
-140.57441016552161
 31
0.0
  0
LINE
  8
DETAIL
  6
CONTINUOUS
 62
     5
 10
110.56504078206351
 20
-140.57441016552161
 30
0.0
 11
113.2231261614788
 21
-150.35842656209269
 31
0.0
  0
LINE
  8
DETAIL
  6
CONTINUOUS
 62
     5
 10
113.2231261614788
 20
-150.35842656209269
 30
0.0
 11
114.8066663875138
 21
-160.14244295866411
 31
0.0
  0
LINE
  8
DETAIL
  6
CONTINUOUS
 62
     5
 10
114.8066663875138
 20
-160.14244295866411
 30
0.0
 11
115.71154651667629
 21
-170.15267938752621
 31
0.0
  0
LINE
  8
DETAIL
  6
CONTINUOUS
 62
     5
 10
115.71154651667629
 20
-170.15267938752621
 30
0.0
 11
115.71154651667629
 21
-180.10636080831549
 31
0.0
  0
LINE
  8
DETAIL
  6
CONTINUOUS
 62
     5
 10
115.71154651667629
 20
-180.10636080831549
 30
0.0
 11
114.8066663875138
 21
-190.11659723717781
 31
0.0
  0
LINE
  8
DETAIL
  6
CONTINUOUS
 62
     5
 10
114.8066663875138
 20
-190.11659723717781
 30
0.0
 11
113.2231261614788
 21
-199.78750361760379
 31
0.0
  0
LINE
  8
DETAIL
  6
CONTINUOUS
 62
     5
 10
113.2231261614788
 20
-199.78750361760379
 30
0.0
 11
110.56504078206351
 21
-209.57152001417509
 31
0.0
  0
LINE
  8
DETAIL
  6
CONTINUOUS
 62
     5
 10
110.56504078206351
 20
-209.57152001417509
 30
0.0
 11
107.3414053219216
 21
-218.73343132194691
 31
0.0
  0
LINE
  8
DETAIL
  6
CONTINUOUS
 62
     5
 10
107.3414053219216
 20
-218.73343132194691
 30
0.0
 11
103.04322470839909
 21
-227.95189763779169
 31
0.0
  0
LINE
  8
DETAIL
  6
CONTINUOUS
 62
     5
 10
103.04322470839909
 20
-227.95189763779169
 30
0.0
 11
98.236049022222232
 21
-236.54825886483701
 31
0.0
  0
LINE
  8
DETAIL
  6
CONTINUOUS
 62
     5
 10
98.236049022222232
 20
-236.54825886483701
 30
0.0
 11
92.580548214955783
 21
-244.69218002730119
 31
0.0
  0
LINE
  8
DETAIL
  6
CONTINUOUS
 62
     5
 10
92.580548214955783
 20
-244.69218002730119
 30
0.0
 11
86.302942318889563
 21
-252.38366112518381
 31
0.0
  0
LINE
  8
DETAIL
  6
CONTINUOUS
 62
     5
 10
86.302942318889563
 20
-252.38366112518381
 30
0.0
 11
79.403231334024198
 21
-259.67925716655782
 31
0.0
  0
LINE
  8
DETAIL
  6
CONTINUOUS
 62
     5
 10
79.403231334024198
 20
-259.67925716655782
 30
0.0
 11
71.598640219996469
 21
-266.18308309491448
 31
0.0
  0
LINE
  8
DETAIL
  6
CONTINUOUS
 62
     5
 10
71.598640219996469
 20
-266.18308309491448
 30
0.0
 11
63.624384081750243
 21
-271.95169391832638
 31
0.0
  0
LINE
  8
DETAIL
  6
CONTINUOUS
 62
     5
 10
63.624384081750243
 20
-271.95169391832638
 30
0.0
 11
55.141132870850022
 21
-276.92853462872131
 31
0.0
  0
LINE
  8
DETAIL
  6
CONTINUOUS
 62
     5
 10
55.141132870850022
 20
-276.92853462872131
 30
0.0
 11
46.148886587296147
 21
-281.45293527453458
 31
0.0
  0
LINE
  8
DETAIL
  6
CONTINUOUS
 62
     5
 10
46.148886587296147
 20
-281.45293527453458
 30
0.0
 11
36.986975279524358
 21
-284.84623575889441
 31
0.0
  0
LINE
  8
DETAIL
  6
CONTINUOUS
 62
     5
 10
36.986975279524358
 20
-284.84623575889441
 30
0.0
 11
27.202958882952771
 21
-287.61743115445529
 31
0.0
  0
LINE
  8
DETAIL
  6
CONTINUOUS
 62
     5
 10
27.202958882952771
 20
-287.61743115445529
 30
0.0
 11
17.475497494454089
 21
-289.65341144507119
 31
0.0
  0
LINE
  8
DETAIL
  6
CONTINUOUS
 62
     5
 10
17.475497494454089
 20
-289.65341144507119
 30
0.0
 11
7.5218160736648088
 21
-290.61484658230643
 31
0.0
  0
LINE
  8
DETAIL
  6
CONTINUOUS
 62
     5
 10
7.5218160736648088
 20
-290.61484658230643
 30
0.0
 11
-2.4884203551973769
 21
-290.9541766307425
 31
0.0
  0
LINE
  8
DETAIL
  6
CONTINUOUS
 62
     5
 10
-2.4884203551973769
 20
-290.9541766307425
 30
0.0
 11
-12.27243675176862
 21
-290.10585150965238
 31
0.0
  0
LINE
  8
DETAIL
  6
CONTINUOUS
 62
     5
 10
-12.27243675176862
 20
-290.10585150965238
 30
0.0
 11
-22.2261181725579
 21
-288.63542129976332
 31
0.0
  0
LINE
  8
DETAIL
  6
CONTINUOUS
 62
     5
 10
-22.2261181725579
 20
-288.63542129976332
 30
0.0
 11
-32.010134569129491
 21
-286.42977598492939
 31
0.0
  0
LINE
  8
DETAIL
  6
CONTINUOUS
 62
     5
 10
-32.010134569129491
 20
-286.42977598492939
 30
0.0
 11
-41.511375925337347
 21
-283.14958551671452
 31
0.0
  0
LINE
  8
DETAIL
  6
CONTINUOUS
 62
     5
 10
-41.511375925337347
 20
-283.14958551671452
 30
0.0
 11
-50.390512192745973
 21
-279.13417994355518
 31
0.0
  0
LINE
  8
DETAIL
  6
CONTINUOUS
 62
     5
 10
-50.390512192745973
 20
-279.13417994355518
 30
0.0
 11
-59.156538444009577
 21
-274.66633430581442
 31
0.0
  0
LINE
  8
DETAIL
  6
CONTINUOUS
 62
     5
 10
-59.156538444009577
 20
-274.66633430581442
 30
0.0
 11
-67.639789654909464
 21
-269.1804985227659
 31
0.0
  0
LINE
  8
DETAIL
  6
CONTINUOUS
 62
     5
 10
-67.639789654909464
 20
-269.1804985227659
 30
0.0
 11
-75.331270752792307
 21
-262.90289262669972
 31
0.0
  0
LINE
  8
DETAIL
  6
CONTINUOUS
 62
     5
 10
-75.331270752792307
 20
-262.90289262669972
 30
0.0
 11
-82.626866794166062
 21
-256.17284666605252
 31
0.0
  0
LINE
  8
DETAIL
  6
CONTINUOUS
 62
     5
 10
-82.626866794166062
 20
-256.17284666605252
 30
0.0
 11
-89.413467762886057
 21
-248.70758560046059
 31
0.0
  0
LINE
  8
DETAIL
  6
CONTINUOUS
 62
     5
 10
-89.413467762886057
 20
-248.70758560046059
 30
0.0
 11
-95.295188602443659
 21
-240.73332946221419
 31
0.0
  0
LINE
  8
DETAIL
  6
CONTINUOUS
 62
     5
 10
-95.295188602443659
 20
-240.73332946221419
 30
0.0
 11
-100.6113593612743
 21
-232.25007825131431
 31
0.0
  0
LINE
  8
DETAIL
  6
CONTINUOUS
 62
     5
 10
-100.6113593612743
 20
-232.25007825131431
 30
0.0
 11
-105.07920499901481
 21
-223.54060700812369
 31
0.0
  0
LINE
  8
DETAIL
  6
CONTINUOUS
 62
     5
 10
-105.07920499901481
 20
-223.54060700812369
 30
0.0
 11
-108.86839053988341
 21
-214.2655856842064
 31
0.0
  0
LINE
  8
DETAIL
  6
CONTINUOUS
 62
     5
 10
-108.86839053988341
 20
-214.2655856842064
 30
0.0
 11
-111.8658059677348
 21
-204.76434432799829
 31
0.0
  0
LINE
  8
DETAIL
  6
CONTINUOUS
 62
     5
 10
-111.8658059677348
 20
-204.76434432799829
 30
0.0
 11
-114.0714512825691
 21
-195.09343794757211
 31
0.0
  0
LINE
  8
DETAIL
  6
CONTINUOUS
 62
     5
 10
-114.0714512825691
 20
-195.09343794757211
 30
0.0
 11
-115.259106452095
 21
-185.08320151871021
 31
0.0
  0
LINE
  8
DETAIL
  6
CONTINUOUS
 62
     5
 10
-115.259106452095
 20
-185.08320151871021
 30
0.0
 11
-115.8812115408941
 21
-175.1295200979207
 31
0.0
  0
LINE
  8
DETAIL
  6
CONTINUOUS
 62
     5
 10
-101.6293495065822
 20
-271.66891887796322
 30
0.0
 11
-102.0817895711637
 21
-272.17791395061732
 31
0.0
  0
LINE
  8
DETAIL
  6
CONTINUOUS
 62
     5
 10
-102.0817895711637
 20
-272.17791395061732
 30
0.0
 11
-102.5907846438174
 21
-272.17791395061732
 31
0.0
  0
LINE
  8
DETAIL
  6
CONTINUOUS
 62
     5
 10
-102.5907846438174
 20
-272.17791395061732
 30
0.0
 11
-103.38255475683469
 21
-272.17791395061732
 31
0.0
  0
LINE
  8
DETAIL
  6
CONTINUOUS
 62
     5
 10
-103.38255475683469
 20
-272.17791395061732
 30
0.0
 11
-103.8915498294887
 21
-271.95169391832638
 31
0.0
  0
LINE
  8
DETAIL
  6
CONTINUOUS
 62
     5
 10
-103.8915498294887
 20
-271.95169391832638
 30
0.0
 11
-104.4005449021427
 21
-271.66891887796322
 31
0.0
  0
LINE
  8
DETAIL
  6
CONTINUOUS
 62
     5
 10
-92.806768247245827
 20
-282.86681047635108
 30
0.0
 11
-93.146098295681895
 21
-282.35781540369692
 31
0.0
  0
LINE
  8
DETAIL
  6
CONTINUOUS
 62
     5
 10
-93.146098295681895
 20
-282.35781540369692
 30
0.0
 11
-93.428873336045626
 21
-281.96193034718863
 31
0.0
  0
LINE
  8
DETAIL
  6
CONTINUOUS
 62
     5
 10
-93.428873336045626
 20
-281.96193034718863
 30
0.0
 11
-93.428873336045626
 21
-281.17016023417108
 31
0.0
  0
LINE
  8
DETAIL
  6
CONTINUOUS
 62
     5
 10
-93.428873336045626
 20
-281.17016023417108
 30
0.0
 11
-93.428873336045626
 21
-280.32183511308108
 31
0.0
  0
LINE
  8
DETAIL
  6
CONTINUOUS
 62
     5
 10
-93.428873336045626
 20
-280.32183511308108
 30
0.0
 11
-92.806768247245827
 21
-279.86939504849971
 31
0.0
  0
LINE
  8
DETAIL
  6
CONTINUOUS
 62
     5
 10
-127.2487681635002
 20
-122.4202525741955
 30
0.0
 11
-125.5521179213199
 21
-123.43824271950351
 31
0.0
  0
LINE
  8
DETAIL
  6
CONTINUOUS
 62
     5
 10
-125.5521179213199
 20
-123.43824271950351
 30
0.0
 11
-124.081687711431
 21
-125.1914479697562
 31
0.0
  0
LINE
  8
DETAIL
  6
CONTINUOUS
 62
     5
 10
-124.081687711431
 20
-125.1914479697562
 30
0.0
 11
-123.572692638777
 21
-126.888098211936
 31
0.0
  0
LINE
  8
DETAIL
  6
CONTINUOUS
 62
     5
 10
-123.572692638777
 20
-126.888098211936
 30
0.0
 11
-123.572692638777
 21
-128.92407850255199
 31
0.0
  0
LINE
  8
DETAIL
  6
CONTINUOUS
 62
     5
 10
-123.572692638777
 20
-128.92407850255199
 30
0.0
 11
-124.36446275179399
 21
-130.90350378509541
 31
0.0
  0
LINE
  8
DETAIL
  6
CONTINUOUS
 62
     5
 10
-124.36446275179399
 20
-130.90350378509541
 30
0.0
 11
-125.5521179213199
 21
-132.71326404342079
 31
0.0
  0
LINE
  8
DETAIL
  6
CONTINUOUS
 62
     5
 10
-125.5521179213199
 20
-132.71326404342079
 30
0.0
 11
-127.2487681635002
 21
-133.67469918065629
 31
0.0
  0
LINE
  8
DETAIL
  6
CONTINUOUS
 62
     5
 10
-127.2487681635002
 20
-133.67469918065629
 30
0.0
 11
-129.34130346218879
 21
-133.90091921294669
 31
0.0
  0
LINE
  8
DETAIL
  6
CONTINUOUS
 62
     5
 10
-129.34130346218879
 20
-133.90091921294669
 30
0.0
 11
-131.37728375280469
 21
-133.67469918065629
 31
0.0
  0
LINE
  8
DETAIL
  6
CONTINUOUS
 62
     5
 10
-133.52637405956631
 20
-132.8829290676388
 30
0.0
 11
-131.54694877702289
 21
-133.67469918065629
 31
0.0
  0
LINE
  8
DETAIL
  6
CONTINUOUS
 62
     5
 10
-104.4005449021427
 20
-271.66891887796322
 30
0.0
 11
-110.9043708304994
 21
-264.20365781237109
 31
0.0
  0
LINE
  8
DETAIL
  6
CONTINUOUS
 62
     5
 10
-110.9043708304994
 20
-264.20365781237109
 30
0.0
 11
-116.8992016862021
 21
-256.17284666605252
 31
0.0
  0
LINE
  8
DETAIL
  6
CONTINUOUS
 62
     5
 10
-116.8992016862021
 20
-256.17284666605252
 30
0.0
 11
-122.04570742081501
 21
-247.9158154874431
 31
0.0
  0
LINE
  8
DETAIL
  6
CONTINUOUS
 62
     5
 10
-122.04570742081501
 20
-247.9158154874431
 30
0.0
 11
-126.8528831069918
 21
-239.54567429268829
 31
0.0
  0
LINE
  8
DETAIL
  6
CONTINUOUS
 62
     5
 10
-126.8528831069918
 20
-239.54567429268829
 30
0.0
 11
-131.0379537043689
 21
-230.44031799298909
 31
0.0
  0
LINE
  8
DETAIL
  6
CONTINUOUS
 62
     5
 10
-131.0379537043689
 20
-230.44031799298909
 30
0.0
 11
-134.54436420487451
 21
-221.22185167714429
 31
0.0
  0
LINE
  8
DETAIL
  6
CONTINUOUS
 62
     5
 10
-134.54436420487451
 20
-221.22185167714429
 30
0.0
 11
-137.37211460850739
 21
-211.77716532900899
 31
0.0
  0
LINE
  8
DETAIL
  6
CONTINUOUS
 62
     5
 10
-137.37211460850739
 20
-211.77716532900899
 30
0.0
 11
-139.52120491526901
 21
-202.27592397280091
 31
0.0
  0
LINE
  8
DETAIL
  6
CONTINUOUS
 62
     5
 10
-139.52120491526901
 20
-202.27592397280091
 30
0.0
 11
-141.04819013323089
 21
-192.60501759237511
 31
0.0
  0
LINE
  8
DETAIL
  6
CONTINUOUS
 62
     5
 10
-141.04819013323089
 20
-192.60501759237511
 30
0.0
 11
-142.00962527046639
 21
-182.82100119580349
 31
0.0
  0
LINE
  8
DETAIL
  6
CONTINUOUS
 62
     5
 10
-142.00962527046639
 20
-182.82100119580349
 30
0.0
 11
-142.3489553189024
 21
-172.8107647669417
 31
0.0
  0
LINE
  8
DETAIL
  6
CONTINUOUS
 62
     5
 10
-142.3489553189024
 20
-172.8107647669417
 30
0.0
 11
-141.83996024624841
 21
-163.02674837037009
 31
0.0
  0
LINE
  8
DETAIL
  6
CONTINUOUS
 62
     5
 10
-141.83996024624841
 20
-163.02674837037009
 30
0.0
 11
-140.53919506057699
 21
-153.35584198994411
 31
0.0
  0
LINE
  8
DETAIL
  6
CONTINUOUS
 62
     5
 10
-140.53919506057699
 20
-153.35584198994411
 30
0.0
 11
-138.84254481839679
 21
-143.68493560951811
 31
0.0
  0
LINE
  8
DETAIL
  6
CONTINUOUS
 62
     5
 10
-138.84254481839679
 20
-143.68493560951811
 30
0.0
 11
-136.3541244631995
 21
-134.07058423716489
 31
0.0
  0
LINE
  8
DETAIL
  6
CONTINUOUS
 62
     5
 10
-129.5675234944797
 20
-121.62848246117819
 30
0.0
 11
-130.07651856713369
 21
-121.23259740466941
 31
0.0
  0
LINE
  8
DETAIL
  6
CONTINUOUS
 62
     5
 10
-130.07651856713369
 20
-121.23259740466941
 30
0.0
 11
-130.52895863171489
 21
-120.61049231587
 31
0.0
  0
LINE
  8
DETAIL
  6
CONTINUOUS
 62
     5
 10
-130.52895863171489
 20
-120.61049231587
 30
0.0
 11
-130.86828868015101
 21
-120.2146072593614
 31
0.0
  0
LINE
  8
DETAIL
  6
CONTINUOUS
 62
     5
 10
-130.86828868015101
 20
-120.2146072593614
 30
0.0
 11
-130.86828868015101
 21
-119.42283714634409
 31
0.0
  0
LINE
  8
DETAIL
  6
CONTINUOUS
 62
     5
 10
-130.86828868015101
 20
-119.42283714634409
 30
0.0
 11
-130.52895863171489
 21
-118.91384207369011
 31
0.0
  0
LINE
  8
DETAIL
  6
CONTINUOUS
 62
     5
 10
-136.3541244631995
 20
-134.07058423716489
 30
0.0
 11
-135.84512939054571
 21
-133.67469918065629
 31
0.0
  0
LINE
  8
DETAIL
  6
CONTINUOUS
 62
     5
 10
-135.84512939054571
 20
-133.67469918065629
 30
0.0
 11
-135.5623543501824
 21
-133.10914909992971
 31
0.0
  0
LINE
  8
DETAIL
  6
CONTINUOUS
 62
     5
 10
-135.5623543501824
 20
-133.10914909992971
 30
0.0
 11
-134.77058423716471
 21
-132.8829290676388
 31
0.0
  0
LINE
  8
DETAIL
  6
CONTINUOUS
 62
     5
 10
-134.77058423716471
 20
-132.8829290676388
 30
0.0
 11
-134.37469918065651
 21
-132.71326404342079
 31
0.0
  0
LINE
  8
DETAIL
  6
CONTINUOUS
 62
     5
 10
-134.37469918065651
 20
-132.71326404342079
 30
0.0
 11
-133.52637405956631
 21
-132.8829290676388
 31
0.0
  0
LINE
  8
DETAIL
  6
CONTINUOUS
 62
     5
 10
-130.52895863171489
 20
-118.91384207369011
 30
0.0
 11
-126.3438880343376
 21
-109.9215957901361
 31
0.0
  0
LINE
  8
DETAIL
  6
CONTINUOUS
 62
     5
 10
-126.3438880343376
 20
-109.9215957901361
 30
0.0
 11
-121.5932673562336
 21
-101.4383445792362
 31
0.0
  0
LINE
  8
DETAIL
  6
CONTINUOUS
 62
     5
 10
-121.5932673562336
 20
-101.4383445792362
 30
0.0
 11
-116.1074315731851
 21
-92.955093368336065
 31
0.0
  0
LINE
  8
DETAIL
  6
CONTINUOUS
 62
     5
 10
-116.1074315731851
 20
-92.955093368336065
 30
0.0
 11
-110.11260071748229
 21
-85.263612270453223
 31
0.0
  0
LINE
  8
DETAIL
  6
CONTINUOUS
 62
     5
 10
-110.11260071748229
 20
-85.263612270453223
 30
0.0
 11
-103.60877478912541
 21
-77.798351204861319
 31
0.0
  0
LINE
  8
DETAIL
  6
CONTINUOUS
 62
     5
 10
-103.60877478912541
 20
-77.798351204861319
 30
0.0
 11
-96.595953788114684
 21
-70.728975195778048
 31
0.0
  0
LINE
  8
DETAIL
  6
CONTINUOUS
 62
     5
 10
-96.595953788114684
 20
-70.728975195778048
 30
0.0
 11
-89.130692722523008
 21
-64.22514926742133
 31
0.0
  0
LINE
  8
DETAIL
  6
CONTINUOUS
 62
     5
 10
-89.130692722523008
 20
-64.22514926742133
 30
0.0
 11
-81.439211624640166
 21
-58.513093452081883
 31
0.0
  0
LINE
  8
DETAIL
  6
CONTINUOUS
 62
     5
 10
-81.439211624640166
 20
-58.513093452081883
 30
0.0
 11
-73.125625437958206
 21
-53.027257669033133
 31
0.0
  0
LINE
  8
DETAIL
  6
CONTINUOUS
 62
     5
 10
-73.125625437958206
 20
-53.027257669033133
 30
0.0
 11
-64.472709202839951
 21
-48.220081982856748
 31
0.0
  0
LINE
  8
DETAIL
  6
CONTINUOUS
 62
     5
 10
-64.472709202839951
 20
-48.220081982856748
 30
0.0
 11
-55.367352903140947
 21
-44.035011385479272
 31
0.0
  0
LINE
  8
DETAIL
  6
CONTINUOUS
 62
     5
 10
-55.367352903140947
 20
-44.035011385479272
 30
0.0
 11
-46.205441595368711
 21
-40.528600884973912
 31
0.0
  0
LINE
  8
DETAIL
  6
CONTINUOUS
 62
     5
 10
-46.205441595368711
 20
-40.528600884973912
 30
0.0
 11
-36.704200239160507
 21
-37.531185457122547
 31
0.0
  0
LINE
  8
DETAIL
  6
CONTINUOUS
 62
     5
 10
-36.704200239160507
 20
-37.531185457122547
 30
0.0
 11
-27.202958882952661
 21
-35.551760174579158
 31
0.0
  0
LINE
  8
DETAIL
  6
CONTINUOUS
 62
     5
 10
-27.202958882952661
 20
-35.551760174579158
 30
0.0
 11
-17.41894248638107
 21
-33.855109932399273
 31
0.0
  0
LINE
  8
DETAIL
  6
CONTINUOUS
 62
     5
 10
-17.41894248638107
 20
-33.855109932399273
 30
0.0
 11
-7.4652610655921308
 21
-33.063339819382008
 31
0.0
  0
LINE
  8
DETAIL
  6
CONTINUOUS
 62
     5
 10
-7.4652610655921308
 20
-33.063339819382008
 30
0.0
 11
2.205645314833987
 21
-32.837119787091297
 31
0.0
  0
LINE
  8
DETAIL
  6
CONTINUOUS
 62
     5
 10
2.205645314833987
 20
-32.837119787091297
 30
0.0
 11
12.215881743696171
 21
-33.28955985167272
 31
0.0
  0
LINE
  8
DETAIL
  6
CONTINUOUS
 62
     5
 10
12.215881743696171
 20
-33.28955985167272
 30
0.0
 11
21.999898140267419
 21
-34.590325037343973
 31
0.0
  0
LINE
  8
DETAIL
  6
CONTINUOUS
 62
     5
 10
21.999898140267419
 20
-34.590325037343973
 30
0.0
 11
31.67080452069354
 21
-36.34353028759665
 31
0.0
  0
LINE
  8
DETAIL
  6
CONTINUOUS
 62
     5
 10
31.67080452069354
 20
-36.34353028759665
 30
0.0
 11
41.172045876901393
 21
-39.058170675084511
 31
0.0
  0
LINE
  8
DETAIL
  6
CONTINUOUS
 62
     5
 10
41.172045876901393
 20
-39.058170675084511
 30
0.0
 11
50.616732225037033
 21
-42.055586102935877
 31
0.0
  0
LINE
  8
DETAIL
  6
CONTINUOUS
 62
     5
 10
50.616732225037033
 20
-42.055586102935877
 30
0.0
 11
59.608978508590887
 21
-46.070991676095218
 31
0.0
  0
LINE
  8
DETAIL
  6
CONTINUOUS
 62
     5
 10
59.608978508590887
 20
-46.070991676095218
 30
0.0
 11
68.601224792144649
 21
-50.312617281545272
 31
0.0
  0
LINE
  8
DETAIL
  6
CONTINUOUS
 62
     5
 10
68.601224792144649
 20
-50.312617281545272
 30
0.0
 11
77.08447600304487
 21
-55.51567802423051
 31
0.0
  0
LINE
  8
DETAIL
  6
CONTINUOUS
 62
     5
 10
77.08447600304487
 20
-55.51567802423051
 30
0.0
 11
85.058732141291088
 21
-61.001513807279252
 31
0.0
  0
LINE
  8
DETAIL
  6
CONTINUOUS
 62
     5
 10
93.089543287609786
 20
-73.500170591338474
 30
0.0
 11
91.562558069647594
 21
-74.800935777009954
 31
0.0
  0
LINE
  8
DETAIL
  6
CONTINUOUS
 62
     5
 10
91.562558069647594
 20
-74.800935777009954
 30
0.0
 11
89.583132787104191
 21
-75.479595873881863
 31
0.0
  0
LINE
  8
DETAIL
  6
CONTINUOUS
 62
     5
 10
89.583132787104191
 20
-75.479595873881863
 30
0.0
 11
87.603707504561044
 21
-75.479595873881863
 31
0.0
  0
LINE
  8
DETAIL
  6
CONTINUOUS
 62
     5
 10
87.603707504561044
 20
-75.479595873881863
 30
0.0
 11
85.567727213945091
 21
-74.800935777009954
 31
0.0
  0
LINE
  8
DETAIL
  6
CONTINUOUS
 62
     5
 10
85.567727213945091
 20
-74.800935777009954
 30
0.0
 11
84.09729700405569
 21
-73.500170591338474
 31
0.0
  0
LINE
  8
DETAIL
  6
CONTINUOUS
 62
     5
 10
84.09729700405569
 20
-73.500170591338474
 30
0.0
 11
83.079306858747699
 21
-71.69041033301346
 31
0.0
  0
LINE
  8
DETAIL
  6
CONTINUOUS
 62
     5
 10
83.079306858747699
 20
-71.69041033301346
 30
0.0
 11
82.570311786093725
 21
-69.824095066615428
 31
0.0
  0
LINE
  8
DETAIL
  6
CONTINUOUS
 62
     5
 10
82.570311786093725
 20
-69.824095066615428
 30
0.0
 11
82.796531818384196
 21
-67.505339735636198
 31
0.0
  0
LINE
  8
DETAIL
  6
CONTINUOUS
 62
     5
 10
82.796531818384196
 20
-67.505339735636198
 30
0.0
 11
83.757966955619622
 21
-65.69557947731073
 31
0.0
  0
LINE
  8
DETAIL
  6
CONTINUOUS
 62
     5
 10
85.567727213945091
 20
-63.998929235130618
 30
0.0
 11
84.09729700405569
 21
-65.69557947731073
 31
0.0
  0
LINE
  8
DETAIL
  6
CONTINUOUS
 62
     5
 10
94.559973497498987
 20
-71.69041033301346
 30
0.0
 11
93.259208311827805
 21
-73.500170591338474
 31
0.0
  0
LINE
  8
DETAIL
  6
CONTINUOUS
 62
     5
 10
94.559973497498987
 20
-71.69041033301346
 30
0.0
 11
95.068968570152933
 21
-71.294525276504601
 31
0.0
  0
LINE
  8
DETAIL
  6
CONTINUOUS
 62
     5
 10
95.068968570152933
 20
-71.294525276504601
 30
0.0
 11
95.747628667024841
 21
-71.011750236141552
 31
0.0
  0
LINE
  8
DETAIL
  6
CONTINUOUS
 62
     5
 10
95.747628667024841
 20
-71.011750236141552
 30
0.0
 11
96.256623739678844
 21
-71.011750236141552
 31
0.0
  0
LINE
  8
DETAIL
  6
CONTINUOUS
 62
     5
 10
96.256623739678844
 20
-71.011750236141552
 30
0.0
 11
97.048393852696307
 21
-71.294525276504601
 31
0.0
  0
LINE
  8
DETAIL
  6
CONTINUOUS
 62
     5
 10
97.048393852696307
 20
-71.294525276504601
 30
0.0
 11
97.55738892535031
 21
-71.52074530879554
 31
0.0
  0
LINE
  8
DETAIL
  6
CONTINUOUS
 62
     5
 10
85.058732141291088
 20
-61.001513807279252
 30
0.0
 11
85.567727213945091
 21
-61.510508879933241
 31
0.0
  0
LINE
  8
DETAIL
  6
CONTINUOUS
 62
     5
 10
85.567727213945091
 20
-61.510508879933241
 30
0.0
 11
85.793947246235561
 21
-62.019503952587229
 31
0.0
  0
LINE
  8
DETAIL
  6
CONTINUOUS
 62
     5
 10
85.793947246235561
 20
-62.019503952587229
 30
0.0
 11
85.793947246235561
 21
-62.811274065604721
 31
0.0
  0
LINE
  8
DETAIL
  6
CONTINUOUS
 62
     5
 10
85.793947246235561
 20
-62.811274065604721
 30
0.0
 11
85.793947246235561
 21
-63.489934162476629
 31
0.0
  0
LINE
  8
DETAIL
  6
CONTINUOUS
 62
     5
 10
85.793947246235561
 20
-63.489934162476629
 30
0.0
 11
85.567727213945091
 21
-63.998929235130618
 31
0.0
  0
LINE
  8
DETAIL
  6
CONTINUOUS
 62
     5
 10
97.55738892535031
 20
-71.52074530879554
 30
0.0
 11
104.570209926361
 21
-78.477011301733455
 31
0.0
  0
LINE
  8
DETAIL
  6
CONTINUOUS
 62
     5
 10
104.570209926361
 20
-78.477011301733455
 30
0.0
 11
111.017480846645
 21
-85.99882737539815
 31
0.0
  0
LINE
  8
DETAIL
  6
CONTINUOUS
 62
     5
 10
111.017480846645
 20
-85.99882737539815
 30
0.0
 11
116.8426466781298
 21
-93.74686348135333
 31
0.0
  0
LINE
  8
DETAIL
  6
CONTINUOUS
 62
     5
 10
116.8426466781298
 20
-93.74686348135333
 30
0.0
 11
122.3284824611783
 21
-102.23011469225369
 31
0.0
  0
LINE
  8
DETAIL
  6
CONTINUOUS
 62
     5
 10
122.3284824611783
 20
-102.23011469225369
 30
0.0
 11
127.0225481312098
 21
-110.6568108950805
 31
0.0
  0
LINE
  8
DETAIL
  6
CONTINUOUS
 62
     5
 10
127.0225481312098
 20
-110.6568108950805
 30
0.0
 11
130.98139869629631
 21
-119.7056121867072
 31
0.0
  0
LINE
  8
DETAIL
  6
CONTINUOUS
 62
     5
 10
130.98139869629631
 20
-119.7056121867072
 30
0.0
 11
134.48780919680169
 21
-128.92407850255199
 31
0.0
  0
LINE
  8
DETAIL
  6
CONTINUOUS
 62
     5
 10
134.48780919680169
 20
-128.92407850255199
 30
0.0
 11
137.48522462465311
 21
-138.08598981032421
 31
0.0
  0
LINE
  8
DETAIL
  6
CONTINUOUS
 62
     5
 10
137.48522462465311
 20
-138.08598981032421
 30
0.0
 11
139.80397995563251
 21
-147.8700062068954
 31
0.0
  0
LINE
  8
DETAIL
  6
CONTINUOUS
 62
     5
 10
139.80397995563251
 20
-147.8700062068954
 30
0.0
 11
141.1613001493765
 21
-157.65402260346701
 31
0.0
  0
LINE
  8
DETAIL
  6
CONTINUOUS
 62
     5
 10
141.1613001493765
 20
-157.65402260346701
 30
0.0
 11
142.0096252704665
 21
-167.32492898389299
 31
0.0
  0
LINE
  8
DETAIL
  6
CONTINUOUS
 62
     5
 10
142.0096252704665
 20
-167.32492898389299
 30
0.0
 11
142.29240031082969
 21
-177.10894538046429
 31
0.0
  0
LINE
  8
DETAIL
  6
CONTINUOUS
 62
     5
 10
142.29240031082969
 20
-177.10894538046429
 30
0.0
 11
141.78340523817579
 21
-187.11918180932619
 31
0.0
  0
LINE
  8
DETAIL
  6
CONTINUOUS
 62
     5
 10
141.78340523817579
 20
-187.11918180932619
 30
0.0
 11
140.70886008479511
 21
-196.7900881897522
 31
0.0
  0
LINE
  8
DETAIL
  6
CONTINUOUS
 62
     5
 10
140.70886008479511
 20
-196.7900881897522
 30
0.0
 11
138.67287979417921
 21
-206.4609945701782
 31
0.0
  0
LINE
  8
DETAIL
  6
CONTINUOUS
 62
     5
 10
134.31814417258369
 20
-222.07017679823429
 30
0.0
 11
130.69862365593301
 21
-231.23208810600639
 31
0.0
  0
LINE
  8
DETAIL
  6
CONTINUOUS
 62
     5
 10
130.69862365593301
 20
-231.23208810600639
 30
0.0
 11
126.5135530585558
 21
-240.2243343895602
 31
0.0
  0
LINE
  8
DETAIL
  6
CONTINUOUS
 62
     5
 10
126.5135530585558
 20
-240.2243343895602
 30
0.0
 11
121.81948738852429
 21
-248.70758560046059
 31
0.0
  0
LINE
  8
DETAIL
  6
CONTINUOUS
 62
     5
 10
121.81948738852429
 20
-248.70758560046059
 30
0.0
 11
116.2205415893303
 21
-257.19083681136038
 31
0.0
  0
LINE
  8
DETAIL
  6
CONTINUOUS
 62
     5
 10
116.2205415893303
 20
-257.19083681136038
 30
0.0
 11
110.22571073362749
 21
-264.88231790924311
 31
0.0
  0
LINE
  8
DETAIL
  6
CONTINUOUS
 62
     5
 10
110.22571073362749
 20
-264.88231790924311
 30
0.0
 11
103.7218848052711
 21
-272.34757897483519
 31
0.0
  0
LINE
  8
DETAIL
  6
CONTINUOUS
 62
     5
 10
103.7218848052711
 20
-272.34757897483519
 30
0.0
 11
96.878728828478302
 21
-279.47350999199119
 31
0.0
  0
LINE
  8
DETAIL
  6
CONTINUOUS
 62
     5
 10
96.878728828478302
 20
-279.47350999199119
 30
0.0
 11
89.356912754813479
 21
-285.9207809122754
 31
0.0
  0
LINE
  8
DETAIL
  6
CONTINUOUS
 62
     5
 10
89.356912754813479
 20
-285.9207809122754
 30
0.0
 11
81.608876648858299
 21
-291.91561176797802
 31
0.0
  0
LINE
  8
DETAIL
  6
CONTINUOUS
 62
     5
 10
81.608876648858299
 20
-291.91561176797802
 30
0.0
 11
73.125625437958448
 21
-297.11867251066309
 31
0.0
  0
LINE
  8
DETAIL
  6
CONTINUOUS
 62
     5
 10
73.125625437958448
 20
-297.11867251066309
 30
0.0
 11
64.642374227058212
 21
-301.92584819683998
 31
0.0
  0
LINE
  8
DETAIL
  6
CONTINUOUS
 62
     5
 10
64.642374227058212
 20
-301.92584819683998
 30
0.0
 11
55.650127943504003
 21
-306.11091879421718
 31
0.0
  0
LINE
  8
DETAIL
  6
CONTINUOUS
 62
     5
 10
55.650127943504003
 20
-306.11091879421718
 30
0.0
 11
46.318551611514287
 21
-309.61732929472248
 31
0.0
  0
LINE
  8
DETAIL
  6
CONTINUOUS
 62
     5
 10
46.318551611514287
 20
-309.61732929472248
 30
0.0
 11
36.986975279524358
 21
-312.61474472257368
 31
0.0
  0
LINE
  8
DETAIL
  6
CONTINUOUS
 62
     5
 10
36.986975279524358
 20
-312.61474472257368
 30
0.0
 11
27.202958882952771
 21
-314.76383502933533
 31
0.0
  0
LINE
  8
DETAIL
  6
CONTINUOUS
 62
     5
 10
27.202958882952771
 20
-314.76383502933533
 30
0.0
 11
17.475497494454089
 21
-316.40393026344259
 31
0.0
  0
LINE
  8
DETAIL
  6
CONTINUOUS
 62
     5
 10
17.475497494454089
 20
-316.40393026344259
 30
0.0
 11
7.6914810978828427
 21
-317.0825903603145
 31
0.0
  0
LINE
  8
DETAIL
  6
CONTINUOUS
 62
     5
 10
7.6914810978828427
 20
-317.0825903603145
 30
0.0
 11
-2.262200322906438
 21
-317.30881039260521
 31
0.0
  0
LINE
  8
DETAIL
  6
CONTINUOUS
 62
     5
 10
-2.262200322906438
 20
-317.30881039260521
 30
0.0
 11
-12.04621671947802
 21
-316.91292533609658
 31
0.0
  0
LINE
  8
DETAIL
  6
CONTINUOUS
 62
     5
 10
-12.04621671947802
 20
-316.91292533609658
 30
0.0
 11
-22.05645314833987
 21
-315.6121601504251
 31
0.0
  0
LINE
  8
DETAIL
  6
CONTINUOUS
 62
     5
 10
-22.05645314833987
 20
-315.6121601504251
 30
0.0
 11
-31.727359528765991
 21
-313.91550990824521
 31
0.0
  0
LINE
  8
DETAIL
  6
CONTINUOUS
 62
     5
 10
-31.727359528765991
 20
-313.91550990824521
 30
0.0
 11
-41.228600884974178
 21
-311.37053454497533
 31
0.0
  0
LINE
  8
DETAIL
  6
CONTINUOUS
 62
     5
 10
-41.228600884974178
 20
-311.37053454497533
 30
0.0
 11
-50.390512192745973
 21
-308.09034407676057
 31
0.0
  0
LINE
  8
DETAIL
  6
CONTINUOUS
 62
     5
 10
-50.390512192745973
 20
-308.09034407676057
 30
0.0
 11
-59.665533516663572
 21
-304.13149351167391
 31
0.0
  0
LINE
  8
DETAIL
  6
CONTINUOUS
 62
     5
 10
-59.665533516663572
 20
-304.13149351167391
 30
0.0
 11
-68.48811477599952
 21
-299.83331289815118
 31
0.0
  0
LINE
  8
DETAIL
  6
CONTINUOUS
 62
     5
 10
-68.48811477599952
 20
-299.83331289815118
 30
0.0
 11
-76.9713659868994
 21
-294.63025215546583
 31
0.0
  0
LINE
  8
DETAIL
  6
CONTINUOUS
 62
     5
 10
-76.9713659868994
 20
-294.63025215546583
 30
0.0
 11
-85.115287149363439
 21
-289.14441637241731
 31
0.0
  0
LINE
  8
DETAIL
  6
CONTINUOUS
 62
     5
 10
-85.115287149363439
 20
-289.14441637241731
 30
0.0
 11
-92.806768247245827
 21
-282.86681047635108
 31
0.0
  0
LINE
  8
DETAIL
  6
CONTINUOUS
 62
     5
 10
130.69862365593301
 20
-218.73343132194691
 30
0.0
 11
129.00197341375289
 21
-217.7719961847117
 31
0.0
  0
LINE
  8
DETAIL
  6
CONTINUOUS
 62
     5
 10
129.00197341375289
 20
-217.7719961847117
 30
0.0
 11
127.53154320386371
 21
-216.2450109667495
 31
0.0
  0
LINE
  8
DETAIL
  6
CONTINUOUS
 62
     5
 10
127.53154320386371
 20
-216.2450109667495
 30
0.0
 11
126.79632809891901
 21
-214.54836072456959
 31
0.0
  0
LINE
  8
DETAIL
  6
CONTINUOUS
 62
     5
 10
126.79632809891901
 20
-214.54836072456959
 30
0.0
 11
126.5135530585558
 21
-212.56893544202649
 31
0.0
  0
LINE
  8
DETAIL
  6
CONTINUOUS
 62
     5
 10
126.5135530585558
 20
-212.56893544202649
 30
0.0
 11
127.0225481312098
 21
-210.47640014333771
 31
0.0
  0
LINE
  8
DETAIL
  6
CONTINUOUS
 62
     5
 10
127.0225481312098
 20
-210.47640014333771
 30
0.0
 11
128.21020330073571
 21
-208.7797499011576
 31
0.0
  0
LINE
  8
DETAIL
  6
CONTINUOUS
 62
     5
 10
128.21020330073571
 20
-208.7797499011576
 30
0.0
 11
130.0199635590611
 21
-207.5920947316317
 31
0.0
  0
LINE
  8
DETAIL
  6
CONTINUOUS
 62
     5
 10
130.0199635590611
 20
-207.5920947316317
 30
0.0
 11
131.99938884160429
 21
-207.08309965897769
 31
0.0
  0
LINE
  8
DETAIL
  6
CONTINUOUS
 62
     5
 10
131.99938884160429
 20
-207.08309965897769
 30
0.0
 11
133.9788141241477
 21
-207.25276468319569
 31
0.0
  0
LINE
  8
DETAIL
  6
CONTINUOUS
 62
     5
 10
133.01737898691229
 20
-219.5252014349644
 30
0.0
 11
130.69862365593301
 21
-218.73343132194691
 31
0.0
  0
LINE
  8
DETAIL
  6
CONTINUOUS
 62
     5
 10
136.1844594389818
 20
-207.98797978814011
 30
0.0
 11
134.31814417258369
 21
-207.25276468319569
 31
0.0
  0
LINE
  8
DETAIL
  6
CONTINUOUS
 62
     5
 10
138.67287979417921
 20
-206.4609945701782
 30
0.0
 11
138.50321476996109
 21
-207.08309965897769
 31
0.0
  0
LINE
  8
DETAIL
  6
CONTINUOUS
 62
     5
 10
138.50321476996109
 20
-207.08309965897769
 30
0.0
 11
138.16388472152519
 21
-207.5920947316317
 31
0.0
  0
LINE
  8
DETAIL
  6
CONTINUOUS
 62
     5
 10
138.16388472152519
 20
-207.5920947316317
 30
0.0
 11
137.48522462465311
 21
-207.76175975584971
 31
0.0
  0
LINE
  8
DETAIL
  6
CONTINUOUS
 62
     5
 10
137.48522462465311
 20
-207.76175975584971
 30
0.0
 11
136.97622955199921
 21
-207.98797978814011
 31
0.0
  0
LINE
  8
DETAIL
  6
CONTINUOUS
 62
     5
 10
136.97622955199921
 20
-207.98797978814011
 30
0.0
 11
136.1844594389818
 21
-207.98797978814011
 31
0.0
  0
LINE
  8
DETAIL
  6
CONTINUOUS
 62
     5
 10
133.01737898691229
 20
-219.5252014349644
 30
0.0
 11
133.52637405956631
 21
-219.75142146725489
 31
0.0
  0
LINE
  8
DETAIL
  6
CONTINUOUS
 62
     5
 10
133.52637405956631
 20
-219.75142146725489
 30
0.0
 11
133.9788141241477
 21
-220.2604165399089
 31
0.0
  0
LINE
  8
DETAIL
  6
CONTINUOUS
 62
     5
 10
133.9788141241477
 20
-220.2604165399089
 30
0.0
 11
134.31814417258369
 21
-220.76941161256289
 31
0.0
  0
LINE
  8
DETAIL
  6
CONTINUOUS
 62
     5
 10
134.31814417258369
 20
-220.76941161256289
 30
0.0
 11
134.48780919680169
 21
-221.56118172558041
 31
0.0
  0
LINE
  8
DETAIL
  6
CONTINUOUS
 62
     5
 10
134.48780919680169
 20
-221.56118172558041
 30
0.0
 11
134.31814417258369
 21
-222.07017679823429
 31
0.0
  0
LINE
  8
DETAIL
  6
CONTINUOUS
 62
     5
 10
195.77621298793591
 20
-54.214912838559258
 30
0.0
 11
207.55687962668719
 21
-54.214912838559258
 31
0.0
  0
LINE
  8
DETAIL
  6
CONTINUOUS
 62
     5
 10
195.77621298793591
 20
-77.289356132207331
 30
0.0
 11
207.55687962668719
 21
-77.289356132207331
 31
0.0
  0
LINE
  8
DETAIL
  6
CONTINUOUS
 62
     5
 10
207.55687962668719
 20
-77.289356132207331
 30
0.0
 11
210.55429505453861
 21
-77.798351204861319
 31
0.0
  0
LINE
  8
DETAIL
  6
CONTINUOUS
 62
     5
 10
210.55429505453861
 20
-77.798351204861319
 30
0.0
 11
213.38204545817189
 21
-79.212226406677928
 31
0.0
  0
LINE
  8
DETAIL
  6
CONTINUOUS
 62
     5
 10
213.38204545817189
 20
-79.212226406677928
 30
0.0
 11
215.58769077300599
 21
-81.47442672958482
 31
0.0
  0
LINE
  8
DETAIL
  6
CONTINUOUS
 62
     5
 10
215.58769077300599
 20
-81.47442672958482
 30
0.0
 11
217.1712309990406
 21
-84.189067117072682
 31
0.0
  0
LINE
  8
DETAIL
  6
CONTINUOUS
 62
     5
 10
217.1712309990406
 20
-84.189067117072682
 30
0.0
 11
217.56711605554941
 21
-87.299592561069176
 31
0.0
  0
LINE
  8
DETAIL
  6
CONTINUOUS
 62
     5
 10
207.55687962668719
 20
-54.214912838559258
 30
0.0
 11
210.55429505453861
 21
-54.837017927358602
 31
0.0
  0
LINE
  8
DETAIL
  6
CONTINUOUS
 62
     5
 10
210.55429505453861
 20
-54.837017927358602
 30
0.0
 11
213.38204545817189
 21
-56.024673096884499
 31
0.0
  0
LINE
  8
DETAIL
  6
CONTINUOUS
 62
     5
 10
213.38204545817189
 20
-56.024673096884499
 30
0.0
 11
215.58769077300599
 21
-58.230318411718827
 31
0.0
  0
LINE
  8
DETAIL
  6
CONTINUOUS
 62
     5
 10
215.58769077300599
 20
-58.230318411718827
 30
0.0
 11
217.1712309990406
 21
-61.001513807279252
 31
0.0
  0
LINE
  8
DETAIL
  6
CONTINUOUS
 62
     5
 10
217.1712309990406
 20
-61.001513807279252
 30
0.0
 11
217.56711605554941
 21
-64.22514926742133
 31
0.0
  0
LINE
  8
DETAIL
  6
CONTINUOUS
 62
     5
 10
217.56711605554941
 20
-143.06283052071879
 30
0.0
 11
217.1712309990406
 21
-146.17335596471551
 31
0.0
  0
LINE
  8
DETAIL
  6
CONTINUOUS
 62
     5
 10
217.1712309990406
 20
-146.17335596471551
 30
0.0
 11
215.58769077300599
 21
-148.88799635220329
 31
0.0
  0
LINE
  8
DETAIL
  6
CONTINUOUS
 62
     5
 10
215.58769077300599
 20
-148.88799635220329
 30
0.0
 11
213.38204545817189
 21
-151.15019667511021
 31
0.0
  0
LINE
  8
DETAIL
  6
CONTINUOUS
 62
     5
 10
213.38204545817189
 20
-151.15019667511021
 30
0.0
 11
210.55429505453861
 21
-152.6771818930722
 31
0.0
  0
LINE
  8
DETAIL
  6
CONTINUOUS
 62
     5
 10
210.55429505453861
 20
-152.6771818930722
 30
0.0
 11
207.55687962668719
 21
-153.07306694958081
 31
0.0
  0
LINE
  8
DETAIL
  6
CONTINUOUS
 62
     5
 10
207.55687962668719
 20
-153.07306694958081
 30
0.0
 11
195.77621298793591
 21
-153.07306694958081
 31
0.0
  0
LINE
  8
DETAIL
  6
CONTINUOUS
 62
     5
 10
217.56711605554941
 20
-143.06283052071879
 30
0.0
 11
217.56711605554941
 21
-64.22514926742133
 31
0.0
  0
LINE
  8
DETAIL
  6
CONTINUOUS
 62
     5
 10
36.986975279524358
 20
-305.60192372156331
 30
0.0
 11
33.876449835527517
 21
-308.59933914941462
 31
0.0
  0
LINE
  8
DETAIL
  6
CONTINUOUS
 62
     5
 10
33.876449835527517
 20
-305.60192372156331
 30
0.0
 11
36.986975279524358
 21
-308.59933914941462
 31
0.0
  0
LINE
  8
DETAIL
  6
CONTINUOUS
 62
     5
 10
30.65281437538556
 20
-307.12890893952522
 30
0.0
 11
30.879034407676158
 21
-305.60192372156331
 31
0.0
  0
LINE
  8
DETAIL
  6
CONTINUOUS
 62
     5
 10
30.879034407676158
 20
-305.60192372156331
 30
0.0
 11
31.67080452069354
 21
-304.41426855203741
 31
0.0
  0
LINE
  8
DETAIL
  6
CONTINUOUS
 62
     5
 10
31.67080452069354
 20
-304.41426855203741
 30
0.0
 11
32.858459690219547
 21
-303.39627840672921
 31
0.0
  0
LINE
  8
DETAIL
  6
CONTINUOUS
 62
     5
 10
32.858459690219547
 20
-303.39627840672921
 30
0.0
 11
34.44199991625419
 21
-302.60450829371189
 31
0.0
  0
LINE
  8
DETAIL
  6
CONTINUOUS
 62
     5
 10
34.44199991625419
 20
-302.60450829371189
 30
0.0
 11
35.855875118070678
 21
-302.60450829371189
 31
0.0
  0
LINE
  8
DETAIL
  6
CONTINUOUS
 62
     5
 10
35.855875118070678
 20
-302.60450829371189
 30
0.0
 11
37.439415344105562
 21
-302.8307283260026
 31
0.0
  0
LINE
  8
DETAIL
  6
CONTINUOUS
 62
     5
 10
37.439415344105562
 20
-302.8307283260026
 30
0.0
 11
38.683625521704357
 21
-303.90527347938303
 31
0.0
  0
LINE
  8
DETAIL
  6
CONTINUOUS
 62
     5
 10
38.683625521704357
 20
-303.90527347938303
 30
0.0
 11
39.645060658939428
 21
-304.81015360854599
 31
0.0
  0
LINE
  8
DETAIL
  6
CONTINUOUS
 62
     5
 10
39.645060658939428
 20
-304.81015360854599
 30
0.0
 11
40.154055731593417
 21
-306.39369383458052
 31
0.0
  0
LINE
  8
DETAIL
  6
CONTINUOUS
 62
     5
 10
40.154055731593417
 20
-306.39369383458052
 30
0.0
 11
40.154055731593417
 21
-307.80756903639741
 31
0.0
  0
LINE
  8
DETAIL
  6
CONTINUOUS
 62
     5
 10
40.154055731593417
 20
-307.80756903639741
 30
0.0
 11
39.645060658939428
 21
-309.39110926243188
 31
0.0
  0
LINE
  8
DETAIL
  6
CONTINUOUS
 62
     5
 10
39.645060658939428
 20
-309.39110926243188
 30
0.0
 11
38.683625521704357
 21
-310.57876443195772
 31
0.0
  0
LINE
  8
DETAIL
  6
CONTINUOUS
 62
     5
 10
38.683625521704357
 20
-310.57876443195772
 30
0.0
 11
37.439415344105562
 21
-311.59675457726581
 31
0.0
  0
LINE
  8
DETAIL
  6
CONTINUOUS
 62
     5
 10
37.439415344105562
 20
-311.59675457726581
 30
0.0
 11
35.855875118070678
 21
-311.87952961762932
 31
0.0
  0
LINE
  8
DETAIL
  6
CONTINUOUS
 62
     5
 10
35.855875118070678
 20
-311.87952961762932
 30
0.0
 11
34.44199991625419
 21
-311.87952961762932
 31
0.0
  0
LINE
  8
DETAIL
  6
CONTINUOUS
 62
     5
 10
34.44199991625419
 20
-311.87952961762932
 30
0.0
 11
32.858459690219547
 21
-311.08775950461182
 31
0.0
  0
LINE
  8
DETAIL
  6
CONTINUOUS
 62
     5
 10
32.858459690219547
 20
-311.08775950461182
 30
0.0
 11
31.67080452069354
 21
-310.12632436737658
 31
0.0
  0
LINE
  8
DETAIL
  6
CONTINUOUS
 62
     5
 10
31.67080452069354
 20
-310.12632436737658
 30
0.0
 11
30.879034407676158
 21
-308.88211418977789
 31
0.0
  0
LINE
  8
DETAIL
  6
CONTINUOUS
 62
     5
 10
30.879034407676158
 20
-308.88211418977789
 30
0.0
 11
30.65281437538556
 21
-307.12890893952522
 31
0.0
  0
LINE
  8
DETAIL
  6
CONTINUOUS
 62
     5
 10
-130.52895863171489
 20
-208.94941492537549
 30
0.0
 11
-133.52637405956631
 21
-212.0599403693725
 31
0.0
  0
LINE
  8
DETAIL
  6
CONTINUOUS
 62
     5
 10
-133.52637405956631
 20
-208.94941492537549
 30
0.0
 11
-130.52895863171489
 21
-212.0599403693725
 31
0.0
  0
LINE
  8
DETAIL
  6
CONTINUOUS
 62
     5
 10
-136.86311953585371
 20
-210.47640014333771
 30
0.0
 11
-136.52378948741759
 21
-208.94941492537549
 31
0.0
  0
LINE
  8
DETAIL
  6
CONTINUOUS
 62
     5
 10
-136.52378948741759
 20
-208.94941492537549
 30
0.0
 11
-135.84512939054571
 21
-207.5920947316317
 31
0.0
  0
LINE
  8
DETAIL
  6
CONTINUOUS
 62
     5
 10
-135.84512939054571
 20
-207.5920947316317
 30
0.0
 11
-134.54436420487451
 21
-206.4609945701782
 31
0.0
  0
LINE
  8
DETAIL
  6
CONTINUOUS
 62
     5
 10
-134.54436420487451
 20
-206.4609945701782
 30
0.0
 11
-133.3567090353483
 21
-206.0651095136698
 31
0.0
  0
LINE
  8
DETAIL
  6
CONTINUOUS
 62
     5
 10
-133.3567090353483
 20
-206.0651095136698
 30
0.0
 11
-131.54694877702289
 21
-205.78233447330629
 31
0.0
  0
LINE
  8
DETAIL
  6
CONTINUOUS
 62
     5
 10
-131.54694877702289
 20
-205.78233447330629
 30
0.0
 11
-130.07651856713369
 21
-206.29132954596031
 31
0.0
  0
LINE
  8
DETAIL
  6
CONTINUOUS
 62
     5
 10
-130.07651856713369
 20
-206.29132954596031
 30
0.0
 11
-128.8323083895348
 21
-207.08309965897769
 31
0.0
  0
LINE
  8
DETAIL
  6
CONTINUOUS
 62
     5
 10
-128.8323083895348
 20
-207.08309965897769
 30
0.0
 11
-127.7577632361542
 21
-208.27075482850361
 31
0.0
  0
LINE
  8
DETAIL
  6
CONTINUOUS
 62
     5
 10
-127.7577632361542
 20
-208.27075482850361
 30
0.0
 11
-127.2487681635002
 21
-209.74118503839301
 31
0.0
  0
LINE
  8
DETAIL
  6
CONTINUOUS
 62
     5
 10
-127.2487681635002
 20
-209.74118503839301
 30
0.0
 11
-127.2487681635002
 21
-211.26817025635501
 31
0.0
  0
LINE
  8
DETAIL
  6
CONTINUOUS
 62
     5
 10
-127.2487681635002
 20
-211.26817025635501
 30
0.0
 11
-127.7577632361542
 21
-212.73860046624441
 31
0.0
  0
LINE
  8
DETAIL
  6
CONTINUOUS
 62
     5
 10
-127.7577632361542
 20
-212.73860046624441
 30
0.0
 11
-128.8323083895348
 21
-213.9828106438431
 31
0.0
  0
LINE
  8
DETAIL
  6
CONTINUOUS
 62
     5
 10
-128.8323083895348
 20
-213.9828106438431
 30
0.0
 11
-130.07651856713369
 21
-214.77458075686039
 31
0.0
  0
LINE
  8
DETAIL
  6
CONTINUOUS
 62
     5
 10
-130.07651856713369
 20
-214.77458075686039
 30
0.0
 11
-131.54694877702289
 21
-215.28357582951429
 31
0.0
  0
LINE
  8
DETAIL
  6
CONTINUOUS
 62
     5
 10
-131.54694877702289
 20
-215.28357582951429
 30
0.0
 11
-133.3567090353483
 21
-215.05735579722361
 31
0.0
  0
LINE
  8
DETAIL
  6
CONTINUOUS
 62
     5
 10
-133.3567090353483
 20
-215.05735579722361
 30
0.0
 11
-134.54436420487451
 21
-214.54836072456959
 31
0.0
  0
LINE
  8
DETAIL
  6
CONTINUOUS
 62
     5
 10
-134.54436420487451
 20
-214.54836072456959
 30
0.0
 11
-135.84512939054571
 21
-213.24759553889839
 31
0.0
  0
LINE
  8
DETAIL
  6
CONTINUOUS
 62
     5
 10
-135.84512939054571
 20
-213.24759553889839
 30
0.0
 11
-136.52378948741759
 21
-212.0599403693725
 31
0.0
  0
LINE
  8
DETAIL
  6
CONTINUOUS
 62
     5
 10
-136.52378948741759
 20
-212.0599403693725
 30
0.0
 11
-136.86311953585371
 21
-210.47640014333771
 31
0.0
  0
LINE
  8
DETAIL
  6
CONTINUOUS
 62
     5
 10
-34.046114859745437
 20
-41.546591030281888
 30
0.0
 11
-36.704200239160507
 21
-44.544006458133254
 31
0.0
  0
LINE
  8
DETAIL
  6
CONTINUOUS
 62
     5
 10
-36.704200239160507
 20
-41.546591030281888
 30
0.0
 11
-34.046114859745437
 21
-44.544006458133254
 31
0.0
  0
LINE
  8
DETAIL
  6
CONTINUOUS
 62
     5
 10
-39.927835699302697
 20
-43.073576248243853
 30
0.0
 11
-39.70161566701222
 21
-41.546591030281888
 31
0.0
  0
LINE
  8
DETAIL
  6
CONTINUOUS
 62
     5
 10
-39.70161566701222
 20
-41.546591030281888
 30
0.0
 11
-39.022955570140198
 21
-40.076160820392488
 31
0.0
  0
LINE
  8
DETAIL
  6
CONTINUOUS
 62
     5
 10
-39.022955570140198
 20
-40.076160820392488
 30
0.0
 11
-37.891855408686517
 21
-39.058170675084511
 31
0.0
  0
LINE
  8
DETAIL
  6
CONTINUOUS
 62
     5
 10
-37.891855408686517
 20
-39.058170675084511
 30
0.0
 11
-36.53453521494248
 21
-38.549175602430523
 31
0.0
  0
LINE
  8
DETAIL
  6
CONTINUOUS
 62
     5
 10
-36.53453521494248
 20
-38.549175602430523
 30
0.0
 11
-34.894439980835386
 21
-38.266400562067467
 31
0.0
  0
LINE
  8
DETAIL
  6
CONTINUOUS
 62
     5
 10
-34.894439980835386
 20
-38.266400562067467
 30
0.0
 11
-33.537119787091463
 21
-38.831950642794027
 31
0.0
  0
LINE
  8
DETAIL
  6
CONTINUOUS
 62
     5
 10
-33.537119787091463
 20
-38.831950642794027
 30
0.0
 11
-32.236354601420089
 21
-39.5671657477385
 31
0.0
  0
LINE
  8
DETAIL
  6
CONTINUOUS
 62
     5
 10
-32.236354601420089
 20
-39.5671657477385
 30
0.0
 11
-31.218364456111999
 21
-40.754820917264396
 31
0.0
  0
LINE
  8
DETAIL
  6
CONTINUOUS
 62
     5
 10
-31.218364456111999
 20
-40.754820917264396
 30
0.0
 11
-30.709369383458011
 21
-42.33836114329938
 31
0.0
  0
LINE
  8
DETAIL
  6
CONTINUOUS
 62
     5
 10
-30.709369383458011
 20
-42.33836114329938
 30
0.0
 11
-30.709369383458011
 21
-43.865346361261352
 31
0.0
  0
LINE
  8
DETAIL
  6
CONTINUOUS
 62
     5
 10
-30.709369383458011
 20
-43.865346361261352
 30
0.0
 11
-31.218364456111999
 21
-45.335776571150518
 31
0.0
  0
LINE
  8
DETAIL
  6
CONTINUOUS
 62
     5
 10
-31.218364456111999
 20
-45.335776571150518
 30
0.0
 11
-32.236354601420089
 21
-46.523431740676642
 31
0.0
  0
LINE
  8
DETAIL
  6
CONTINUOUS
 62
     5
 10
-32.236354601420089
 20
-46.523431740676642
 30
0.0
 11
-33.537119787091463
 21
-47.315201853694127
 31
0.0
  0
LINE
  8
DETAIL
  6
CONTINUOUS
 62
     5
 10
-33.537119787091463
 20
-47.315201853694127
 30
0.0
 11
-34.894439980835386
 21
-47.541421885984619
 31
0.0
  0
LINE
  8
DETAIL
  6
CONTINUOUS
 62
     5
 10
-34.894439980835386
 20
-47.541421885984619
 30
0.0
 11
-36.53453521494248
 21
-47.541421885984619
 31
0.0
  0
LINE
  8
DETAIL
  6
CONTINUOUS
 62
     5
 10
-36.53453521494248
 20
-47.541421885984619
 30
0.0
 11
-37.891855408686517
 21
-46.749651772967347
 31
0.0
  0
LINE
  8
DETAIL
  6
CONTINUOUS
 62
     5
 10
-37.891855408686517
 20
-46.749651772967347
 30
0.0
 11
-39.022955570140198
 21
-45.731661627659378
 31
0.0
  0
LINE
  8
DETAIL
  6
CONTINUOUS
 62
     5
 10
-39.022955570140198
 20
-45.731661627659378
 30
0.0
 11
-39.70161566701222
 21
-44.544006458133254
 31
0.0
  0
LINE
  8
DETAIL
  6
CONTINUOUS
 62
     5
 10
-39.70161566701222
 20
-44.544006458133254
 30
0.0
 11
-39.927835699302697
 21
-43.073576248243853
 31
0.0
  0
LINE
  8
DETAIL
  6
CONTINUOUS
 62
     5
 10
133.6960390837844
 20
-138.08598981032421
 30
0.0
 11
130.69862365593301
 21
-141.1965152543207
 31
0.0
  0
LINE
  8
DETAIL
  6
CONTINUOUS
 62
     5
 10
130.69862365593301
 20
-138.08598981032421
 30
0.0
 11
133.6960390837844
 21
-141.1965152543207
 31
0.0
  0
LINE
  8
DETAIL
  6
CONTINUOUS
 62
     5
 10
127.53154320386371
 20
-139.66953003635879
 30
0.0
 11
127.7012082280817
 21
-138.08598981032421
 31
0.0
  0
LINE
  8
DETAIL
  6
CONTINUOUS
 62
     5
 10
127.7012082280817
 20
-138.08598981032421
 30
0.0
 11
128.4929783410989
 21
-136.89833464079811
 31
0.0
  0
LINE
  8
DETAIL
  6
CONTINUOUS
 62
     5
 10
128.4929783410989
 20
-136.89833464079811
 30
0.0
 11
129.51096848640691
 21
-135.59756945512689
 31
0.0
  0
LINE
  8
DETAIL
  6
CONTINUOUS
 62
     5
 10
129.51096848640691
 20
-135.59756945512689
 30
0.0
 11
130.98139869629631
 21
-135.2016843986182
 31
0.0
  0
LINE
  8
DETAIL
  6
CONTINUOUS
 62
     5
 10
130.98139869629631
 20
-135.2016843986182
 30
0.0
 11
132.5083839142583
 21
-134.91890935825469
 31
0.0
  0
LINE
  8
DETAIL
  6
CONTINUOUS
 62
     5
 10
132.5083839142583
 20
-134.91890935825469
 30
0.0
 11
133.9788141241477
 21
-135.37134942283609
 31
0.0
  0
LINE
  8
DETAIL
  6
CONTINUOUS
 62
     5
 10
133.9788141241477
 20
-135.37134942283609
 30
0.0
 11
135.22302430174639
 21
-136.2196745439262
 31
0.0
  0
LINE
  8
DETAIL
  6
CONTINUOUS
 62
     5
 10
135.22302430174639
 20
-136.2196745439262
 30
0.0
 11
136.1844594389818
 21
-137.4073297134521
 31
0.0
  0
LINE
  8
DETAIL
  6
CONTINUOUS
 62
     5
 10
136.1844594389818
 20
-137.4073297134521
 30
0.0
 11
136.80656452778109
 21
-138.8777599233415
 31
0.0
  0
LINE
  8
DETAIL
  6
CONTINUOUS
 62
     5
 10
136.80656452778109
 20
-138.8777599233415
 30
0.0
 11
136.80656452778109
 21
-140.40474514130349
 31
0.0
  0
LINE
  8
DETAIL
  6
CONTINUOUS
 62
     5
 10
136.80656452778109
 20
-140.40474514130349
 30
0.0
 11
136.1844594389818
 21
-141.87517535119261
 31
0.0
  0
LINE
  8
DETAIL
  6
CONTINUOUS
 62
     5
 10
136.1844594389818
 20
-141.87517535119261
 30
0.0
 11
135.22302430174639
 21
-143.06283052071879
 31
0.0
  0
LINE
  8
DETAIL
  6
CONTINUOUS
 62
     5
 10
135.22302430174639
 20
-143.06283052071879
 30
0.0
 11
133.9788141241477
 21
-143.854600633736
 31
0.0
  0
LINE
  8
DETAIL
  6
CONTINUOUS
 62
     5
 10
133.9788141241477
 20
-143.854600633736
 30
0.0
 11
132.5083839142583
 21
-144.3635957063905
 31
0.0
  0
LINE
  8
DETAIL
  6
CONTINUOUS
 62
     5
 10
132.5083839142583
 20
-144.3635957063905
 30
0.0
 11
130.98139869629631
 21
-144.08082066602699
 31
0.0
  0
LINE
  8
DETAIL
  6
CONTINUOUS
 62
     5
 10
130.98139869629631
 20
-144.08082066602699
 30
0.0
 11
129.51096848640691
 21
-143.68493560951811
 31
0.0
  0
LINE
  8
DETAIL
  6
CONTINUOUS
 62
     5
 10
129.51096848640691
 20
-143.68493560951811
 30
0.0
 11
128.4929783410989
 21
-142.6669454642101
 31
0.0
  0
LINE
  8
DETAIL
  6
CONTINUOUS
 62
     5
 10
128.4929783410989
 20
-142.6669454642101
 30
0.0
 11
127.7012082280817
 21
-141.1965152543207
 31
0.0
  0
LINE
  8
DETAIL
  6
CONTINUOUS
 62
     5
 10
127.7012082280817
 20
-141.1965152543207
 30
0.0
 11
127.53154320386371
 21
-139.66953003635879
 31
0.0
  0
LINE
  8
DETAIL
  6
CONTINUOUS
 62
     5
 10
178.30071549348179
 20
-205.10367437643441
 30
0.0
 11
174.85086000104911
 21
-208.55352986886709
 31
0.0
  0
LINE
  8
DETAIL
  6
CONTINUOUS
 62
     5
 10
174.85086000104911
 20
-205.10367437643441
 30
0.0
 11
178.30071549348179
 21
-208.55352986886709
 31
0.0
  0
LINE
  8
DETAIL
  6
CONTINUOUS
 62
     5
 10
170.6092343955992
 20
-206.80032461861421
 30
0.0
 11
170.83545442788969
 21
-204.76434432799829
 31
0.0
  0
LINE
  8
DETAIL
  6
CONTINUOUS
 62
     5
 10
170.83545442788969
 20
-204.76434432799829
 30
0.0
 11
171.9099995812706
 21
-202.95458406967279
 31
0.0
  0
LINE
  8
DETAIL
  6
CONTINUOUS
 62
     5
 10
171.9099995812706
 20
-202.95458406967279
 30
0.0
 11
173.32387478308709
 21
-201.76692890014689
 31
0.0
  0
LINE
  8
DETAIL
  6
CONTINUOUS
 62
     5
 10
173.32387478308709
 20
-201.76692890014689
 30
0.0
 11
175.13363504141259
 21
-201.08826880327501
 31
0.0
  0
LINE
  8
DETAIL
  6
CONTINUOUS
 62
     5
 10
175.13363504141259
 20
-201.08826880327501
 30
0.0
 11
177.11306032395589
 21
-200.80549376291171
 31
0.0
  0
LINE
  8
DETAIL
  6
CONTINUOUS
 62
     5
 10
177.11306032395589
 20
-200.80549376291171
 30
0.0
 11
178.92282058228119
 21
-201.25793382749291
 31
0.0
  0
LINE
  8
DETAIL
  6
CONTINUOUS
 62
     5
 10
178.92282058228119
 20
-201.25793382749291
 30
0.0
 11
180.61947082446119
 21
-202.55869901316439
 31
0.0
  0
LINE
  8
DETAIL
  6
CONTINUOUS
 62
     5
 10
180.61947082446119
 20
-202.55869901316439
 30
0.0
 11
181.63746096976919
 21
-203.9725742149808
 31
0.0
  0
LINE
  8
DETAIL
  6
CONTINUOUS
 62
     5
 10
181.63746096976919
 20
-203.9725742149808
 30
0.0
 11
182.3161210666413
 21
-205.78233447330629
 31
0.0
  0
LINE
  8
DETAIL
  6
CONTINUOUS
 62
     5
 10
182.3161210666413
 20
-205.78233447330629
 30
0.0
 11
182.3161210666413
 21
-207.76175975584971
 31
0.0
  0
LINE
  8
DETAIL
  6
CONTINUOUS
 62
     5
 10
182.3161210666413
 20
-207.76175975584971
 30
0.0
 11
181.63746096976919
 21
-209.57152001417509
 31
0.0
  0
LINE
  8
DETAIL
  6
CONTINUOUS
 62
     5
 10
181.63746096976919
 20
-209.57152001417509
 30
0.0
 11
180.61947082446119
 21
-211.04195022406449
 31
0.0
  0
LINE
  8
DETAIL
  6
CONTINUOUS
 62
     5
 10
180.61947082446119
 20
-211.04195022406449
 30
0.0
 11
178.92282058228119
 21
-212.0599403693725
 31
0.0
  0
LINE
  8
DETAIL
  6
CONTINUOUS
 62
     5
 10
178.92282058228119
 20
-212.0599403693725
 30
0.0
 11
177.11306032395589
 21
-212.56893544202649
 31
0.0
  0
LINE
  8
DETAIL
  6
CONTINUOUS
 62
     5
 10
177.11306032395589
 20
-212.56893544202649
 30
0.0
 11
175.13363504141259
 21
-212.56893544202649
 31
0.0
  0
LINE
  8
DETAIL
  6
CONTINUOUS
 62
     5
 10
175.13363504141259
 20
-212.56893544202649
 30
0.0
 11
173.32387478308709
 21
-211.77716532900899
 31
0.0
  0
LINE
  8
DETAIL
  6
CONTINUOUS
 62
     5
 10
173.32387478308709
 20
-211.77716532900899
 30
0.0
 11
171.9099995812706
 21
-210.250180111047
 31
0.0
  0
LINE
  8
DETAIL
  6
CONTINUOUS
 62
     5
 10
171.9099995812706
 20
-210.250180111047
 30
0.0
 11
170.83545442788969
 21
-208.7797499011576
 31
0.0
  0
LINE
  8
DETAIL
  6
CONTINUOUS
 62
     5
 10
170.83545442788969
 20
-208.7797499011576
 30
0.0
 11
170.6092343955992
 21
-206.80032461861421
 31
0.0
  0
LINE
  8
DETAIL
  6
CONTINUOUS
 62
     5
 10
-182.37267607471381
 20
-206.80032461861421
 30
0.0
 11
-181.97679101820509
 21
-204.76434432799829
 31
0.0
  0
LINE
  8
DETAIL
  6
CONTINUOUS
 62
     5
 10
-181.97679101820509
 20
-204.76434432799829
 30
0.0
 11
-181.1850209051876
 21
-202.95458406967279
 31
0.0
  0
LINE
  8
DETAIL
  6
CONTINUOUS
 62
     5
 10
-181.1850209051876
 20
-202.95458406967279
 30
0.0
 11
-179.65803568722541
 21
-201.76692890014689
 31
0.0
  0
LINE
  8
DETAIL
  6
CONTINUOUS
 62
     5
 10
-179.65803568722541
 20
-201.76692890014689
 30
0.0
 11
-177.96138544504561
 21
-201.08826880327501
 31
0.0
  0
LINE
  8
DETAIL
  6
CONTINUOUS
 62
     5
 10
-177.96138544504561
 20
-201.08826880327501
 30
0.0
 11
-175.98196016250239
 21
-200.80549376291171
 31
0.0
  0
LINE
  8
DETAIL
  6
CONTINUOUS
 62
     5
 10
-175.98196016250239
 20
-200.80549376291171
 30
0.0
 11
-174.17219990417689
 21
-201.25793382749291
 31
0.0
  0
LINE
  8
DETAIL
  6
CONTINUOUS
 62
     5
 10
-174.17219990417689
 20
-201.25793382749291
 30
0.0
 11
-172.36243964585171
 21
-202.55869901316439
 31
0.0
  0
LINE
  8
DETAIL
  6
CONTINUOUS
 62
     5
 10
-172.36243964585171
 20
-202.55869901316439
 30
0.0
 11
-171.17478447632561
 21
-203.9725742149808
 31
0.0
  0
LINE
  8
DETAIL
  6
CONTINUOUS
 62
     5
 10
-171.17478447632561
 20
-203.9725742149808
 30
0.0
 11
-170.6657894036716
 21
-205.78233447330629
 31
0.0
  0
LINE
  8
DETAIL
  6
CONTINUOUS
 62
     5
 10
-170.6657894036716
 20
-205.78233447330629
 30
0.0
 11
-170.6657894036716
 21
-207.76175975584971
 31
0.0
  0
LINE
  8
DETAIL
  6
CONTINUOUS
 62
     5
 10
-170.6657894036716
 20
-207.76175975584971
 30
0.0
 11
-171.17478447632561
 21
-209.57152001417509
 31
0.0
  0
LINE
  8
DETAIL
  6
CONTINUOUS
 62
     5
 10
-171.17478447632561
 20
-209.57152001417509
 30
0.0
 11
-172.36243964585171
 21
-211.04195022406449
 31
0.0
  0
LINE
  8
DETAIL
  6
CONTINUOUS
 62
     5
 10
-172.36243964585171
 20
-211.04195022406449
 30
0.0
 11
-174.17219990417689
 21
-212.0599403693725
 31
0.0
  0
LINE
  8
DETAIL
  6
CONTINUOUS
 62
     5
 10
-174.17219990417689
 20
-212.0599403693725
 30
0.0
 11
-175.98196016250239
 21
-212.56893544202649
 31
0.0
  0
LINE
  8
DETAIL
  6
CONTINUOUS
 62
     5
 10
-175.98196016250239
 20
-212.56893544202649
 30
0.0
 11
-177.96138544504561
 21
-212.56893544202649
 31
0.0
  0
LINE
  8
DETAIL
  6
CONTINUOUS
 62
     5
 10
-177.96138544504561
 20
-212.56893544202649
 30
0.0
 11
-179.65803568722541
 21
-211.77716532900899
 31
0.0
  0
LINE
  8
DETAIL
  6
CONTINUOUS
 62
     5
 10
-179.65803568722541
 20
-211.77716532900899
 30
0.0
 11
-181.1850209051876
 21
-210.250180111047
 31
0.0
  0
LINE
  8
DETAIL
  6
CONTINUOUS
 62
     5
 10
-181.1850209051876
 20
-210.250180111047
 30
0.0
 11
-181.97679101820509
 21
-208.7797499011576
 31
0.0
  0
LINE
  8
DETAIL
  6
CONTINUOUS
 62
     5
 10
-181.97679101820509
 20
-208.7797499011576
 30
0.0
 11
-182.37267607471381
 21
-206.80032461861421
 31
0.0
  0
LINE
  8
DETAIL
  6
CONTINUOUS
 62
     5
 10
-178.1876054773364
 20
-205.10367437643441
 30
0.0
 11
-174.68119497683091
 21
-208.55352986886709
 31
0.0
  0
LINE
  8
DETAIL
  6
CONTINUOUS
 62
     5
 10
-174.68119497683091
 20
-205.10367437643441
 30
0.0
 11
-178.1876054773364
 21
-208.55352986886709
 31
0.0
  0
LINE
  8
OUTLINE
  6
CONTINUOUS
 62
     3
 10
-194.8713328587732
 20
-2.8277504036332179
 30
0.0
 11
-194.8713328587732
 21
-347.31817977606318
 31
0.0
  0
LINE
  8
OUTLINE
  6
CONTINUOUS
 62
     3
 10
-194.8713328587732
 20
-347.31817977606318
 30
0.0
 11
-190.96903730175879
 21
-347.31817977606318
 31
0.0
  0
LINE
  8
OUTLINE
  6
CONTINUOUS
 62
     3
 10
-194.8713328587732
 20
-2.8277504036332179
 30
0.0
 11
-190.96903730175879
 21
-2.8277504036332179
 31
0.0
  0
LINE
  8
OUTLINE
  6
CONTINUOUS
 62
     3
 10
195.09755289106391
 20
-2.8277504036332179
 30
0.0
 11
195.09755289106391
 21
-3.619520516650482
 31
0.0
  0
LINE
  8
OUTLINE
  6
CONTINUOUS
 62
     3
 10
195.09755289106391
 20
-347.31817977606318
 30
0.0
 11
195.09755289106391
 21
-346.5264096630458
 31
0.0
  0
LINE
  8
OUTLINE
  6
CONTINUOUS
 62
     3
 10
195.09755289106391
 20
-2.8277504036332179
 30
0.0
 11
191.0821473179046
 21
-2.8277504036332179
 31
0.0
  0
LINE
  8
OUTLINE
  6
CONTINUOUS
 62
     3
 10
195.09755289106391
 20
-347.31817977606318
 30
0.0
 11
191.0821473179046
 21
-347.31817977606318
 31
0.0
  0
LINE
  8
OUTLINE
  6
CONTINUOUS
 62
     3
 10
-193.62712268117451
 20
-347.31817977606318
 30
0.0
 11
-193.62712268117451
 21
-349.35416006667913
 31
0.0
  0
LINE
  8
OUTLINE
  6
CONTINUOUS
 62
     3
 10
193.90989772153799
 20
-347.31817977606318
 30
0.0
 11
193.90989772153799
 21
-349.35416006667913
 31
0.0
  0
LINE
  8
OUTLINE
  6
CONTINUOUS
 62
     3
 10
-190.62970725332289
 20
-1.300765185671253
 30
0.0
 11
-183.673441260385
 21
-1.300765185671253
 31
0.0
  0
LINE
  8
OUTLINE
  6
CONTINUOUS
 62
     3
 10
-183.673441260385
 20
0.0
 30
0.0
 11
-183.673441260385
 21
-1.300765185671253
 31
0.0
  0
LINE
  8
OUTLINE
  6
CONTINUOUS
 62
     3
 10
-193.62712268117451
 20
-349.35416006667913
 30
0.0
 11
193.90989772153799
 21
-349.35416006667913
 31
0.0
  0
LINE
  8
OUTLINE
  6
CONTINUOUS
 62
     3
 10
183.89966129267569
 20
-1.300765185671253
 30
0.0
 11
190.7993722775411
 21
-1.300765185671253
 31
0.0
  0
LINE
  8
OUTLINE
  6
CONTINUOUS
 62
     3
 10
183.89966129267569
 20
0.0
 30
0.0
 11
183.89966129267569
 21
-1.300765185671253
 31
0.0
  0
LINE
  8
OUTLINE
  6
CONTINUOUS
 62
     3
 10
-183.673441260385
 20
0.0
 30
0.0
 11
183.89966129267569
 21
0.0
 31
0.0
  0
LINE
  8
OUTLINE
  6
CONTINUOUS
 62
     3
 10
190.7993722775411
 20
-1.300765185671253
 30
0.0
 11
192.326357495503
 21
-2.8277504036332179
 31
0.0
  0
LINE
  8
OUTLINE
  6
CONTINUOUS
 62
     3
 10
-190.62970725332289
 20
-1.300765185671253
 30
0.0
 11
-192.326357495503
 21
-2.8277504036332179
 31
0.0
  0
LINE
  8
OUTLINE
  6
CONTINUOUS
 62
     3
 10
195.77621298793599
 20
-346.5264096630458
 30
0.0
 11
195.09755289106391
 21
-346.5264096630458
 31
0.0
  0
LINE
  8
OUTLINE
  6
CONTINUOUS
 62
     3
 10
195.77621298793599
 20
-3.619520516650482
 30
0.0
 11
195.09755289106391
 21
-3.619520516650482
 31
0.0
  0
LINE
  8
OUTLINE
  6
CONTINUOUS
 62
     3
 10
195.77621298793599
 20
-346.5264096630458
 30
0.0
 11
195.77621298793599
 21
-3.619520516650482
 31
0.0
  0
CIRCLE
  8
DETAIL
  6
CONTINUOUS
 62
     5
 10
0.0
 20
-175.1295200979207
 30
0.0
 40
121.0
  0
CIRCLE
  8
DETAIL
  6
CONTINUOUS
 62
     5
 10
0.0
 20
-175.1295200979207
 30
0.0
 40
129.0
  0
LINE
  8
SIZE
  6
CONTINUOUS
 62
    30
 10
520.58374372203104
 20
-379.94007538478229
 30
0.0
 11
131.21059592512401
 21
-226.75102256514691
 31
0.0
  0
LINE
  8
SIZE
  6
CONTINUOUS
 62
    30
 10
-131.21059592512401
 20
-123.5080176306946
 30
0.0
 11
-142.37745515279411
 21
-119.11469827178171
 31
0.0
  0
TEXT
  8
SIZE
  6
CONTINUOUS
 62
    30
 10
306.87256996220299
 20
-268.99559120742322
 30
0.0
 40
64.0
  1
φ258
 50
338.52409331674579
 41
0.9
 72
     1
 11
413.30869105793892
 21
-310.87020086837572
 31
0.0
  0
LINE
  8
SIZE
  6
CONTINUOUS
 62
    30
 10
-120.04373669745389
 20
-127.9013369896075
 30
0.0
 11
120.04373669745389
 21
-222.35770320623399
 31
0.0
  0
CIRCLE
  8
SIZE
  6
CONTINUOUS
 62
    30
 10
-120.04373669745389
 20
-127.9013369896075
 30
0.0
 40
6.0
  0
LINE
  8
SIZE
  6
CONTINUOUS
 62
    30
 10
-120.04373669745389
 20
-127.9013369896075
 30
0.0
 11
-131.21059592512401
 21
-123.5080176306946
 31
0.0
  0
CIRCLE
  8
SIZE
  6
CONTINUOUS
 62
    30
 10
120.04373669745389
 20
-222.35770320623399
 30
0.0
 40
6.0
  0
LINE
  8
SIZE
  6
CONTINUOUS
 62
    30
 10
120.04373669745389
 20
-222.35770320623399
 30
0.0
 11
131.21059592512401
 21
-226.7510225651468
 31
0.0
  0
POINT
  8
DEFPOINTS
  6
CONTINUOUS
 62
    30
 10
120.04373669745389
 20
-222.35770320623399
 30
0.0
  0
POINT
  8
DEFPOINTS
  6
CONTINUOUS
 62
    30
 10
-120.04373669745389
 20
-127.9013369896075
 30
0.0
  0
LINE
  8
SIZE
  6
CONTINUOUS
 62
    30
 10
573.8413022349863
 20
-73.980268638815687
 30
0.0
 11
130.98077574060531
 21
-152.04193931540351
 31
0.0
  0
LINE
  8
SIZE
  6
CONTINUOUS
 62
    30
 10
-130.98077574060531
 20
-198.2171008804379
 30
0.0
 11
-142.79859009314109
 21
-200.30019087585299
 31
0.0
  0
TEXT
  8
SIZE
  6
CONTINUOUS
 62
    30
 10
333.64609458781052
 20
-90.933338641433593
 30
0.0
 40
64.0
  1
φ242
 50
9.9966637211069287
 41
0.9
 72
     1
 11
446.28674795940901
 21
-71.078515142277183
 31
0.0
  0
LINE
  8
SIZE
  6
CONTINUOUS
 62
    30
 10
-119.1629613880695
 20
-196.1340108850228
 30
0.0
 11
119.1629613880695
 21
-154.1250293108186
 31
0.0
  0
CIRCLE
  8
SIZE
  6
CONTINUOUS
 62
    30
 10
-119.1629613880695
 20
-196.1340108850228
 30
0.0
 40
6.0
  0
LINE
  8
SIZE
  6
CONTINUOUS
 62
    30
 10
-119.1629613880695
 20
-196.1340108850228
 30
0.0
 11
-130.98077574060531
 21
-198.2171008804379
 31
0.0
  0
CIRCLE
  8
SIZE
  6
CONTINUOUS
 62
    30
 10
119.1629613880695
 20
-154.1250293108186
 30
0.0
 40
6.0
  0
LINE
  8
SIZE
  6
CONTINUOUS
 62
    30
 10
119.1629613880695
 20
-154.1250293108186
 30
0.0
 11
130.98077574060531
 21
-152.04193931540351
 31
0.0
  0
POINT
  8
DEFPOINTS
  6
CONTINUOUS
 62
    30
 10
119.1629613880695
 20
-154.1250293108186
 30
0.0
  0
POINT
  8
DEFPOINTS
  6
CONTINUOUS
 62
    30
 10
-119.1629613880695
 20
-196.1340108850228
 30
0.0
  0
ENDSEC
  0
EOF
