  0
SECTION
  2
HEADER
  9
$ACADVER
  1
AC1009
  9
$DWGCODEPAGE
  3
dos932
  9
$INSBASE
 10
0.0
 20
0.0
 30
0.0
  9
$EXTMIN
 10
-549.44635500000004
 20
-409.04441700000001
 30
0.0
  9
$EXTMAX
 10
979.19922337302876
 20
436.44782997614192
 30
0.0
  9
$LIMMIN
 10
-2970.0
 20
-2100.0
  9
$LIMMAX
 10
2970.0
 20
2100.0
  9
$ORTHOMODE
 70
     1
  9
$REGENMODE
 70
     1
  9
$FILLMODE
 70
     1
  9
$QTEXTMODE
 70
     0
  9
$MIRRTEXT
 70
     0
  9
$LTSCALE
 40
20.0
  9
$ATTMODE
 70
     1
  9
$TEXTSIZE
 40
64.0
  9
$TRACEWID
 40
0.05
  9
$TEXTSTYLE
  7
STANDARD
  9
$CLAYER
  8
SIZE
  9
$CELTYPE
  6
CONTINUOUS
  9
$CECOLOR
 62
     7
  9
$DIMSCALE
 40
1.0
  9
$DIMASZ
 40
12.0
  9
$DIMEXO
 40
20.0
  9
$DIMDLI
 40
200.0
  9
$DIMRND
 40
0.0
  9
$DIMDLE
 40
0.0
  9
$DIMEXE
 40
20.0
  9
$DIMTP
 40
0.0
  9
$DIMTM
 40
0.0
  9
$DIMTXT
 40
64.0
  9
$DIMCEN
 40
0.09
  9
$DIMTSZ
 40
0.0
  9
$DIMTOL
 70
     0
  9
$DIMLIM
 70
     0
  9
$DIMTIH
 70
     0
  9
$DIMTOH
 70
     0
  9
$DIMSE1
 70
     0
  9
$DIMSE2
 70
     0
  9
$DIMTAD
 70
     1
  9
$DIMZIN
 70
     8
  9
$DIMBLK
  1

  9
$DIMASO
 70
     1
  9
$DIMSHO
 70
     0
  9
$DIMPOST
  1

  9
$DIMAPOST
  1

  9
$DIMALT
 70
     0
  9
$DIMALTD
 70
     2
  9
$DIMALTF
 40
25.399999999999999
  9
$DIMLFAC
 40
1.0
  9
$DIMTOFL
 70
     1
  9
$DIMTVP
 40
0.0
  9
$DIMTIX
 70
     1
  9
$DIMSOXD
 70
     0
  9
$DIMSAH
 70
     0
  9
$DIMBLK1
  1

  9
$DIMBLK2
  1

  9
$DIMSTYLE
  2
STANDARD
  9
$DIMCLRD
 70
     7
  9
$DIMCLRE
 70
     7
  9
$DIMCLRT
 70
     7
  9
$DIMTFAC
 40
1.0
  9
$DIMGAP
 40
25.0
  9
$LUNITS
 70
     2
  9
$LUPREC
 70
     4
  9
$SKETCHINC
 40
0.1
  9
$FILLETRAD
 40
3.0
  9
$AUNITS
 70
     1
  9
$AUPREC
 70
     3
  9
$MENU
  1
ACAD
  9
$ELEVATION
 40
0.0
  9
$PELEVATION
 40
0.0
  9
$THICKNESS
 40
50.0
  9
$LIMCHECK
 70
     0
  9
$CHAMFERA
 40
0.0
  9
$CHAMFERB
 40
0.0
  9
$SKPOLY
 70
     0
  9
$TDCREATE
 40
2453019.62301037
  9
$TDUPDATE
 40
2458659.385521412
  9
$TDINDWG
 40
1.8445414468
  9
$TDUSRTIMER
 40
1.8445414468
  9
$USRTIMER
 70
     1
  9
$ANGBASE
 50
0.0
  9
$ANGDIR
 70
     0
  9
$PDMODE
 70
     3
  9
$PDSIZE
 40
-2.0
  9
$PLINEWID
 40
0.0
  9
$SPLFRAME
 70
     0
  9
$SPLINETYPE
 70
     6
  9
$SPLINESEGS
 70
     8
  9
$SURFTAB1
 70
     6
  9
$SURFTAB2
 70
     6
  9
$SURFTYPE
 70
     6
  9
$SURFU
 70
     6
  9
$SURFV
 70
     6
  9
$UCSNAME
  2

  9
$UCSORG
 10
0.0
 20
0.0
 30
0.0
  9
$UCSXDIR
 10
1.0
 20
0.0
 30
0.0
  9
$UCSYDIR
 10
0.0
 20
1.0
 30
0.0
  9
$PUCSNAME
  2

  9
$PUCSORG
 10
0.0
 20
0.0
 30
0.0
  9
$PUCSXDIR
 10
1.0
 20
0.0
 30
0.0
  9
$PUCSYDIR
 10
0.0
 20
1.0
 30
0.0
  9
$USERI1
 70
     0
  9
$USERI2
 70
     0
  9
$USERI3
 70
     0
  9
$USERI4
 70
     0
  9
$USERI5
 70
     0
  9
$USERR1
 40
20.0
  9
$USERR2
 40
0.0
  9
$USERR3
 40
0.0
  9
$USERR4
 40
0.0
  9
$USERR5
 40
0.0
  9
$WORLDVIEW
 70
     1
  9
$SHADEDGE
 70
     3
  9
$SHADEDIF
 70
    70
  9
$TILEMODE
 70
     1
  9
$MAXACTVP
 70
    48
  9
$PINSBASE
 10
0.0
 20
0.0
 30
0.0
  9
$PLIMCHECK
 70
     0
  9
$PEXTMIN
 10
-100000000000000000000.0
 20
-100000000000000000000.0
 30
-100000000000000000000.0
  9
$PEXTMAX
 10
100000000000000000000.0
 20
100000000000000000000.0
 30
100000000000000000000.0
  9
$PLIMMIN
 10
0.0
 20
0.0
  9
$PLIMMAX
 10
12.0
 20
9.0
  9
$UNITMODE
 70
     0
  9
$VISRETAIN
 70
     0
  9
$PLINEGEN
 70
     0
  9
$PSLTSCALE
 70
     0
  9
$TREEDEPTH
 70
  3020
  9
$ATTDIA
 70
     0
  9
$ATTREQ
 70
     1
  9
$BLIPMODE
 70
     1
  9
$COORDS
 70
     1
  9
$DRAGMODE
 70
     2
  9
$OSMODE
 70
     0
  9
$HANDLING
 70
     0
  9
$HANDSEED
  5
F6F6
  0
ENDSEC
  0
SECTION
  2
TABLES
  0
TABLE
  2
LTYPE
 70
     2
  0
LTYPE
  2
CONTINUOUS
 70
     0
  3
実線
 72
    65
 73
     0
 40
0.0
  0
LTYPE
  2
DASHDOT
 70
     0
  3
____ _ ____ _ ____ _ ____ _ ____ _ ____ _ ____
 72
    65
 73
     4
 40
5.5
 49
4.0
 49
-0.6
 49
0.3
 49
-0.6
  0
ENDTAB
  0
TABLE
  2
LAYER
 70
    12
  0
LAYER
  2
0
 70
     0
 62
     7
  6
CONTINUOUS
  0
LAYER
  2
BASIS
 70
     0
 62
     6
  6
DASHDOT
  0
LAYER
  2
OUTLINE
 70
     0
 62
     3
  6
CONTINUOUS
  0
LAYER
  2
DETAIL
 70
     0
 62
     5
  6
CONTINUOUS
  0
LAYER
  2
SIZE
 70
     0
 62
    30
  6
CONTINUOUS
  0
LAYER
  2
ARRANGE
 70
     0
 62
     1
  6
CONTINUOUS
  0
LAYER
  2
DEFPOINTS
 70
     0
 62
     7
  6
CONTINUOUS
  0
LAYER
  2
ETC
 70
     0
 62
    61
  6
CONTINUOUS
  0
LAYER
  2
FIX
 70
     0
 62
    11
  6
CONTINUOUS
  0
LAYER
  2
NOTE
 70
     0
 62
     4
  6
CONTINUOUS
  0
LAYER
  2
SERVICESPACE
 70
    64
 62
     2
  6
DASHDOT
  0
LAYER
  2
SYMBOLLINE
 70
    64
 62
    15
  6
CONTINUOUS
  0
ENDTAB
  0
TABLE
  2
STYLE
 70
     1
  0
STYLE
  2
STANDARD
 70
     0
 40
64.0
 41
0.9
 50
0.0
 71
     0
 42
64.0
  3
SIMPLEX.shx
  4
BIGFONT.shx
  0
ENDTAB
  0
TABLE
  2
APPID
 70
    18
  0
APPID
  2
ACAD
 70
     0
  0
APPID
  2
AUTOCAD_POSTSCRIPT_FIGURE
 70
     0
  0
APPID
  2
ACAD_EXEMPT_FROM_CAD_STANDARDS
 70
     0
  0
APPID
  2
ACAD_PSEXT
 70
     0
  0
APPID
  2
ACAUTHENVIRON
 70
     0
  0
APPID
  2
GENIUS_GENOENT_13
 70
     0
  0
APPID
  2
GENIUS_GENCFG_13
 70
     0
  0
APPID
  2
GENIUS_GENCFG0_13
 70
     0
  0
APPID
  2
GENIUS_GENCFG1_13
 70
     0
  0
APPID
  2
GENIUS_GENCFG2_13
 70
     0
  0
APPID
  2
GENIUS_GENCFG3_13
 70
     0
  0
APPID
  2
GENIUS_GENCFG4_13
 70
     0
  0
APPID
  2
GENIUS_GEVCFG0_13
 70
     0
  0
APPID
  2
CONTENTBLOCKICON
 70
     0
  0
APPID
  2
CONTENTBLOCKDESCRIPTION
 70
     0
  0
APPID
  2
ACAD_NAV_VCDISPLAY
 70
     0
  0
APPID
  2
ACAD_MLEADERVER
 70
     0
  0
APPID
  2
ACAD_DSTYLE_DIMRADIAL_EXTENSION
 70
     0
  0
ENDTAB
  0
TABLE
  2
DIMSTYLE
 70
     1
  0
DIMSTYLE
  2
STANDARD
 70
     0
  3

  4

  5
_ORIGIN
  6

  7

 40
1.0
 41
12.0
 42
20.0
 43
200.0
 44
20.0
 45
0.0
 46
0.0
 47
0.0
 48
0.0
140
64.0
141
0.09
142
0.0
143
25.399999999999999
144
1.0
145
0.0
146
1.0
147
25.0
 71
     0
 72
     0
 73
     0
 74
     0
 75
     0
 76
     0
 77
     1
 78
     8
170
     0
171
     2
172
     1
173
     0
174
     1
175
     0
176
     7
177
     7
178
     7
  0
ENDTAB
  0
TABLE
  2
VIEW
 70
     1
  0
VIEW
  2
ALL
 70
     0
 40
4282.6198079999986
 10
0.0
 20
41.309904000000003
 41
5940.0
 11
0.0
 21
0.0
 31
1.0
 12
0.0
 22
0.0
 32
0.0
 42
50.0
 43
0.0
 44
0.0
 50
0.0
 71
     0
  0
ENDTAB
  0
TABLE
  2
UCS
 70
     0
  0
ENDTAB
  0
TABLE
  2
VPORT
 70
     1
  0
VPORT
  2
*ACTIVE
 70
     0
 10
0.0
 20
0.0
 11
1.0
 21
1.0
 12
169.0244675020667
 22
-24.34823145173414
 13
0.0
 23
0.0
 14
1.0
 24
1.0
 15
0.0
 25
0.0
 16
0.0
 26
0.0
 36
1.0
 17
0.0
 27
0.0
 37
0.0
 40
1396.0216574441711
 41
2.0223642172523961
 42
50.0
 43
0.0
 44
0.0
 50
0.0
 51
0.0
 71
     0
 72
  1000
 73
     1
 74
     3
 75
     0
 76
     0
 77
     0
 78
     0
  0
ENDTAB
  0
ENDSEC
  0
SECTION
  2
BLOCKS
  0
BLOCK
  8
0
  2
_ORIGIN
 70
     0
 10
0.0
 20
0.0
 30
0.0
  3
_ORIGIN
  1
_ORIGIN
  0
CIRCLE
  8
0
  6
CONTINUOUS
 62
     7
 10
0.0
 20
0.0
 30
0.0
 40
0.5
  0
LINE
  8
0
  6
CONTINUOUS
 62
     7
 10
0.0
 20
0.0
 30
0.0
 11
-1.0
 21
0.0
 31
0.0
  0
ENDBLK
  8
0
  0
ENDSEC
  0
SECTION
  2
ENTITIES
  0
TEXT
  8
ETC
  6
CONTINUOUS
 62
    61
 10
356.91350908731471
 20
376.44782997614152
 30
0.0
 40
60.0
  1
BFS-120SUG2_3
 41
0.9
  0
TEXT
  8
ETC
  6
CONTINUOUS
 62
    61
 10
350.78618158731479
 20
282.32914747614132
 30
0.0
 40
60.0
  1
産業扇
 41
0.9
  0
TEXT
  8
ETC
  6
CONTINUOUS
 62
    61
 10
405.5372832222356
 20
211.75570507667771
 30
0.0
 40
40.0
  1
BFS-120SUG2
 41
0.9
  0
TEXT
  8
ETC
  6
CONTINUOUS
 62
    61
 10
405.5372832222356
 20
151.75570507667771
 30
0.0
 40
40.0
  1
BFS-120TUG2
 41
0.9
  0
POINT
  8
ARRANGE
  6
CONTINUOUS
 62
     1
 10
0.0
 20
0.0
 30
0.0
 50
180.0
  0
CIRCLE
  8
ARRANGE
  6
CONTINUOUS
 62
     1
 10
0.0
 20
0.0
 30
0.0
 40
44.210526000000002
  0
CIRCLE
  8
DETAIL
  6
CONTINUOUS
 62
     5
 10
0.0
 20
-175.0
 30
0.0
 40
121.0
  0
CIRCLE
  8
DETAIL
  6
CONTINUOUS
 62
     5
 10
0.0
 20
-175.0
 30
0.0
 40
129.0
  0
LINE
  8
OUTLINE
  6
CONTINUOUS
 62
     3
 10
227.5
 20
0.0
 30
0.0
 11
-227.5
 21
0.0
 31
0.0
  0
LINE
  8
DETAIL
  6
CONTINUOUS
 62
     5
 10
227.5
 20
0.0
 30
0.0
 11
-227.5
 21
0.0
 31
0.0
  0
LINE
  8
DETAIL
  6
CONTINUOUS
 62
     5
 10
227.5
 20
0.0
 30
0.0
 11
-227.5
 21
0.0
 31
0.0
  0
LINE
  8
DETAIL
  6
CONTINUOUS
 62
     5
 10
227.5
 20
-350.0
 30
0.0
 11
-227.5
 21
-350.0
 31
0.0
  0
LINE
  8
OUTLINE
  6
CONTINUOUS
 62
     3
 10
227.5
 20
-350.0
 30
0.0
 11
-227.5
 21
-350.0
 31
0.0
  0
LINE
  8
BASIS
  6
DASHDOT
 62
     6
 10
-327.08452499999999
 20
-175.0
 30
0.0
 11
327.08452499999999
 21
-175.0
 31
0.0
  0
CIRCLE
  8
FIX
  6
CONTINUOUS
 62
    11
 10
265.5
 20
-165.0
 30
0.0
 40
5.5
  0
LINE
  8
OUTLINE
  6
CONTINUOUS
 62
     3
 10
193.1996409999999
 20
-212.465239
 30
0.0
 11
207.39060399999991
 21
-168.465239
 31
0.0
  0
LINE
  8
DETAIL
  6
CONTINUOUS
 62
     5
 10
193.1996409999999
 20
-212.465239
 30
0.0
 11
207.39060399999991
 21
-168.465239
 31
0.0
  0
LINE
  8
OUTLINE
  6
CONTINUOUS
 62
     3
 10
285.5
 20
-165.0
 30
0.0
 11
285.5
 21
-192.606863
 31
0.0
  0
LINE
  8
DETAIL
  6
CONTINUOUS
 62
     5
 10
285.5
 20
-165.0
 30
0.0
 11
285.5
 21
-192.606863
 31
0.0
  0
LINE
  8
NOTE
  6
CONTINUOUS
 62
     4
 10
265.5
 20
-145.0
 30
0.0
 11
265.5
 21
-185.0
 31
0.0
  0
LINE
  8
BASIS
  6
DASHDOT
 62
     6
 10
0.0
 20
-409.04441700000001
 30
0.0
 11
0.0
 21
59.044416000000012
 31
0.0
  0
LINE
  8
OUTLINE
  6
CONTINUOUS
 62
     3
 10
197.95826500000001
 20
-219.0
 30
0.0
 11
270.44429300000002
 21
-219.0
 31
0.0
  0
LINE
  8
DETAIL
  6
CONTINUOUS
 62
     5
 10
197.95826500000001
 20
-219.0
 30
0.0
 11
270.44429300000002
 21
-219.0
 31
0.0
  0
LINE
  8
OUTLINE
  6
CONTINUOUS
 62
     3
 10
285.5
 20
-192.606863
 30
0.0
 11
270.44429300000002
 21
-219.0
 31
0.0
  0
LINE
  8
DETAIL
  6
CONTINUOUS
 62
     5
 10
285.5
 20
-192.606863
 30
0.0
 11
270.44429300000002
 21
-219.0
 31
0.0
  0
LINE
  8
OUTLINE
  6
CONTINUOUS
 62
     3
 10
227.5
 20
-219.0
 30
0.0
 11
227.5
 21
-343.33333399999998
 31
0.0
  0
LINE
  8
DETAIL
  6
CONTINUOUS
 62
     5
 10
227.5
 20
-219.0
 30
0.0
 11
227.5
 21
-350.0
 31
0.0
  0
LINE
  8
OUTLINE
  6
CONTINUOUS
 62
     3
 10
222.6904789999999
 20
-219.0
 30
0.0
 11
222.6904789999999
 21
-350.0
 31
0.0
  0
LINE
  8
DETAIL
  6
CONTINUOUS
 62
     5
 10
222.6904789999999
 20
-219.0
 30
0.0
 11
222.6904789999999
 21
-350.0
 31
0.0
  0
ARC
  8
OUTLINE
  6
CONTINUOUS
 62
     3
 10
197.95826500000001
 20
-214.0
 30
0.0
 40
5.0
 50
162.12435200000149
 51
270.0
  0
ARC
  8
DETAIL
  6
CONTINUOUS
 62
     5
 10
197.95826500000001
 20
-214.0
 30
0.0
 40
5.0
 50
162.12435200000149
 51
270.0
  0
LINE
  8
OUTLINE
  6
CONTINUOUS
 62
     3
 10
285.5
 20
-165.0
 30
0.0
 11
212.1492290000001
 21
-165.0
 31
0.0
  0
LINE
  8
DETAIL
  6
CONTINUOUS
 62
     5
 10
285.5
 20
-165.0
 30
0.0
 11
212.1492290000001
 21
-165.0
 31
0.0
  0
LINE
  8
OUTLINE
  6
CONTINUOUS
 62
     3
 10
227.50000300000011
 20
-165.0
 30
0.0
 11
227.5
 21
0.0
 31
0.0
  0
LINE
  8
DETAIL
  6
CONTINUOUS
 62
     5
 10
227.50000300000011
 20
-165.0
 30
0.0
 11
227.5
 21
0.0
 31
0.0
  0
LINE
  8
OUTLINE
  6
CONTINUOUS
 62
     3
 10
222.6904789999999
 20
-165.0
 30
0.0
 11
222.6904789999999
 21
0.0
 31
0.0
  0
LINE
  8
DETAIL
  6
CONTINUOUS
 62
     5
 10
222.6904789999999
 20
-165.0
 30
0.0
 11
222.6904789999999
 21
0.0
 31
0.0
  0
ARC
  8
OUTLINE
  6
CONTINUOUS
 62
     3
 10
212.1492290000001
 20
-170.0
 30
0.0
 40
5.0
 50
90.0
 51
162.12435200000149
  0
ARC
  8
DETAIL
  6
CONTINUOUS
 62
     5
 10
212.1492290000001
 20
-170.0
 30
0.0
 40
5.0
 50
90.0
 51
162.12435200000149
  0
LINE
  8
DETAIL
  6
CONTINUOUS
 62
     5
 10
-285.5
 20
-165.0
 30
0.0
 11
-285.5
 21
-192.606863
 31
0.0
  0
LINE
  8
DETAIL
  6
CONTINUOUS
 62
     5
 10
-196.32473200000001
 20
-212.465239
 30
0.0
 11
-210.51569500000011
 21
-168.465239
 31
0.0
  0
LINE
  8
OUTLINE
  6
CONTINUOUS
 62
     3
 10
-196.32473200000001
 20
-212.465239
 30
0.0
 11
-210.51569500000011
 21
-168.465239
 31
0.0
  0
LINE
  8
OUTLINE
  6
CONTINUOUS
 62
     3
 10
-285.5
 20
-165.0
 30
0.0
 11
-285.5
 21
-192.606863
 31
0.0
  0
CIRCLE
  8
FIX
  6
CONTINUOUS
 62
    11
 10
-265.77100799999988
 20
-165.0
 30
0.0
 40
5.5
  0
LINE
  8
NOTE
  6
CONTINUOUS
 62
     4
 10
-265.5
 20
-145.0
 30
0.0
 11
-265.5
 21
-185.0
 31
0.0
  0
LINE
  8
DETAIL
  6
CONTINUOUS
 62
     5
 10
-201.08335600000009
 20
-219.0
 30
0.0
 11
-273.5693839999999
 21
-219.0
 31
0.0
  0
LINE
  8
OUTLINE
  6
CONTINUOUS
 62
     3
 10
-201.08335600000009
 20
-219.0
 30
0.0
 11
-273.5693839999999
 21
-219.0
 31
0.0
  0
LINE
  8
DETAIL
  6
CONTINUOUS
 62
     5
 10
-227.5
 20
-350.0
 30
0.0
 11
-227.5
 21
-219.0
 31
0.0
  0
LINE
  8
DETAIL
  6
CONTINUOUS
 62
     5
 10
-222.69047599999999
 20
-219.0
 30
0.0
 11
-222.69047599999999
 21
-350.0
 31
0.0
  0
LINE
  8
OUTLINE
  6
CONTINUOUS
 62
     3
 10
-227.5
 20
-343.33333399999998
 30
0.0
 11
-227.5
 21
-219.0
 31
0.0
  0
LINE
  8
OUTLINE
  6
CONTINUOUS
 62
     3
 10
-222.69047599999999
 20
-219.0
 30
0.0
 11
-222.69047599999999
 21
-343.33333399999998
 31
0.0
  0
ARC
  8
DETAIL
  6
CONTINUOUS
 62
     5
 10
-201.08335600000009
 20
-214.0
 30
0.0
 40
5.0
 50
270.0
 51
17.875647999998471
  0
ARC
  8
OUTLINE
  6
CONTINUOUS
 62
     3
 10
-201.08335600000009
 20
-214.0
 30
0.0
 40
5.0
 50
270.0
 51
17.875647999998471
  0
LINE
  8
DETAIL
  6
CONTINUOUS
 62
     5
 10
-285.5
 20
-192.606863
 30
0.0
 11
-273.5693839999999
 21
-219.0
 31
0.0
  0
LINE
  8
OUTLINE
  6
CONTINUOUS
 62
     3
 10
-285.5
 20
-192.606863
 30
0.0
 11
-273.5693839999999
 21
-219.0
 31
0.0
  0
LINE
  8
OUTLINE
  6
CONTINUOUS
 62
     3
 10
240.0780070000001
 20
-50.680025999999998
 30
0.0
 11
227.5
 21
-50.680025999999998
 31
0.0
  0
LINE
  8
OUTLINE
  6
CONTINUOUS
 62
     3
 10
241.36029000000011
 20
-62.197907999999977
 30
0.0
 11
227.5
 21
-62.197907999999977
 31
0.0
  0
LINE
  8
DETAIL
  6
CONTINUOUS
 62
     5
 10
241.36029000000011
 20
-62.197907999999977
 30
0.0
 11
227.5
 21
-62.197907999999977
 31
0.0
  0
LINE
  8
DETAIL
  6
CONTINUOUS
 62
     5
 10
240.0780070000001
 20
-50.680025999999998
 30
0.0
 11
227.5
 21
-50.680025999999998
 31
0.0
  0
LINE
  8
OUTLINE
  6
CONTINUOUS
 62
     3
 10
244.121578
 20
-155.255403
 30
0.0
 11
227.5
 21
-155.255403
 31
0.0
  0
LINE
  8
DETAIL
  6
CONTINUOUS
 62
     5
 10
244.121578
 20
-155.255403
 30
0.0
 11
227.5
 21
-155.255403
 31
0.0
  0
LINE
  8
DETAIL
  6
CONTINUOUS
 62
     5
 10
-285.5
 20
-165.0
 30
0.0
 11
-215.27431999999999
 21
-165.0
 31
0.0
  0
LINE
  8
OUTLINE
  6
CONTINUOUS
 62
     3
 10
-285.5
 20
-165.0
 30
0.0
 11
-215.27431999999999
 21
-165.0
 31
0.0
  0
LINE
  8
OUTLINE
  6
CONTINUOUS
 62
     3
 10
-227.5
 20
0.0
 30
0.0
 11
-227.5
 21
-165.0
 31
0.0
  0
LINE
  8
DETAIL
  6
CONTINUOUS
 62
     5
 10
-222.69047599999999
 20
-165.0
 30
0.0
 11
-222.69047599999999
 21
0.0
 31
0.0
  0
LINE
  8
OUTLINE
  6
CONTINUOUS
 62
     3
 10
-222.69047599999999
 20
-165.0
 30
0.0
 11
-222.69047599999999
 21
0.0
 31
0.0
  0
LINE
  8
DETAIL
  6
CONTINUOUS
 62
     5
 10
-227.5
 20
-6.6666670000000181
 30
0.0
 11
-227.5
 21
-165.0
 31
0.0
  0
ARC
  8
DETAIL
  6
CONTINUOUS
 62
     5
 10
-215.27431999999999
 20
-170.0
 30
0.0
 40
5.0
 50
17.875647999998471
 51
90.0
  0
ARC
  8
OUTLINE
  6
CONTINUOUS
 62
     3
 10
-215.27431999999999
 20
-170.0
 30
0.0
 40
5.0
 50
17.875647999998471
 51
90.0
  0
LINE
  8
OUTLINE
  6
CONTINUOUS
 62
     3
 10
250.70432199999999
 20
-60.437095999999997
 30
0.0
 11
250.70432199999999
 21
-145.227777
 31
0.0
  0
LINE
  8
DETAIL
  6
CONTINUOUS
 62
     5
 10
250.70432199999999
 20
-60.437095999999997
 30
0.0
 11
250.70432199999999
 21
-145.227777
 31
0.0
  0
ARC
  8
OUTLINE
  6
CONTINUOUS
 62
     3
 10
242.7587880000001
 20
-147.18631500000001
 30
0.0
 40
8.1833600000000004
 50
279.58623499999828
 51
13.847098000001949
  0
ARC
  8
DETAIL
  6
CONTINUOUS
 62
     5
 10
242.7587880000001
 20
-147.18631500000001
 30
0.0
 40
8.1833600000000004
 50
279.58623499999828
 51
13.847098000001949
  0
ARC
  8
OUTLINE
  6
CONTINUOUS
 62
     3
 10
239.68736600000011
 20
-73.092176999999992
 30
0.0
 40
11.021967
 50
1.7278260000001111
 51
81.269856000022841
  0
ARC
  8
DETAIL
  6
CONTINUOUS
 62
     5
 10
239.68736600000011
 20
-73.092176999999992
 30
0.0
 40
11.021967
 50
1.7278260000001111
 51
81.269856000022841
  0
ARC
  8
OUTLINE
  6
CONTINUOUS
 62
     3
 10
240.37037900000001
 20
-61.026641999999981
 30
0.0
 40
10.350745999999999
 50
3.265152999998294
 51
91.61862099999415
  0
ARC
  8
DETAIL
  6
CONTINUOUS
 62
     5
 10
240.37037900000001
 20
-61.026641999999981
 30
0.0
 40
10.350745999999999
 50
3.265152999998294
 51
91.61862099999415
  0
LINE
  8
SIZE
  6
CONTINUOUS
 62
    30
 10
543.06765300000006
 20
-56.256746000000021
 30
0.0
 11
120.1611399999999
 21
-148.72643199999999
 31
0.0
  0
LINE
  8
SIZE
  6
CONTINUOUS
 62
    30
 10
-120.1611399999999
 20
-201.27356800000001
 30
0.0
 11
-122.1149800000001
 21
-201.70078000000001
 31
0.0
  0
TEXT
  8
SIZE
  6
CONTINUOUS
 62
    30
 10
309.7161843452318
 20
-86.8071535678842
 30
0.0
 40
64.0
  1
φ242
 50
12.333755999999999
 41
0.9
 72
     1
 11
421.45349099999999
 21
-62.375512000000008
 31
0.0
  0
LINE
  8
SIZE
  6
CONTINUOUS
 62
    30
 10
-118.2073009999999
 20
-200.84635499999999
 30
0.0
 11
118.2073009999999
 21
-149.15364500000001
 31
0.0
  0
CIRCLE
  8
SIZE
  6
CONTINUOUS
 62
    30
 10
-118.2073009999999
 20
-200.84635499999999
 30
0.0
 40
6.0
  0
CIRCLE
  8
SIZE
  6
CONTINUOUS
 62
    30
 10
118.2073009999999
 20
-149.15364500000001
 30
0.0
 40
6.0
  0
POINT
  8
DEFPOINTS
  6
CONTINUOUS
 62
    30
 10
118.2073009999999
 20
-149.15364500000001
 30
0.0
  0
POINT
  8
DEFPOINTS
  6
CONTINUOUS
 62
    30
 10
-118.2073009999999
 20
-200.84635499999999
 30
0.0
  0
LINE
  8
SIZE
  6
CONTINUOUS
 62
    30
 10
542.51061200000004
 20
-290.973929
 30
0.0
 11
128.10556700000009
 21
-202.38546600000001
 31
0.0
  0
LINE
  8
SIZE
  6
CONTINUOUS
 62
    30
 10
-128.10556700000009
 20
-147.61453399999999
 30
0.0
 11
-130.06137699999999
 21
-147.19643500000001
 31
0.0
  0
TEXT
  8
SIZE
  6
CONTINUOUS
 62
    30
 10
317.38123983147312
 20
-222.39558384822391
 30
0.0
 40
64.0
  1
φ258
 50
347.93337100000002
 41
0.9
 72
     1
 11
429.23123799999979
 21
-246.306015
 31
0.0
  0
LINE
  8
SIZE
  6
CONTINUOUS
 62
    30
 10
-126.14975700000009
 20
-148.032633
 30
0.0
 11
126.14975700000009
 21
-201.967367
 31
0.0
  0
CIRCLE
  8
SIZE
  6
CONTINUOUS
 62
    30
 10
-126.14975700000009
 20
-148.032633
 30
0.0
 40
6.0
  0
CIRCLE
  8
SIZE
  6
CONTINUOUS
 62
    30
 10
126.14975700000009
 20
-201.967367
 30
0.0
 40
6.0
  0
POINT
  8
DEFPOINTS
  6
CONTINUOUS
 62
    30
 10
126.14975700000009
 20
-201.967367
 30
0.0
  0
POINT
  8
DEFPOINTS
  6
CONTINUOUS
 62
    30
 10
-126.14975700000009
 20
-148.032633
 30
0.0
  0
LINE
  8
SIZE
  6
CONTINUOUS
 62
    30
 10
-265.5
 20
-138.50449006534839
 30
0.0
 11
-265.5
 21
219.61274900000001
 31
0.0
  0
LINE
  8
SIZE
  6
CONTINUOUS
 62
    30
 10
265.5
 20
-133.23782813597879
 30
0.0
 11
265.5
 21
219.61274900000001
 31
0.0
  0
LINE
  8
SIZE
  6
CONTINUOUS
 62
    30
 10
-263.5
 20
189.61274900000001
 30
0.0
 11
263.5
 21
189.61274900000001
 31
0.0
  0
CIRCLE
  8
SIZE
  6
CONTINUOUS
 62
    30
 10
-265.5
 20
189.61274900000001
 30
0.0
 40
6.0
  0
CIRCLE
  8
SIZE
  6
CONTINUOUS
 62
    30
 10
265.5
 20
189.61274900000001
 30
0.0
 40
6.0
  0
TEXT
  8
SIZE
  6
CONTINUOUS
 62
    30
 10
-61.714285714285722
 20
209.61274900000001
 30
0.0
 40
64.0
  1
531
 41
0.9
 72
     1
 11
0.0
 21
209.61274900000001
 31
0.0
  0
POINT
  8
DEFPOINTS
  6
CONTINUOUS
 62
    30
 10
-265.5
 20
-175.0
 30
0.0
  0
POINT
  8
DEFPOINTS
  6
CONTINUOUS
 62
    30
 10
265.5
 20
-175.0
 30
0.0
  0
POINT
  8
DEFPOINTS
  6
CONTINUOUS
 62
    30
 10
265.5
 20
189.61274900000001
 30
0.0
  0
LINE
  8
SIZE
  6
CONTINUOUS
 62
    30
 10
-285.5
 20
-155.0
 30
0.0
 11
-285.5
 21
333.78084100000001
 31
0.0
  0
LINE
  8
SIZE
  6
CONTINUOUS
 62
    30
 10
285.5
 20
-155.0
 30
0.0
 11
285.5
 21
333.78084100000001
 31
0.0
  0
LINE
  8
SIZE
  6
CONTINUOUS
 62
    30
 10
-283.5
 20
303.78084100000001
 30
0.0
 11
283.5
 21
303.78084100000001
 31
0.0
  0
CIRCLE
  8
SIZE
  6
CONTINUOUS
 62
    30
 10
-285.5
 20
303.78084100000001
 30
0.0
 40
6.0
  0
CIRCLE
  8
SIZE
  6
CONTINUOUS
 62
    30
 10
285.5
 20
303.78084100000001
 30
0.0
 40
6.0
  0
TEXT
  8
SIZE
  6
CONTINUOUS
 62
    30
 10
-61.714285714285701
 20
323.78084100000001
 30
0.0
 40
64.0
  1
571
 41
0.9
 72
     1
 11
0.0
 21
323.78084100000001
 31
0.0
  0
POINT
  8
DEFPOINTS
  6
CONTINUOUS
 62
    30
 10
-285.5
 20
-175.0
 30
0.0
  0
POINT
  8
DEFPOINTS
  6
CONTINUOUS
 62
    30
 10
285.5
 20
-175.0
 30
0.0
  0
POINT
  8
DEFPOINTS
  6
CONTINUOUS
 62
    30
 10
285.5
 20
303.78084100000001
 30
0.0
  0
LINE
  8
SIZE
  6
CONTINUOUS
 62
    30
 10
-227.5
 20
13.33333299999998
 30
0.0
 11
-227.5
 21
110.801873
 31
0.0
  0
LINE
  8
SIZE
  6
CONTINUOUS
 62
    30
 10
227.5
 20
13.333340000000019
 30
0.0
 11
227.5
 21
110.801873
 31
0.0
  0
LINE
  8
SIZE
  6
CONTINUOUS
 62
    30
 10
-225.5
 20
80.801873000000001
 30
0.0
 11
225.5
 21
80.801873000000001
 31
0.0
  0
CIRCLE
  8
SIZE
  6
CONTINUOUS
 62
    30
 10
-227.5
 20
80.801873000000001
 30
0.0
 40
6.0
  0
CIRCLE
  8
SIZE
  6
CONTINUOUS
 62
    30
 10
227.5
 20
80.801873000000001
 30
0.0
 40
6.0
  0
TEXT
  8
SIZE
  6
CONTINUOUS
 62
    30
 10
-74.05714285714285
 20
100.801873
 30
0.0
 40
64.0
  1
455
 41
0.9
 72
     1
 11
0.0
 21
100.801873
 31
0.0
  0
POINT
  8
DEFPOINTS
  6
CONTINUOUS
 62
    30
 10
-227.5
 20
-6.6666670000000181
 30
0.0
  0
POINT
  8
DEFPOINTS
  6
CONTINUOUS
 62
    30
 10
227.5
 20
-6.6666599999999789
 30
0.0
  0
POINT
  8
DEFPOINTS
  6
CONTINUOUS
 62
    30
 10
227.5
 20
80.801873000000001
 30
0.0
  0
LINE
  8
SIZE
  6
CONTINUOUS
 62
    30
 10
-247.5
 20
0.0
 30
0.0
 11
-495.44635499999998
 21
0.0
 31
0.0
  0
LINE
  8
SIZE
  6
CONTINUOUS
 62
    30
 10
-247.5
 20
-350.0
 30
0.0
 11
-495.44635499999998
 21
-350.0
 31
0.0
  0
LINE
  8
SIZE
  6
CONTINUOUS
 62
    30
 10
-465.44635499999998
 20
-2.0
 30
0.0
 11
-465.44635499999998
 21
-348.0
 31
0.0
  0
CIRCLE
  8
SIZE
  6
CONTINUOUS
 62
    30
 10
-465.44635499999998
 20
0.0
 30
0.0
 40
6.0
  0
CIRCLE
  8
SIZE
  6
CONTINUOUS
 62
    30
 10
-465.44635499999998
 20
-350.0
 30
0.0
 40
6.0
  0
TEXT
  8
SIZE
  6
CONTINUOUS
 62
    30
 10
-485.44635499999998
 20
-249.05714285714279
 30
0.0
 40
64.0
  1
350
 50
90.0
 41
0.9
 72
     1
 11
-485.44635499999998
 21
-175.0
 31
0.0
  0
POINT
  8
DEFPOINTS
  6
CONTINUOUS
 62
    30
 10
-227.5
 20
0.0
 30
0.0
  0
POINT
  8
DEFPOINTS
  6
CONTINUOUS
 62
    30
 10
-227.5
 20
-350.0
 30
0.0
  0
POINT
  8
DEFPOINTS
  6
CONTINUOUS
 62
    30
 10
-465.44635499999998
 20
-350.0
 30
0.0
  0
LINE
  8
NOTE
  6
CONTINUOUS
 62
     4
 10
-526.89769267988254
 20
34.450873591989307
 30
0.0
 11
-394.50235467988227
 21
34.450880591989403
 31
0.0
  0
TEXT
  8
NOTE
  6
CONTINUOUS
 62
     4
 10
-509.73383567988208
 20
53.478424591989317
 30
0.0
 40
70.73684200000001
  1
AH
 41
0.9
  0
LINE
  8
NOTE
  6
CONTINUOUS
 62
     4
 10
-265.77100799999988
 20
-165.0
 30
0.0
 11
-394.50235467988227
 21
34.450880591989403
 31
0.0
  0
LINE
  8
NOTE
  6
CONTINUOUS
 62
     4
 10
-300.27385699999991
 20
-137.35721599999999
 30
0.0
 11
-265.77100799999988
 21
-165.0
 31
0.0
  0
LINE
  8
NOTE
  6
CONTINUOUS
 62
     4
 10
-265.77100799999988
 20
-165.0
 30
0.0
 11
-281.82995899999992
 21
-123.80922200000001
 31
0.0
  0
ENDSEC
  0
EOF
