  0
SECTION
  2
HEADER
  9
$ACADVER
  1
AC1009
  9
$DWGCODEPAGE
  3
dos932
  9
$INSBASE
 10
0.0
 20
0.0
 30
0.0
  9
$EXTMIN
 10
-674.34080380986234
 20
-598.25133124628519
 30
-0.0030516297567118
  9
$EXTMAX
 10
948.97156909453952
 20
622.60437817616003
 30
0.0007631257219032
  9
$LIMMIN
 10
-2970.0
 20
-2100.0
  9
$LIMMAX
 10
2970.0
 20
2100.0
  9
$ORTHOMODE
 70
     1
  9
$REGENMODE
 70
     1
  9
$FILLMODE
 70
     1
  9
$QTEXTMODE
 70
     0
  9
$MIRRTEXT
 70
     0
  9
$LTSCALE
 40
20.0
  9
$ATTMODE
 70
     1
  9
$TEXTSIZE
 40
64.0
  9
$TRACEWID
 40
0.05
  9
$TEXTSTYLE
  7
STANDARD
  9
$CLAYER
  8
SIZE
  9
$CELTYPE
  6
CONTINUOUS
  9
$CECOLOR
 62
     7
  9
$DIMSCALE
 40
1.0
  9
$DIMASZ
 40
12.0
  9
$DIMEXO
 40
20.0
  9
$DIMDLI
 40
200.0
  9
$DIMRND
 40
0.0
  9
$DIMDLE
 40
0.0
  9
$DIMEXE
 40
20.0
  9
$DIMTP
 40
0.0
  9
$DIMTM
 40
0.0
  9
$DIMTXT
 40
64.0
  9
$DIMCEN
 40
0.09
  9
$DIMTSZ
 40
0.0
  9
$DIMTOL
 70
     0
  9
$DIMLIM
 70
     0
  9
$DIMTIH
 70
     0
  9
$DIMTOH
 70
     0
  9
$DIMSE1
 70
     0
  9
$DIMSE2
 70
     0
  9
$DIMTAD
 70
     1
  9
$DIMZIN
 70
     8
  9
$DIMBLK
  1

  9
$DIMASO
 70
     1
  9
$DIMSHO
 70
     0
  9
$DIMPOST
  1

  9
$DIMAPOST
  1

  9
$DIMALT
 70
     0
  9
$DIMALTD
 70
     2
  9
$DIMALTF
 40
25.399999999999999
  9
$DIMLFAC
 40
1.0
  9
$DIMTOFL
 70
     1
  9
$DIMTVP
 40
0.0
  9
$DIMTIX
 70
     1
  9
$DIMSOXD
 70
     0
  9
$DIMSAH
 70
     0
  9
$DIMBLK1
  1

  9
$DIMBLK2
  1

  9
$DIMSTYLE
  2
STANDARD
  9
$DIMCLRD
 70
     7
  9
$DIMCLRE
 70
     7
  9
$DIMCLRT
 70
     7
  9
$DIMTFAC
 40
1.0
  9
$DIMGAP
 40
25.0
  9
$LUNITS
 70
     2
  9
$LUPREC
 70
     4
  9
$SKETCHINC
 40
0.1
  9
$FILLETRAD
 40
3.0
  9
$AUNITS
 70
     1
  9
$AUPREC
 70
     3
  9
$MENU
  1
ACAD
  9
$ELEVATION
 40
0.0
  9
$PELEVATION
 40
0.0
  9
$THICKNESS
 40
0.0
  9
$LIMCHECK
 70
     0
  9
$CHAMFERA
 40
0.0
  9
$CHAMFERB
 40
0.0
  9
$SKPOLY
 70
     0
  9
$TDCREATE
 40
2453019.62301037
  9
$TDUPDATE
 40
2459268.677134977
  9
$TDINDWG
 40
1.7309071875
  9
$TDUSRTIMER
 40
1.7309071875
  9
$USRTIMER
 70
     1
  9
$ANGBASE
 50
0.0
  9
$ANGDIR
 70
     0
  9
$PDMODE
 70
     3
  9
$PDSIZE
 40
-2.0
  9
$PLINEWID
 40
0.0
  9
$SPLFRAME
 70
     0
  9
$SPLINETYPE
 70
     6
  9
$SPLINESEGS
 70
     8
  9
$SURFTAB1
 70
     6
  9
$SURFTAB2
 70
     6
  9
$SURFTYPE
 70
     6
  9
$SURFU
 70
     6
  9
$SURFV
 70
     6
  9
$UCSNAME
  2

  9
$UCSORG
 10
0.0
 20
0.0
 30
0.0
  9
$UCSXDIR
 10
1.0
 20
0.0
 30
0.0
  9
$UCSYDIR
 10
0.0
 20
1.0
 30
0.0
  9
$PUCSNAME
  2

  9
$PUCSORG
 10
0.0
 20
0.0
 30
0.0
  9
$PUCSXDIR
 10
1.0
 20
0.0
 30
0.0
  9
$PUCSYDIR
 10
0.0
 20
1.0
 30
0.0
  9
$USERI1
 70
     0
  9
$USERI2
 70
     0
  9
$USERI3
 70
     0
  9
$USERI4
 70
     0
  9
$USERI5
 70
     0
  9
$USERR1
 40
20.0
  9
$USERR2
 40
0.0
  9
$USERR3
 40
0.0
  9
$USERR4
 40
0.0
  9
$USERR5
 40
0.0
  9
$WORLDVIEW
 70
     1
  9
$SHADEDGE
 70
     3
  9
$SHADEDIF
 70
    70
  9
$TILEMODE
 70
     1
  9
$MAXACTVP
 70
    48
  9
$PINSBASE
 10
0.0
 20
0.0
 30
0.0
  9
$PLIMCHECK
 70
     0
  9
$PEXTMIN
 10
-100000000000000000000.0
 20
-100000000000000000000.0
 30
-100000000000000000000.0
  9
$PEXTMAX
 10
100000000000000000000.0
 20
100000000000000000000.0
 30
100000000000000000000.0
  9
$PLIMMIN
 10
0.0
 20
0.0
  9
$PLIMMAX
 10
12.0
 20
9.0
  9
$UNITMODE
 70
     0
  9
$VISRETAIN
 70
     0
  9
$PLINEGEN
 70
     0
  9
$PSLTSCALE
 70
     0
  9
$TREEDEPTH
 70
  3020
  9
$ATTDIA
 70
     0
  9
$ATTREQ
 70
     1
  9
$BLIPMODE
 70
     1
  9
$COORDS
 70
     1
  9
$DRAGMODE
 70
     2
  9
$OSMODE
 70
     0
  9
$HANDLING
 70
     0
  9
$HANDSEED
  5
10BD9
  0
ENDSEC
  0
SECTION
  2
TABLES
  0
TABLE
  2
LTYPE
 70
     2
  0
LTYPE
  2
CONTINUOUS
 70
     0
  3
実線
 72
    65
 73
     0
 40
0.0
  0
LTYPE
  2
DASHDOT
 70
     0
  3
____ _ ____ _ ____ _ ____ _ ____ _ ____ _ ____
 72
    65
 73
     4
 40
5.5
 49
4.0
 49
-0.6
 49
0.3
 49
-0.6
  0
ENDTAB
  0
TABLE
  2
LAYER
 70
    12
  0
LAYER
  2
0
 70
     0
 62
     7
  6
CONTINUOUS
  0
LAYER
  2
BASIS
 70
     0
 62
     6
  6
DASHDOT
  0
LAYER
  2
OUTLINE
 70
     0
 62
     3
  6
CONTINUOUS
  0
LAYER
  2
DETAIL
 70
     0
 62
     5
  6
CONTINUOUS
  0
LAYER
  2
SIZE
 70
     0
 62
    30
  6
CONTINUOUS
  0
LAYER
  2
ARRANGE
 70
     0
 62
     1
  6
CONTINUOUS
  0
LAYER
  2
DEFPOINTS
 70
     0
 62
     7
  6
CONTINUOUS
  0
LAYER
  2
ETC
 70
     0
 62
    61
  6
CONTINUOUS
  0
LAYER
  2
FIX
 70
     0
 62
    11
  6
CONTINUOUS
  0
LAYER
  2
NOTE
 70
     0
 62
     4
  6
CONTINUOUS
  0
LAYER
  2
SERVICESPACE
 70
    64
 62
     2
  6
DASHDOT
  0
LAYER
  2
SYMBOLLINE
 70
    64
 62
    15
  6
CONTINUOUS
  0
ENDTAB
  0
TABLE
  2
STYLE
 70
     1
  0
STYLE
  2
STANDARD
 70
     0
 40
64.0
 41
0.9
 50
0.0
 71
     0
 42
64.0
  3
SIMPLEX.shx
  4
BIGFONT.shx
  0
ENDTAB
  0
TABLE
  2
APPID
 70
    19
  0
APPID
  2
ACAD
 70
     0
  0
APPID
  2
AUTOCAD_POSTSCRIPT_FIGURE
 70
     0
  0
APPID
  2
ACAD_EXEMPT_FROM_CAD_STANDARDS
 70
     0
  0
APPID
  2
ACAD_PSEXT
 70
     0
  0
APPID
  2
ACAUTHENVIRON
 70
     0
  0
APPID
  2
GENIUS_GENOENT_13
 70
     0
  0
APPID
  2
GENIUS_GENCFG_13
 70
     0
  0
APPID
  2
GENIUS_GENCFG0_13
 70
     0
  0
APPID
  2
GENIUS_GENCFG1_13
 70
     0
  0
APPID
  2
GENIUS_GENCFG2_13
 70
     0
  0
APPID
  2
GENIUS_GENCFG3_13
 70
     0
  0
APPID
  2
GENIUS_GENCFG4_13
 70
     0
  0
APPID
  2
GENIUS_GEVCFG0_13
 70
     0
  0
APPID
  2
CONTENTBLOCKICON
 70
     0
  0
APPID
  2
CONTENTBLOCKDESCRIPTION
 70
     0
  0
APPID
  2
ACAD_NAV_VCDISPLAY
 70
     0
  0
APPID
  2
ACAD_MLEADERVER
 70
     0
  0
APPID
  2
ACDBDYNAMICBLOCKTRUENAME
 70
     0
  0
APPID
  2
ACDBDYNAMICBLOCKGUID
 70
     0
  0
ENDTAB
  0
TABLE
  2
DIMSTYLE
 70
     1
  0
DIMSTYLE
  2
STANDARD
 70
     0
  3

  4

  5
_ORIGIN
  6

  7

 40
1.0
 41
12.0
 42
20.0
 43
200.0
 44
20.0
 45
0.0
 46
0.0
 47
0.0
 48
0.0
140
64.0
141
0.09
142
0.0
143
25.399999999999999
144
1.0
145
0.0
146
1.0
147
25.0
 71
     0
 72
     0
 73
     0
 74
     0
 75
     0
 76
     0
 77
     1
 78
     8
170
     0
171
     2
172
     1
173
     0
174
     1
175
     0
176
     7
177
     7
178
     7
  0
ENDTAB
  0
TABLE
  2
VIEW
 70
     1
  0
VIEW
  2
ALL
 70
     0
 40
4282.6198079999986
 10
0.0
 20
41.309904000000003
 41
5940.0
 11
0.0
 21
0.0
 31
1.0
 12
0.0
 22
0.0
 32
0.0
 42
50.0
 43
0.0
 44
0.0
 50
0.0
 71
     0
  0
ENDTAB
  0
TABLE
  2
UCS
 70
     0
  0
ENDTAB
  0
TABLE
  2
VPORT
 70
     1
  0
VPORT
  2
*ACTIVE
 70
     0
 10
0.0
 20
0.0
 11
1.0
 21
1.0
 12
137.3153826423387
 22
12.17652346493742
 13
0.0
 23
0.0
 14
1.0
 24
1.0
 15
0.0
 25
0.0
 16
0.0
 26
0.0
 36
1.0
 17
0.0
 27
0.0
 37
0.0
 40
1169.9913573852989
 41
1.833137485311398
 42
50.0
 43
0.0
 44
0.0
 50
0.0
 51
0.0
 71
     0
 72
  1000
 73
     1
 74
     3
 75
     0
 76
     0
 77
     0
 78
     0
  0
ENDTAB
  0
ENDSEC
  0
SECTION
  2
BLOCKS
  0
BLOCK
  8
0
  2
_ORIGIN
 70
     0
 10
0.0
 20
0.0
 30
0.0
  3
_ORIGIN
  1
_ORIGIN
  0
CIRCLE
  8
SIZE
  6
CONTINUOUS
 62
    30
 10
0.0
 20
0.0
 30
0.0
 40
0.5
  0
LINE
  8
SIZE
  6
CONTINUOUS
 62
    30
 10
0.0
 20
0.0
 30
0.0
 11
-1.0
 21
0.0
 31
0.0
  0
ENDBLK
  8
0
  0
ENDSEC
  0
SECTION
  2
ENTITIES
  0
CIRCLE
  8
ARRANGE
  6
CONTINUOUS
 62
     1
 10
0.0
 20
0.0
 30
0.0
 40
40.0
  0
POINT
  8
ARRANGE
  6
CONTINUOUS
 62
     1
 10
0.0
 20
0.0
 30
0.0
  0
LINE
  8
BASIS
  6
DASHDOT
 62
     6
 10
0.0
 20
-371.36238898369572
 30
0.0
 11
0.0
 21
65.342796121875381
 31
0.0
  0
LINE
  8
BASIS
  6
DASHDOT
 62
     6
 10
-412.6989435275816
 20
-176.09095523515609
 30
0.0
 11
412.69894352758172
 21
-176.09095523515609
 31
0.0
  0
TEXT
  8
NOTE
  6
CONTINUOUS
 62
     4
 10
425.92562212808451
 20
-207.01149228987211
 30
0.0
 40
63.968000000000053
  1
RA
 41
0.9
 72
     1
 11
476.64310784237023
 21
-207.01149228987211
 31
0.0
  0
TEXT
  8
NOTE
  6
CONTINUOUS
 62
     4
 10
-532.76857827260233
 20
-208.94433325231029
 30
0.0
 40
63.968000000000053
  1
EA
 41
0.9
 72
     1
 11
-484.79257827260233
 21
-208.94433325231029
 31
0.0
  0
CIRCLE
  8
FIX
  6
CONTINUOUS
 62
    11
 10
277.0
 20
-165.62827874171279
 30
0.0
 40
4.9974999999999996
  0
LINE
  8
NOTE
  6
CONTINUOUS
 62
     4
 10
277.0
 20
-188.93999871739669
 30
0.0
 11
277.0
 21
-142.316558766029
 31
0.0
  0
LINE
  8
NOTE
  6
CONTINUOUS
 62
     4
 10
248.14116370032181
 20
-165.62827874171279
 30
0.0
 11
304.4588362996783
 21
-165.62827874171279
 31
0.0
  0
CIRCLE
  8
FIX
  6
CONTINUOUS
 62
    11
 10
-277.0
 20
-165.63017999432199
 30
0.0
 40
4.9974999999999996
  0
LINE
  8
NOTE
  6
CONTINUOUS
 62
     4
 10
-277.0
 20
-188.94189997000581
 30
0.0
 11
-277.0
 21
-142.31846001863821
 31
0.0
  0
LINE
  8
NOTE
  6
CONTINUOUS
 62
     4
 10
-304.4588362996783
 20
-165.63017999432199
 30
0.0
 11
-249.84081370032169
 21
-165.63017999432199
 31
0.0
  0
LINE
  8
SIZE
  6
CONTINUOUS
 62
    30
 10
-297.81878296966352
 20
-149.5871293067996
 30
0.0
 11
-297.81878296966352
 21
263.35903090096622
 31
0.0
  0
LINE
  8
SIZE
  6
CONTINUOUS
 62
    30
 10
297.70567295351827
 20
-149.5871293067996
 30
0.0
 11
297.70567295351827
 21
263.35903090096622
 31
0.0
  0
LINE
  8
SIZE
  6
CONTINUOUS
 62
    30
 10
-285.81878296966352
 20
243.35903090096619
 30
0.0
 11
285.70567295351827
 21
243.35903090096619
 31
0.0
  0
CIRCLE
  8
SIZE
  6
CONTINUOUS
 62
    30
 10
-297.81878296966352
 20
243.35903090096619
 30
0.0
 40
6.0
  0
LINE
  8
SIZE
  6
CONTINUOUS
 62
    30
 10
-297.81878296966352
 20
243.35903090096619
 30
0.0
 11
-285.81878296966352
 21
243.35903090096619
 31
0.0
  0
CIRCLE
  8
SIZE
  6
CONTINUOUS
 62
    30
 10
297.70567295351827
 20
243.35903090096619
 30
0.0
 40
6.0
  0
LINE
  8
SIZE
  6
CONTINUOUS
 62
    30
 10
297.70567295351827
 20
243.35903090096619
 30
0.0
 11
285.70567295351827
 21
243.35903090096619
 31
0.0
  0
TEXT
  8
SIZE
  6
CONTINUOUS
 62
    30
 10
-72.685714285714297
 20
268.35903090096622
 30
0.0
 40
64.0
  1
596
 41
0.9
 72
     1
 11
0.0
 21
268.35903090096622
 31
0.0
  0
POINT
  8
DEFPOINTS
  6
CONTINUOUS
 62
    30
 10
-297.81878296966352
 20
-169.5871293067996
 30
0.0
  0
POINT
  8
DEFPOINTS
  6
CONTINUOUS
 62
    30
 10
297.70567295351827
 20
-169.5871293067996
 30
0.0
  0
POINT
  8
DEFPOINTS
  6
CONTINUOUS
 62
    30
 10
297.70567295351827
 20
243.35903090096619
 30
0.0
  0
LINE
  8
SIZE
  6
CONTINUOUS
 62
    30
 10
277.0
 20
-122.316558766029
 30
0.0
 11
277.0
 21
131.824413116351
 31
0.0
  0
LINE
  8
SIZE
  6
CONTINUOUS
 62
    30
 10
-277.0
 20
-122.31846001863821
 30
0.0
 11
-277.0
 21
131.824413116351
 31
0.0
  0
LINE
  8
SIZE
  6
CONTINUOUS
 62
    30
 10
265.0
 20
111.824413116351
 30
0.0
 11
-265.0
 21
111.824413116351
 31
0.0
  0
CIRCLE
  8
SIZE
  6
CONTINUOUS
 62
    30
 10
277.0
 20
111.824413116351
 30
0.0
 40
6.0
  0
LINE
  8
SIZE
  6
CONTINUOUS
 62
    30
 10
277.0
 20
111.824413116351
 30
0.0
 11
265.0
 21
111.824413116351
 31
0.0
  0
CIRCLE
  8
SIZE
  6
CONTINUOUS
 62
    30
 10
-277.0
 20
111.824413116351
 30
0.0
 40
6.0
  0
LINE
  8
SIZE
  6
CONTINUOUS
 62
    30
 10
-277.0
 20
111.824413116351
 30
0.0
 11
-265.0
 21
111.824413116351
 31
0.0
  0
TEXT
  8
SIZE
  6
CONTINUOUS
 62
    30
 10
-75.428571428571416
 20
136.824413116351
 30
0.0
 40
64.0
  1
554
 41
0.9
 72
     1
 11
0.0
 21
136.824413116351
 31
0.0
  0
POINT
  8
DEFPOINTS
  6
CONTINUOUS
 62
    30
 10
277.0
 20
-142.316558766029
 30
0.0
  0
POINT
  8
DEFPOINTS
  6
CONTINUOUS
 62
    30
 10
-277.0
 20
-142.31846001863821
 30
0.0
  0
POINT
  8
DEFPOINTS
  6
CONTINUOUS
 62
    30
 10
-277.0
 20
111.824413116351
 30
0.0
  0
LINE
  8
SIZE
  6
CONTINUOUS
 62
    30
 10
295.50002763868412
 20
-368.2796149132987
 30
0.0
 11
295.50002763868412
 21
-598.11597828259733
 31
0.0
  0
LINE
  8
SIZE
  6
CONTINUOUS
 62
    30
 10
-295.50002763868412
 20
-368.2796149132987
 30
0.0
 11
-295.50002763868412
 21
-598.11597828259733
 31
0.0
  0
LINE
  8
SIZE
  6
CONTINUOUS
 62
    30
 10
283.50002763868412
 20
-578.11597828259733
 30
0.0
 11
-283.50002763868412
 21
-578.11597828259733
 31
0.0
  0
CIRCLE
  8
SIZE
  6
CONTINUOUS
 62
    30
 10
295.50002763868412
 20
-578.11597828259733
 30
0.0
 40
6.0
  0
LINE
  8
SIZE
  6
CONTINUOUS
 62
    30
 10
295.50002763868412
 20
-578.11597828259733
 30
0.0
 11
283.50002763868412
 21
-578.11597828259733
 31
0.0
  0
CIRCLE
  8
SIZE
  6
CONTINUOUS
 62
    30
 10
-295.50002763868412
 20
-578.11597828259733
 30
0.0
 40
6.0
  0
LINE
  8
SIZE
  6
CONTINUOUS
 62
    30
 10
-295.50002763868412
 20
-578.11597828259733
 30
0.0
 11
-283.50002763868412
 21
-578.11597828259733
 31
0.0
  0
TEXT
  8
SIZE
  6
CONTINUOUS
 62
    30
 10
-74.631760219118789
 20
-553.11597828259733
 30
0.0
 40
64.0
  1
591
 41
0.9
 72
     1
 11
-12.917474504833081
 21
-553.11597828259733
 31
0.0
  0
POINT
  8
DEFPOINTS
  6
CONTINUOUS
 62
    30
 10
-295.50002763868412
 20
-578.11597828259733
 30
0.0
  0
LINE
  8
SIZE
  6
CONTINUOUS
 62
    30
 10
380.54076963466707
 20
-314.40403212317523
 30
0.0
 11
380.54076963466707
 21
-598.11597828259733
 31
0.0
  0
LINE
  8
SIZE
  6
CONTINUOUS
 62
    30
 10
295.50002763868412
 20
-368.2796149132987
 30
0.0
 11
295.50002763868412
 21
-598.11597828259733
 31
0.0
  0
LINE
  8
SIZE
  6
CONTINUOUS
 62
    30
 10
307.50002763868412
 20
-578.11597828259733
 30
0.0
 11
368.54076963466707
 21
-578.11597828259733
 31
0.0
  0
LINE
  8
SIZE
  6
CONTINUOUS
 62
    30
 10
380.54076963466707
 20
-578.11597828259733
 30
0.0
 11
556.36934106323838
 21
-578.11597828259733
 31
0.0
  0
CIRCLE
  8
SIZE
  6
CONTINUOUS
 62
    30
 10
295.50002763868412
 20
-578.11597828259733
 30
0.0
 40
6.0
  0
LINE
  8
SIZE
  6
CONTINUOUS
 62
    30
 10
295.50002763868412
 20
-578.11597828259733
 30
0.0
 11
307.50002763868412
 21
-578.11597828259733
 31
0.0
  0
CIRCLE
  8
SIZE
  6
CONTINUOUS
 62
    30
 10
380.54076963466707
 20
-578.11597828259733
 30
0.0
 40
6.0
  0
LINE
  8
SIZE
  6
CONTINUOUS
 62
    30
 10
380.54076963466707
 20
-578.11597828259733
 30
0.0
 11
368.54076963466707
 21
-578.11597828259733
 31
0.0
  0
TEXT
  8
SIZE
  6
CONTINUOUS
 62
    30
 10
438.11219820609563
 20
-553.11597828259733
 30
0.0
 40
64.0
  1
85
 41
0.9
 72
     1
 11
484.740769634667
 21
-553.11597828259733
 31
0.0
  0
POINT
  8
DEFPOINTS
  6
CONTINUOUS
 62
    30
 10
380.54076963466707
 20
-294.40403212317523
 30
0.0
  0
POINT
  8
DEFPOINTS
  6
CONTINUOUS
 62
    30
 10
295.50002763868412
 20
-348.2796149132987
 30
0.0
  0
POINT
  8
DEFPOINTS
  6
CONTINUOUS
 62
    30
 10
295.50002763868412
 20
-578.11597828259733
 30
0.0
  0
LINE
  8
SIZE
  6
CONTINUOUS
 62
    30
 10
-295.50002763868412
 20
-368.2796149132987
 30
0.0
 11
-295.50002763868412
 21
-598.11597828259733
 31
0.0
  0
LINE
  8
SIZE
  6
CONTINUOUS
 62
    30
 10
-380.65387965081248
 20
-314.40403212317523
 30
0.0
 11
-380.65387965081248
 21
-598.11597828259733
 31
0.0
  0
LINE
  8
SIZE
  6
CONTINUOUS
 62
    30
 10
-307.50002763868412
 20
-578.11597828259733
 30
0.0
 11
-368.65387965081248
 21
-578.11597828259733
 31
0.0
  0
LINE
  8
SIZE
  6
CONTINUOUS
 62
    30
 10
-380.65387965081248
 20
-578.11597828259733
 30
0.0
 11
-556.48245107938396
 21
-578.11597828259733
 31
0.0
  0
CIRCLE
  8
SIZE
  6
CONTINUOUS
 62
    30
 10
-295.50002763868412
 20
-578.11597828259733
 30
0.0
 40
6.0
  0
LINE
  8
SIZE
  6
CONTINUOUS
 62
    30
 10
-295.50002763868412
 20
-578.11597828259733
 30
0.0
 11
-307.50002763868412
 21
-578.11597828259733
 31
0.0
  0
CIRCLE
  8
SIZE
  6
CONTINUOUS
 62
    30
 10
-380.65387965081248
 20
-578.11597828259733
 30
0.0
 40
6.0
  0
LINE
  8
SIZE
  6
CONTINUOUS
 62
    30
 10
-380.65387965081248
 20
-578.11597828259733
 30
0.0
 11
-368.65387965081248
 21
-578.11597828259733
 31
0.0
  0
TEXT
  8
SIZE
  6
CONTINUOUS
 62
    30
 10
-531.48245107938396
 20
-553.11597828259733
 30
0.0
 40
64.0
  1
85
 41
0.9
 72
     1
 11
-484.85387965081259
 21
-553.11597828259733
 31
0.0
  0
POINT
  8
DEFPOINTS
  6
CONTINUOUS
 62
    30
 10
-295.50002763868412
 20
-348.2796149132987
 30
0.0
  0
POINT
  8
DEFPOINTS
  6
CONTINUOUS
 62
    30
 10
-380.65387965081248
 20
-294.40403212317523
 30
0.0
  0
POINT
  8
DEFPOINTS
  6
CONTINUOUS
 62
    30
 10
-380.65387965081248
 20
-578.11597828259733
 30
0.0
  0
LINE
  8
SIZE
  6
CONTINUOUS
 62
    30
 10
398.84411939248707
 20
-55.17634797579467
 30
0.0
 11
697.45480863793364
 21
-55.176347975794783
 31
0.0
  0
LINE
  8
SIZE
  6
CONTINUOUS
 62
    30
 10
397.88268425525172
 20
-296.89245247837277
 30
0.0
 11
697.45480863793352
 21
-296.89245247837277
 31
0.0
  0
LINE
  8
SIZE
  6
CONTINUOUS
 62
    30
 10
677.45480863793364
 20
-67.176347975794783
 30
0.0
 11
677.45480863793352
 21
-284.89245247837277
 31
0.0
  0
LINE
  8
SIZE
  6
CONTINUOUS
 62
    30
 10
677.45480863793352
 20
-296.89245247837277
 30
0.0
 11
677.45480863793352
 21
-567.34959533551557
 31
0.0
  0
CIRCLE
  8
SIZE
  6
CONTINUOUS
 62
    30
 10
677.45480863793364
 20
-55.176347975794783
 30
0.0
 40
6.0
  0
LINE
  8
SIZE
  6
CONTINUOUS
 62
    30
 10
677.45480863793364
 20
-55.176347975794783
 30
0.0
 11
677.45480863793364
 21
-67.176347975794783
 31
0.0
  0
CIRCLE
  8
SIZE
  6
CONTINUOUS
 62
    30
 10
677.45480863793352
 20
-296.89245247837277
 30
0.0
 40
6.0
  0
LINE
  8
SIZE
  6
CONTINUOUS
 62
    30
 10
677.45480863793352
 20
-296.89245247837277
 30
0.0
 11
677.45480863793352
 21
-284.89245247837277
 31
0.0
  0
TEXT
  8
SIZE
  6
CONTINUOUS
 62
    30
 10
641.78814197126701
 20
-552.49816676408693
 30
0.0
 40
64.0
  1
φ242
 50
90.0
 41
0.9
 72
     1
 11
641.78814197126701
 21
-438.12102390694412
 31
0.0
  0
POINT
  8
DEFPOINTS
  6
CONTINUOUS
 62
    30
 10
378.84411939248707
 20
-55.17634797579467
 30
0.0
  0
POINT
  8
DEFPOINTS
  6
CONTINUOUS
 62
    30
 10
377.88268425525172
 20
-296.89245247837277
 30
0.0
  0
POINT
  8
DEFPOINTS
  6
CONTINUOUS
 62
    30
 10
677.45480863793352
 20
-296.89245247837277
 30
0.0
  0
LINE
  8
SIZE
  6
CONTINUOUS
 62
    30
 10
316.97045784857352
 20
-47.315201853694127
 30
0.0
 11
858.53401073774694
 21
-47.315201853694298
 31
0.0
  0
LINE
  8
SIZE
  6
CONTINUOUS
 62
    30
 10
316.97045784857352
 20
-304.86670861661861
 30
0.0
 11
858.53401073774694
 21
-304.86670861661878
 31
0.0
  0
LINE
  8
SIZE
  6
CONTINUOUS
 62
    30
 10
838.53401073774694
 20
-59.315201853694248
 30
0.0
 11
838.53401073774694
 21
-292.86670861661878
 31
0.0
  0
LINE
  8
SIZE
  6
CONTINUOUS
 62
    30
 10
838.53401073774694
 20
-304.86670861661878
 30
0.0
 11
838.53401073774694
 21
-576.18690489718006
 31
0.0
  0
CIRCLE
  8
SIZE
  6
CONTINUOUS
 62
    30
 10
838.53401073774694
 20
-47.315201853694248
 30
0.0
 40
6.0
  0
LINE
  8
SIZE
  6
CONTINUOUS
 62
    30
 10
838.53401073774694
 20
-47.315201853694248
 30
0.0
 11
838.53401073774694
 21
-59.315201853694248
 31
0.0
  0
CIRCLE
  8
SIZE
  6
CONTINUOUS
 62
    30
 10
838.53401073774694
 20
-304.86670861661878
 30
0.0
 40
6.0
  0
LINE
  8
SIZE
  6
CONTINUOUS
 62
    30
 10
838.53401073774694
 20
-304.86670861661878
 30
0.0
 11
838.53401073774694
 21
-292.86670861661878
 31
0.0
  0
TEXT
  8
SIZE
  6
CONTINUOUS
 62
    30
 10
802.86734407108031
 20
-561.33547632575119
 30
0.0
 40
64.0
  1
φ258
 50
90.0
 41
0.9
 72
     1
 11
802.86734407108031
 21
-446.95833346860832
 31
0.0
  0
POINT
  8
DEFPOINTS
  6
CONTINUOUS
 62
    30
 10
296.97045784857352
 20
-47.315201853694127
 30
0.0
  0
POINT
  8
DEFPOINTS
  6
CONTINUOUS
 62
    30
 10
296.97045784857352
 20
-304.86670861661861
 30
0.0
  0
POINT
  8
DEFPOINTS
  6
CONTINUOUS
 62
    30
 10
838.53401073774694
 20
-304.86670861661878
 30
0.0
  0
LINE
  8
SIZE
  6
CONTINUOUS
 62
    30
 10
-312.84194225926899
 20
-0.9614351372354122
 30
0.0
 11
-605.17017946404246
 21
-0.9614351372352985
 31
0.0
  0
LINE
  8
SIZE
  6
CONTINUOUS
 62
    30
 10
-312.84194225926899
 20
-351.10736531693192
 30
0.0
 11
-605.17017946404258
 21
-351.10736531693192
 31
0.0
  0
LINE
  8
SIZE
  6
CONTINUOUS
 62
    30
 10
-585.17017946404246
 20
-12.9614351372353
 30
0.0
 11
-585.17017946404258
 21
-339.10736531693198
 31
0.0
  0
CIRCLE
  8
SIZE
  6
CONTINUOUS
 62
    30
 10
-585.17017946404246
 20
-0.9614351372352985
 30
0.0
 40
6.0
  0
LINE
  8
SIZE
  6
CONTINUOUS
 62
    30
 10
-585.17017946404246
 20
-0.9614351372352985
 30
0.0
 11
-585.17017946404246
 21
-12.9614351372353
 31
0.0
  0
CIRCLE
  8
SIZE
  6
CONTINUOUS
 62
    30
 10
-585.17017946404258
 20
-351.10736531693192
 30
0.0
 40
6.0
  0
LINE
  8
SIZE
  6
CONTINUOUS
 62
    30
 10
-585.17017946404258
 20
-351.10736531693192
 30
0.0
 11
-585.17017946404258
 21
-339.10736531693198
 31
0.0
  0
TEXT
  8
SIZE
  6
CONTINUOUS
 62
    30
 10
-610.17017946404246
 20
-250.25624366720791
 30
0.0
 40
64.0
  1
350
 50
90.0
 41
0.9
 72
     1
 11
-610.17017946404246
 21
-176.19910081006509
 31
0.0
  0
POINT
  8
DEFPOINTS
  6
CONTINUOUS
 62
    30
 10
-292.84194225926899
 20
-0.9614351372354122
 30
0.0
  0
POINT
  8
DEFPOINTS
  6
CONTINUOUS
 62
    30
 10
-292.84194225926899
 20
-351.10736531693192
 30
0.0
  0
POINT
  8
DEFPOINTS
  6
CONTINUOUS
 62
    30
 10
-585.17017946404258
 20
-351.10736531693192
 30
0.0
  0
TEXT
  8
NOTE
  6
CONTINUOUS
 62
     4
 10
355.24270495070567
 20
-25.538340884133159
 30
0.0
 40
63.968000000000053
  1
AH
 41
0.9
  0
LINE
  8
NOTE
  6
CONTINUOUS
 62
     4
 10
281.40821096710852
 20
-161.25634549584211
 30
0.0
 11
277.0
 21
-165.62827874171279
 31
0.0
  0
LINE
  8
NOTE
  6
CONTINUOUS
 62
     4
 10
277.0
 20
-165.62827874171279
 30
0.0
 11
278.63164703275868
 21
-159.6379655447777
 31
0.0
  0
LINE
  8
NOTE
  6
CONTINUOUS
 62
     4
 10
277.0
 20
-165.62827874171279
 30
0.0
 11
283.03985799986719
 21
-155.26603229890699
 31
0.0
  0
LINE
  8
NOTE
  6
CONTINUOUS
 62
     4
 10
283.03985799986708
 20
-155.26603229890711
 30
0.0
 11
349.96383718351069
 21
-40.448305582588198
 31
0.0
  0
LINE
  8
NOTE
  6
CONTINUOUS
 62
     4
 10
349.96383718351069
 20
-40.448305582588198
 30
0.0
 11
485.63882289779639
 21
-40.448305582588198
 31
0.0
  0
TEXT
  8
ETC
  6
CONTINUOUS
 62
    61
 10
287.51797089304449
 20
558.35210606333794
 30
0.0
 40
64.0
  1
BFS-120TKA2_4
 41
0.9
  0
TEXT
  8
ETC
  6
CONTINUOUS
 62
    61
 10
283.33197689304421
 20
440.39679604850681
 30
0.0
 40
64.0
  1
産業扇
 41
0.9
  0
TEXT
  8
ETC
  6
CONTINUOUS
 62
    61
 10
334.03337514160012
 20
332.24802316228158
 30
0.0
 40
40.0
  1
BFS-120TKA2
 41
0.9
  0
TEXT
  8
ETC
  6
CONTINUOUS
 62
    61
 10
334.03337514160012
 20
266.24802316228158
 30
0.0
 40
40.0
  1
BFS-150TKA2
 41
0.9
  0
LINE
  8
DETAIL
  6
CONTINUOUS
 62
     5
 10
238.09669444492741
 20
-0.9614351372354122
 30
0.0
 11
238.09669444492741
 21
-0.7917701130172645
 31
0.0
  0
LINE
  8
DETAIL
  6
CONTINUOUS
 62
     5
 10
238.09669444492741
 20
-0.7917701130172645
 30
0.0
 11
241.37688491314199
 21
-0.7917701130172645
 31
0.0
  0
LINE
  8
DETAIL
  6
CONTINUOUS
 62
     5
 10
251.38712134200409
 20
-0.9614351372354122
 30
0.0
 11
251.38712134200409
 21
-0.7917701130172645
 31
0.0
  0
LINE
  8
DETAIL
  6
CONTINUOUS
 62
     5
 10
251.38712134200409
 20
-0.7917701130172645
 30
0.0
 11
248.38970591415301
 21
-0.7917701130172645
 31
0.0
  0
LINE
  8
DETAIL
  6
CONTINUOUS
 62
     5
 10
241.37688491314199
 20
-0.9614351372354122
 30
0.0
 11
241.37688491314199
 21
-0.7917701130172645
 31
0.0
  0
LINE
  8
DETAIL
  6
CONTINUOUS
 62
     5
 10
248.38970591415301
 20
-0.9614351372354122
 30
0.0
 11
248.38970591415301
 21
-0.7917701130172645
 31
0.0
  0
LINE
  8
DETAIL
  6
CONTINUOUS
 62
     5
 10
187.47996221989069
 20
-0.9614351372354122
 30
0.0
 11
187.47996221989069
 21
-0.7917701130172645
 31
0.0
  0
LINE
  8
DETAIL
  6
CONTINUOUS
 62
     5
 10
187.47996221989069
 20
-0.7917701130172645
 30
0.0
 11
190.70359768003249
 21
-0.7917701130172645
 31
0.0
  0
LINE
  8
DETAIL
  6
CONTINUOUS
 62
     5
 10
200.65727910082211
 20
-0.9614351372354122
 30
0.0
 11
200.65727910082211
 21
-0.7917701130172645
 31
0.0
  0
LINE
  8
DETAIL
  6
CONTINUOUS
 62
     5
 10
200.65727910082211
 20
-0.7917701130172645
 30
0.0
 11
197.77297368911579
 21
-0.7917701130172645
 31
0.0
  0
LINE
  8
DETAIL
  6
CONTINUOUS
 62
     5
 10
190.70359768003249
 20
-0.9614351372354122
 30
0.0
 11
190.70359768003249
 21
-0.7917701130172645
 31
0.0
  0
LINE
  8
DETAIL
  6
CONTINUOUS
 62
     5
 10
197.77297368911579
 20
-0.9614351372354122
 30
0.0
 11
197.77297368911579
 21
-0.7917701130172645
 31
0.0
  0
LINE
  8
DETAIL
  6
CONTINUOUS
 62
     5
 10
120.12294760534451
 20
-2.4884203551973769
 30
0.0
 11
122.6113679605419
 21
-2.4884203551973769
 31
0.0
  0
LINE
  8
DETAIL
  6
CONTINUOUS
 62
     5
 10
-207.55676916768701
 20
-2.4884203551973769
 30
0.0
 11
-205.0683488124896
 21
-2.4884203551973769
 31
0.0
  0
LINE
  8
DETAIL
  6
CONTINUOUS
 62
     5
 10
-207.55676916768701
 20
-1.809760258325241
 30
0.0
 11
-205.0683488124896
 21
-1.809760258325241
 31
0.0
  0
LINE
  8
DETAIL
  6
CONTINUOUS
 62
     5
 10
294.08615243686768
 20
-348.2796149132987
 30
0.0
 11
294.08615243686768
 21
-349.80660013126078
 31
0.0
  0
LINE
  8
DETAIL
  6
CONTINUOUS
 62
     5
 10
292.84194225926888
 20
-2.4884203551973769
 30
0.0
 11
293.52060235614118
 21
-2.4884203551973769
 31
0.0
  0
LINE
  8
DETAIL
  6
CONTINUOUS
 62
     5
 10
292.84194225926888
 20
-1.809760258325241
 30
0.0
 11
293.52060235614118
 21
-1.809760258325241
 31
0.0
  0
LINE
  8
DETAIL
  6
CONTINUOUS
 62
     5
 10
293.01160728348708
 20
-76.950026083771263
 30
0.0
 11
293.01160728348708
 21
-81.644091753802741
 31
0.0
  0
LINE
  8
DETAIL
  6
CONTINUOUS
 62
     5
 10
294.82136754181221
 20
-348.2796149132987
 30
0.0
 11
294.82136754181221
 21
-350.31559520391471
 31
0.0
  0
LINE
  8
DETAIL
  6
CONTINUOUS
 62
     5
 10
294.82136754181221
 20
-350.31559520391471
 30
0.0
 11
294.5385925014491
 21
-350.48526022813257
 31
0.0
  0
LINE
  8
DETAIL
  6
CONTINUOUS
 62
     5
 10
294.5385925014491
 20
-350.48526022813257
 30
0.0
 11
294.31237246915828
 21
-350.76803526849608
 31
0.0
  0
LINE
  8
DETAIL
  6
CONTINUOUS
 62
     5
 10
294.31237246915828
 20
-350.76803526849608
 30
0.0
 11
293.80337739650417
 21
-351.10736531693192
 31
0.0
  0
LINE
  8
DETAIL
  6
CONTINUOUS
 62
     5
 10
294.08615243686768
 20
-349.80660013126078
 30
0.0
 11
293.52060235614118
 21
-350.31559520391471
 31
0.0
  0
LINE
  8
DETAIL
  6
CONTINUOUS
 62
     5
 10
293.52060235614118
 20
-1.809760258325241
 30
0.0
 11
293.80337739650417
 21
-2.0925352986885168
 31
0.0
  0
LINE
  8
DETAIL
  6
CONTINUOUS
 62
     5
 10
293.80337739650417
 20
-2.0925352986885168
 30
0.0
 11
294.31237246915828
 21
-2.0925352986885168
 31
0.0
  0
LINE
  8
DETAIL
  6
CONTINUOUS
 62
     5
 10
294.31237246915828
 20
-2.0925352986885168
 30
0.0
 11
294.5385925014491
 21
-2.262200322906665
 31
0.0
  0
LINE
  8
DETAIL
  6
CONTINUOUS
 62
     5
 10
294.5385925014491
 20
-2.262200322906665
 30
0.0
 11
294.82136754181221
 21
-2.7711953955606532
 31
0.0
  0
LINE
  8
DETAIL
  6
CONTINUOUS
 62
     5
 10
293.52060235614118
 20
-2.4884203551973769
 30
0.0
 11
294.08615243686768
 21
-3.053970435923929
 31
0.0
  0
LINE
  8
DETAIL
  6
CONTINUOUS
 62
     5
 10
-293.01160728348668
 20
-1.809760258325241
 30
0.0
 11
-293.01160728348668
 21
-2.4884203551973769
 31
0.0
  0
LINE
  8
DETAIL
  6
CONTINUOUS
 62
     5
 10
292.84194225926888
 20
-350.31559520391471
 30
0.0
 11
293.52060235614118
 21
-350.31559520391471
 31
0.0
  0
LINE
  8
DETAIL
  6
CONTINUOUS
 62
     5
 10
-293.01160728348668
 20
-2.4884203551973769
 30
0.0
 11
-292.72883224312341
 21
-2.4884203551973769
 31
0.0
  0
LINE
  8
DETAIL
  6
CONTINUOUS
 62
     5
 10
294.08615243686768
 20
-3.053970435923929
 30
0.0
 11
294.08615243686768
 21
-3.7891855408686301
 31
0.0
  0
LINE
  8
DETAIL
  6
CONTINUOUS
 62
     5
 10
294.82136754181221
 20
-2.7711953955606532
 30
0.0
 11
294.82136754181221
 21
-3.7891855408686301
 31
0.0
  0
LINE
  8
DETAIL
  6
CONTINUOUS
 62
     5
 10
294.82136754181221
 20
-349.58038009897001
 30
0.0
 11
294.08615243686768
 21
-349.58038009897001
 31
0.0
  0
LINE
  8
DETAIL
  6
CONTINUOUS
 62
     5
 10
293.01160728348708
 20
-176.09095523515609
 30
0.0
 11
293.01160728348708
 21
-348.2796149132987
 31
0.0
  0
LINE
  8
DETAIL
  6
CONTINUOUS
 62
     5
 10
293.01160728348708
 20
-176.09095523515609
 30
0.0
 11
293.01160728348708
 21
-167.49459400811111
 31
0.0
  0
LINE
  8
DETAIL
  6
CONTINUOUS
 62
     5
 10
295.50002763868412
 20
-176.09095523515609
 30
0.0
 11
295.50002763868412
 21
-348.2796149132987
 31
0.0
  0
LINE
  8
DETAIL
  6
CONTINUOUS
 62
     5
 10
292.84194225926888
 20
-348.2796149132987
 30
0.0
 11
295.50002763868412
 21
-348.2796149132987
 31
0.0
  0
LINE
  8
DETAIL
  6
CONTINUOUS
 62
     5
 10
292.84194225926888
 20
-348.2796149132987
 30
0.0
 11
292.84194225926888
 21
-351.10736531693192
 31
0.0
  0
LINE
  8
DETAIL
  6
CONTINUOUS
 62
     5
 10
295.50002763868412
 20
-176.09095523515609
 30
0.0
 11
295.50002763868412
 21
-168.79535919378239
 31
0.0
  0
LINE
  8
DETAIL
  6
CONTINUOUS
 62
     5
 10
292.84194225926888
 20
-3.7891855408686301
 30
0.0
 11
295.50002763868412
 21
-3.7891855408686301
 31
0.0
  0
LINE
  8
DETAIL
  6
CONTINUOUS
 62
     5
 10
292.84194225926888
 20
-3.7891855408686301
 30
0.0
 11
292.84194225926888
 21
-0.9614351372354122
 31
0.0
  0
LINE
  8
DETAIL
  6
CONTINUOUS
 62
     5
 10
122.6113679605419
 20
-351.10736531693192
 30
0.0
 11
293.80337739650417
 21
-351.10736531693192
 31
0.0
  0
LINE
  8
DETAIL
  6
CONTINUOUS
 62
     5
 10
122.6113679605419
 20
-0.9614351372354122
 30
0.0
 11
292.84194225926888
 21
-0.9614351372354122
 31
0.0
  0
LINE
  8
DETAIL
  6
CONTINUOUS
 62
     5
 10
122.6113679605419
 20
-4.5809556538858942
 30
0.0
 11
122.6113679605419
 21
-0.9614351372354122
 31
0.0
  0
LINE
  8
DETAIL
  6
CONTINUOUS
 62
     5
 10
122.6113679605419
 20
-351.10736531693192
 30
0.0
 11
122.6113679605419
 21
-347.48784480028121
 31
0.0
  0
LINE
  8
DETAIL
  6
CONTINUOUS
 62
     5
 10
295.50002763868412
 20
-166.0807188062943
 30
0.0
 11
295.50002763868412
 21
-3.7891855408686301
 31
0.0
  0
LINE
  8
DETAIL
  6
CONTINUOUS
 62
     5
 10
293.01160728348708
 20
-165.62827874171279
 30
0.0
 11
293.01160728348708
 21
-3.7891855408686301
 31
0.0
  0
LINE
  8
DETAIL
  6
CONTINUOUS
 62
     5
 10
-205.0683488124896
 20
-347.48784480028121
 30
0.0
 11
-207.55676916768701
 21
-347.48784480028121
 31
0.0
  0
LINE
  8
DETAIL
  6
CONTINUOUS
 62
     5
 10
-205.0683488124896
 20
-4.5809556538858942
 30
0.0
 11
-207.55676916768701
 21
-4.5809556538858942
 31
0.0
  0
LINE
  8
DETAIL
  6
CONTINUOUS
 62
     5
 10
-207.55676916768701
 20
-3.506410500505353
 30
0.0
 11
-292.72883224312341
 21
-3.506410500505353
 31
0.0
  0
LINE
  8
DETAIL
  6
CONTINUOUS
 62
     5
 10
-207.55676916768701
 20
-4.5809556538858942
 30
0.0
 11
-207.55676916768701
 21
-0.9614351372354122
 31
0.0
  0
LINE
  8
DETAIL
  6
CONTINUOUS
 62
     5
 10
292.84194225926888
 20
-348.61894496173448
 30
0.0
 11
-292.72883224312341
 21
-348.61894496173448
 31
0.0
  0
LINE
  8
DETAIL
  6
CONTINUOUS
 62
     5
 10
-207.55676916768701
 20
-351.10736531693192
 30
0.0
 11
-207.55676916768701
 21
-347.48784480028121
 31
0.0
  0
LINE
  8
DETAIL
  6
CONTINUOUS
 62
     5
 10
-205.0683488124896
 20
-351.10736531693192
 30
0.0
 11
-292.72883224312341
 21
-351.10736531693192
 31
0.0
  0
LINE
  8
DETAIL
  6
CONTINUOUS
 62
     5
 10
-293.01160728348668
 20
-176.09095523515609
 30
0.0
 11
-293.01160728348668
 21
-348.2796149132987
 31
0.0
  0
LINE
  8
DETAIL
  6
CONTINUOUS
 62
     5
 10
-293.01160728348668
 20
-176.09095523515609
 30
0.0
 11
-293.01160728348668
 21
-167.49459400811111
 31
0.0
  0
LINE
  8
DETAIL
  6
CONTINUOUS
 62
     5
 10
-295.50002763868412
 20
-176.09095523515609
 30
0.0
 11
-295.50002763868412
 21
-348.2796149132987
 31
0.0
  0
LINE
  8
DETAIL
  6
CONTINUOUS
 62
     5
 10
-292.72883224312341
 20
-348.2796149132987
 30
0.0
 11
-295.50002763868412
 21
-348.2796149132987
 31
0.0
  0
LINE
  8
DETAIL
  6
CONTINUOUS
 62
     5
 10
-292.72883224312341
 20
-348.2796149132987
 30
0.0
 11
-292.72883224312341
 21
-351.10736531693192
 31
0.0
  0
LINE
  8
DETAIL
  6
CONTINUOUS
 62
     5
 10
-295.50002763868412
 20
-176.09095523515609
 30
0.0
 11
-295.50002763868412
 21
-168.79535919378239
 31
0.0
  0
LINE
  8
DETAIL
  6
CONTINUOUS
 62
     5
 10
-292.72883224312341
 20
-3.7891855408686301
 30
0.0
 11
-295.50002763868412
 21
-3.7891855408686301
 31
0.0
  0
LINE
  8
DETAIL
  6
CONTINUOUS
 62
     5
 10
-292.72883224312341
 20
-3.7891855408686301
 30
0.0
 11
-292.72883224312341
 21
-0.9614351372354122
 31
0.0
  0
LINE
  8
DETAIL
  6
CONTINUOUS
 62
     5
 10
-293.01160728348668
 20
-165.62827874171279
 30
0.0
 11
-293.01160728348668
 21
-3.7891855408686301
 31
0.0
  0
LINE
  8
DETAIL
  6
CONTINUOUS
 62
     5
 10
-295.50002763868412
 20
-166.0807188062943
 30
0.0
 11
-295.50002763868412
 21
-3.7891855408686301
 31
0.0
  0
LINE
  8
DETAIL
  6
CONTINUOUS
 62
     5
 10
120.12294760534451
 20
-349.58038009897001
 30
0.0
 11
122.6113679605419
 21
-349.58038009897001
 31
0.0
  0
LINE
  8
DETAIL
  6
CONTINUOUS
 62
     5
 10
120.12294760534451
 20
-350.31559520391471
 30
0.0
 11
122.6113679605419
 21
-350.31559520391471
 31
0.0
  0
LINE
  8
DETAIL
  6
CONTINUOUS
 62
     5
 10
-207.55676916768701
 20
-350.31559520391471
 30
0.0
 11
-205.0683488124896
 21
-350.31559520391471
 31
0.0
  0
LINE
  8
DETAIL
  6
CONTINUOUS
 62
     5
 10
-207.55676916768701
 20
-349.58038009897001
 30
0.0
 11
-205.0683488124896
 21
-349.58038009897001
 31
0.0
  0
LINE
  8
DETAIL
  6
CONTINUOUS
 62
     5
 10
-293.91648741264947
 20
-3.7891855408686301
 30
0.0
 11
-293.91648741264947
 21
-2.262200322906665
 31
0.0
  0
LINE
  8
DETAIL
  6
CONTINUOUS
 62
     5
 10
-294.7082575256668
 20
-3.7891855408686301
 30
0.0
 11
-294.7082575256668
 21
-1.809760258325241
 31
0.0
  0
LINE
  8
DETAIL
  6
CONTINUOUS
 62
     5
 10
292.84194225926888
 20
-349.58038009897001
 30
0.0
 11
293.01160728348708
 21
-349.58038009897001
 31
0.0
  0
LINE
  8
DETAIL
  6
CONTINUOUS
 62
     5
 10
-294.7082575256668
 20
-1.809760258325241
 30
0.0
 11
-294.19926245301281
 21
-1.300765185671253
 31
0.0
  0
LINE
  8
DETAIL
  6
CONTINUOUS
 62
     5
 10
-294.19926245301281
 20
-1.300765185671253
 30
0.0
 11
-293.91648741264947
 21
-0.9614351372354122
 31
0.0
  0
LINE
  8
DETAIL
  6
CONTINUOUS
 62
     5
 10
-293.91648741264947
 20
-0.9614351372354122
 30
0.0
 11
-205.0683488124896
 21
-0.9614351372354122
 31
0.0
  0
LINE
  8
DETAIL
  6
CONTINUOUS
 62
     5
 10
-293.91648741264947
 20
-2.262200322906665
 30
0.0
 11
-293.5206023561409
 21
-1.809760258325241
 31
0.0
  0
LINE
  8
DETAIL
  6
CONTINUOUS
 62
     5
 10
-292.72883224312341
 20
-350.31559520391471
 30
0.0
 11
-293.91648741264947
 21
-350.31559520391471
 31
0.0
  0
LINE
  8
DETAIL
  6
CONTINUOUS
 62
     5
 10
-293.91648741264947
 20
-350.31559520391471
 30
0.0
 11
-294.19926245301281
 21
-349.97626515547859
 31
0.0
  0
LINE
  8
DETAIL
  6
CONTINUOUS
 62
     5
 10
-294.19926245301281
 20
-349.97626515547859
 30
0.0
 11
-294.48203749337608
 21
-349.80660013126078
 31
0.0
  0
LINE
  8
DETAIL
  6
CONTINUOUS
 62
     5
 10
-294.48203749337608
 20
-349.80660013126078
 30
0.0
 11
-294.7082575256668
 21
-349.58038009897001
 31
0.0
  0
LINE
  8
DETAIL
  6
CONTINUOUS
 62
     5
 10
-294.7082575256668
 20
-349.58038009897001
 30
0.0
 11
-294.7082575256668
 21
-348.2796149132987
 31
0.0
  0
LINE
  8
DETAIL
  6
CONTINUOUS
 62
     5
 10
-293.5206023561409
 20
-349.58038009897001
 30
0.0
 11
-293.91648741264947
 21
-349.07138502631602
 31
0.0
  0
LINE
  8
DETAIL
  6
CONTINUOUS
 62
     5
 10
-293.91648741264947
 20
-349.07138502631602
 30
0.0
 11
-293.91648741264947
 21
-348.2796149132987
 31
0.0
  0
LINE
  8
DETAIL
  6
CONTINUOUS
 62
     5
 10
-293.5206023561409
 20
-1.809760258325241
 30
0.0
 11
-292.72883224312341
 21
-1.809760258325241
 31
0.0
  0
LINE
  8
DETAIL
  6
CONTINUOUS
 62
     5
 10
293.01160728348708
 20
-350.31559520391471
 30
0.0
 11
293.01160728348708
 21
-349.58038009897001
 31
0.0
  0
LINE
  8
DETAIL
  6
CONTINUOUS
 62
     5
 10
-293.5206023561409
 20
-349.58038009897001
 30
0.0
 11
-292.72883224312341
 21
-349.58038009897001
 31
0.0
  0
LINE
  8
DETAIL
  6
CONTINUOUS
 62
     5
 10
120.12294760534451
 20
-4.5809556538858942
 30
0.0
 11
120.12294760534451
 21
0.0
 31
0.0
  0
LINE
  8
DETAIL
  6
CONTINUOUS
 62
     5
 10
120.12294760534451
 20
-347.48784480028121
 30
0.0
 11
120.12294760534451
 21
-352.06880045416727
 31
0.0
  0
LINE
  8
DETAIL
  6
CONTINUOUS
 62
     5
 10
-205.0683488124896
 20
-352.06880045416727
 30
0.0
 11
120.12294760534451
 21
-352.06880045416727
 31
0.0
  0
LINE
  8
DETAIL
  6
CONTINUOUS
 62
     5
 10
-205.0683488124896
 20
-352.06880045416727
 30
0.0
 11
-205.0683488124896
 21
-347.48784480028121
 31
0.0
  0
LINE
  8
DETAIL
  6
CONTINUOUS
 62
     5
 10
-205.0683488124896
 20
0.0
 30
0.0
 11
120.12294760534451
 21
0.0
 31
0.0
  0
LINE
  8
DETAIL
  6
CONTINUOUS
 62
     5
 10
-205.0683488124896
 20
-3.506410500505353
 30
0.0
 11
292.84194225926888
 21
-3.506410500505353
 31
0.0
  0
LINE
  8
DETAIL
  6
CONTINUOUS
 62
     5
 10
-205.0683488124896
 20
-4.5809556538858942
 30
0.0
 11
-205.0683488124896
 21
0.0
 31
0.0
  0
LINE
  8
DETAIL
  6
CONTINUOUS
 62
     5
 10
-261.0580277224301
 20
-181.0677959455509
 30
0.0
 11
-261.0580277224301
 21
-181.8030110504958
 31
0.0
  0
LINE
  8
DETAIL
  6
CONTINUOUS
 62
     5
 10
-261.0580277224301
 20
-181.8030110504958
 30
0.0
 11
-261.45391277893867
 21
-182.25545111507699
 31
0.0
  0
LINE
  8
DETAIL
  6
CONTINUOUS
 62
     5
 10
-261.45391277893867
 20
-182.25545111507699
 30
0.0
 11
-261.73668781930201
 21
-182.76444618773101
 31
0.0
  0
LINE
  8
DETAIL
  6
CONTINUOUS
 62
     5
 10
-261.73668781930201
 20
-182.76444618773101
 30
0.0
 11
-262.47190292424671
 21
-183.10377623616679
 31
0.0
  0
LINE
  8
DETAIL
  6
CONTINUOUS
 62
     5
 10
-262.47190292424671
 20
-183.10377623616679
 30
0.0
 11
-263.03745300497332
 21
-183.10377623616679
 31
0.0
  0
LINE
  8
DETAIL
  6
CONTINUOUS
 62
     5
 10
-290.18385687985352
 20
-183.10377623616679
 30
0.0
 11
-290.69285195250751
 21
-183.10377623616679
 31
0.0
  0
LINE
  8
DETAIL
  6
CONTINUOUS
 62
     5
 10
-290.69285195250751
 20
-183.10377623616679
 30
0.0
 11
-291.42806705745193
 21
-182.76444618773101
 31
0.0
  0
LINE
  8
DETAIL
  6
CONTINUOUS
 62
     5
 10
-291.42806705745193
 20
-182.76444618773101
 30
0.0
 11
-291.71084209781537
 21
-182.25545111507699
 31
0.0
  0
LINE
  8
DETAIL
  6
CONTINUOUS
 62
     5
 10
-291.71084209781537
 20
-182.25545111507699
 30
0.0
 11
-291.99361713817871
 21
-181.8030110504958
 31
0.0
  0
LINE
  8
DETAIL
  6
CONTINUOUS
 62
     5
 10
-291.99361713817871
 20
-181.8030110504958
 30
0.0
 11
-292.21983717046942
 21
-181.0677959455509
 31
0.0
  0
LINE
  8
DETAIL
  6
CONTINUOUS
 62
     5
 10
-260.77525268206659
 20
-167.49459400811111
 30
0.0
 11
-293.69026738035882
 21
-167.49459400811111
 31
0.0
  0
LINE
  8
DETAIL
  6
CONTINUOUS
 62
     5
 10
-260.77525268206659
 20
-167.49459400811111
 30
0.0
 11
-261.0580277224301
 21
-167.49459400811111
 31
0.0
  0
LINE
  8
DETAIL
  6
CONTINUOUS
 62
     5
 10
-297.70567295351827
 20
-198.03429836735091
 30
0.0
 11
-298.21466802617209
 21
-198.03429836735091
 31
0.0
  0
LINE
  8
DETAIL
  6
CONTINUOUS
 62
     5
 10
-298.21466802617209
 20
-198.03429836735091
 30
0.0
 11
-298.89332812304428
 21
-197.75152332698761
 31
0.0
  0
LINE
  8
DETAIL
  6
CONTINUOUS
 62
     5
 10
-298.89332812304428
 20
-197.75152332698761
 30
0.0
 11
-299.17610316340762
 21
-197.24252825433359
 31
0.0
  0
LINE
  8
DETAIL
  6
CONTINUOUS
 62
     5
 10
-299.17610316340762
 20
-197.24252825433359
 30
0.0
 11
-299.5154332118434
 21
-196.7335331816796
 31
0.0
  0
LINE
  8
DETAIL
  6
CONTINUOUS
 62
     5
 10
-299.5154332118434
 20
-196.7335331816796
 30
0.0
 11
-299.68509823606149
 21
-196.0548730848075
 31
0.0
  0
LINE
  8
DETAIL
  6
CONTINUOUS
 62
     5
 10
-299.68509823606149
 20
-189.94693221295961
 30
0.0
 11
-299.5154332118434
 21
-189.5510471564512
 31
0.0
  0
LINE
  8
DETAIL
  6
CONTINUOUS
 62
     5
 10
-299.5154332118434
 20
-189.5510471564512
 30
0.0
 11
-299.17610316340762
 21
-188.9854970757244
 31
0.0
  0
LINE
  8
DETAIL
  6
CONTINUOUS
 62
     5
 10
-299.17610316340762
 20
-188.9854970757244
 30
0.0
 11
-298.89332812304428
 21
-188.58961201921571
 31
0.0
  0
LINE
  8
DETAIL
  6
CONTINUOUS
 62
     5
 10
-298.89332812304428
 20
-188.58961201921571
 30
0.0
 11
-298.21466802617209
 21
-188.2502819707797
 31
0.0
  0
LINE
  8
DETAIL
  6
CONTINUOUS
 62
     5
 10
-298.21466802617209
 20
-188.2502819707797
 30
0.0
 11
-297.70567295351827
 21
-188.08061694656161
 31
0.0
  0
LINE
  8
DETAIL
  6
CONTINUOUS
 62
     5
 10
-261.0580277224301
 20
-167.49459400811111
 30
0.0
 11
-261.0580277224301
 21
-181.0677959455509
 31
0.0
  0
LINE
  8
DETAIL
  6
CONTINUOUS
 62
     5
 10
-292.21983717046942
 20
-167.49459400811111
 30
0.0
 11
-292.21983717046942
 21
-181.0677959455509
 31
0.0
  0
LINE
  8
DETAIL
  6
CONTINUOUS
 62
     5
 10
-263.03745300497332
 20
-183.10377623616679
 30
0.0
 11
-290.18385687985352
 21
-183.10377623616679
 31
0.0
  0
LINE
  8
DETAIL
  6
CONTINUOUS
 62
     5
 10
-295.66969266290221
 20
-199.22195353687721
 30
0.0
 11
-295.50002763868412
 21
-199.22195353687721
 31
0.0
  0
LINE
  8
DETAIL
  6
CONTINUOUS
 62
     5
 10
-296.68768280821018
 20
-201.25793382749319
 30
0.0
 11
-296.97045784857352
 21
-201.25793382749319
 31
0.0
  0
LINE
  8
DETAIL
  6
CONTINUOUS
 62
     5
 10
-296.97045784857352
 20
-201.25793382749319
 30
0.0
 11
-297.19667788086417
 21
-201.03171379520239
 31
0.0
  0
LINE
  8
DETAIL
  6
CONTINUOUS
 62
     5
 10
-297.19667788086417
 20
-201.03171379520239
 30
0.0
 11
-297.36634290508209
 21
-200.7489387548392
 31
0.0
  0
LINE
  8
DETAIL
  6
CONTINUOUS
 62
     5
 10
-297.36634290508209
 20
-200.7489387548392
 30
0.0
 11
-297.70567295351827
 21
-200.52271872254849
 31
0.0
  0
LINE
  8
DETAIL
  6
CONTINUOUS
 62
     5
 10
-297.70567295351827
 20
-200.52271872254849
 30
0.0
 11
-297.70567295351827
 21
-200.23994368218521
 31
0.0
  0
LINE
  8
DETAIL
  6
CONTINUOUS
 62
     5
 10
-296.68768280821018
 20
-201.25793382749319
 30
0.0
 11
-296.68768280821018
 21
-214.5483607245699
 31
0.0
  0
LINE
  8
DETAIL
  6
CONTINUOUS
 62
     5
 10
-256.75984710890748
 20
-172.47143471850561
 30
0.0
 11
-258.73927239145058
 21
-172.47143471850561
 31
0.0
  0
LINE
  8
DETAIL
  6
CONTINUOUS
 62
     5
 10
-256.75984710890748
 20
-169.5871293067996
 30
0.0
 11
-256.75984710890748
 21
-172.47143471850561
 31
0.0
  0
LINE
  8
DETAIL
  6
CONTINUOUS
 62
     5
 10
-295.50002763868412
 20
-214.5483607245699
 30
0.0
 11
-297.70567295351827
 21
-214.5483607245699
 31
0.0
  0
LINE
  8
DETAIL
  6
CONTINUOUS
 62
     5
 10
-299.68509823606149
 20
-189.94693221295961
 30
0.0
 11
-299.68509823606149
 21
-196.0548730848075
 31
0.0
  0
LINE
  8
DETAIL
  6
CONTINUOUS
 62
     5
 10
-295.66969266290221
 20
-169.5871293067996
 30
0.0
 11
-295.66969266290221
 21
-199.22195353687721
 31
0.0
  0
LINE
  8
DETAIL
  6
CONTINUOUS
 62
     5
 10
-297.70567295351827
 20
-169.5871293067996
 30
0.0
 11
-297.70567295351827
 21
-214.5483607245699
 31
0.0
  0
LINE
  8
DETAIL
  6
CONTINUOUS
 62
     5
 10
-260.77525268206659
 20
-165.62827874171279
 30
0.0
 11
-293.69026738035882
 21
-165.62827874171279
 31
0.0
  0
LINE
  8
DETAIL
  6
CONTINUOUS
 62
     5
 10
-258.73927239145058
 20
-169.5871293067996
 30
0.0
 11
-258.73927239145058
 21
-172.47143471850561
 31
0.0
  0
LINE
  8
DETAIL
  6
CONTINUOUS
 62
     5
 10
-260.77525268206659
 20
-167.49459400811111
 30
0.0
 11
-259.98348256904927
 21
-167.77736904847441
 31
0.0
  0
LINE
  8
DETAIL
  6
CONTINUOUS
 62
     5
 10
-259.98348256904927
 20
-167.77736904847441
 30
0.0
 11
-259.53104250446791
 21
-168.1166990969102
 31
0.0
  0
LINE
  8
DETAIL
  6
CONTINUOUS
 62
     5
 10
-259.53104250446791
 20
-168.1166990969102
 30
0.0
 11
-258.96549242374141
 21
-168.62569416956421
 31
0.0
  0
LINE
  8
DETAIL
  6
CONTINUOUS
 62
     5
 10
-258.96549242374141
 20
-168.62569416956421
 30
0.0
 11
-258.73927239145058
 21
-169.0215792260731
 31
0.0
  0
LINE
  8
DETAIL
  6
CONTINUOUS
 62
     5
 10
-258.73927239145058
 20
-169.0215792260731
 30
0.0
 11
-258.73927239145058
 21
-169.5871293067996
 31
0.0
  0
LINE
  8
DETAIL
  6
CONTINUOUS
 62
     5
 10
-260.77525268206659
 20
-165.62827874171279
 30
0.0
 11
-259.53104250446791
 21
-165.7979437659308
 31
0.0
  0
LINE
  8
DETAIL
  6
CONTINUOUS
 62
     5
 10
-259.53104250446791
 20
-165.7979437659308
 30
0.0
 11
-258.28683232686939
 21
-166.4766038628031
 31
0.0
  0
LINE
  8
DETAIL
  6
CONTINUOUS
 62
     5
 10
-258.28683232686939
 20
-166.4766038628031
 30
0.0
 11
-257.43850720577939
 21
-167.32492898389319
 31
0.0
  0
LINE
  8
DETAIL
  6
CONTINUOUS
 62
     5
 10
-257.43850720577939
 20
-167.32492898389319
 30
0.0
 11
-257.04262214927081
 21
-168.62569416956421
 31
0.0
  0
LINE
  8
DETAIL
  6
CONTINUOUS
 62
     5
 10
-257.04262214927081
 20
-168.62569416956421
 30
0.0
 11
-256.75984710890748
 21
-169.5871293067996
 31
0.0
  0
LINE
  8
DETAIL
  6
CONTINUOUS
 62
     5
 10
-295.66969266290221
 20
-169.5871293067996
 30
0.0
 11
-295.50002763868412
 21
-169.0215792260731
 31
0.0
  0
LINE
  8
DETAIL
  6
CONTINUOUS
 62
     5
 10
-295.50002763868412
 20
-169.0215792260731
 30
0.0
 11
-295.21725259832078
 21
-168.62569416956421
 31
0.0
  0
LINE
  8
DETAIL
  6
CONTINUOUS
 62
     5
 10
-295.21725259832078
 20
-168.62569416956421
 30
0.0
 11
-294.87792254988489
 21
-168.1166990969102
 31
0.0
  0
LINE
  8
DETAIL
  6
CONTINUOUS
 62
     5
 10
-294.87792254988489
 20
-168.1166990969102
 30
0.0
 11
-294.19926245301281
 21
-167.77736904847441
 31
0.0
  0
LINE
  8
DETAIL
  6
CONTINUOUS
 62
     5
 10
-294.19926245301281
 20
-167.77736904847441
 30
0.0
 11
-293.69026738035882
 21
-167.49459400811111
 31
0.0
  0
LINE
  8
DETAIL
  6
CONTINUOUS
 62
     5
 10
-297.70567295351827
 20
-169.5871293067996
 30
0.0
 11
-297.36634290508209
 21
-168.62569416956421
 31
0.0
  0
LINE
  8
DETAIL
  6
CONTINUOUS
 62
     5
 10
-297.36634290508209
 20
-168.62569416956421
 30
0.0
 11
-296.97045784857352
 21
-167.32492898389319
 31
0.0
  0
LINE
  8
DETAIL
  6
CONTINUOUS
 62
     5
 10
-296.97045784857352
 20
-167.32492898389319
 30
0.0
 11
-296.00902271133799
 21
-166.4766038628031
 31
0.0
  0
LINE
  8
DETAIL
  6
CONTINUOUS
 62
     5
 10
-296.00902271133799
 20
-166.4766038628031
 30
0.0
 11
-294.87792254988489
 21
-165.7979437659308
 31
0.0
  0
LINE
  8
DETAIL
  6
CONTINUOUS
 62
     5
 10
-294.87792254988489
 20
-165.7979437659308
 30
0.0
 11
-293.69026738035882
 21
-165.62827874171279
 31
0.0
  0
LINE
  8
DETAIL
  6
CONTINUOUS
 62
     5
 10
263.03745300497337
 20
-183.10377623616679
 30
0.0
 11
262.35879290810158
 21
-183.10377623616679
 31
0.0
  0
LINE
  8
DETAIL
  6
CONTINUOUS
 62
     5
 10
262.35879290810158
 20
-183.10377623616679
 30
0.0
 11
261.84979783544759
 21
-182.76444618773101
 31
0.0
  0
LINE
  8
DETAIL
  6
CONTINUOUS
 62
     5
 10
261.84979783544759
 20
-182.76444618773101
 30
0.0
 11
261.3408027627936
 21
-182.25545111507699
 31
0.0
  0
LINE
  8
DETAIL
  6
CONTINUOUS
 62
     5
 10
261.3408027627936
 20
-182.25545111507699
 30
0.0
 11
261.0580277224301
 21
-181.8030110504958
 31
0.0
  0
LINE
  8
DETAIL
  6
CONTINUOUS
 62
     5
 10
261.0580277224301
 20
-181.8030110504958
 30
0.0
 11
261.0580277224301
 21
-181.0677959455509
 31
0.0
  0
LINE
  8
DETAIL
  6
CONTINUOUS
 62
     5
 10
292.332947186615
 20
-181.0677959455509
 30
0.0
 11
291.99361713817922
 21
-181.8030110504958
 31
0.0
  0
LINE
  8
DETAIL
  6
CONTINUOUS
 62
     5
 10
291.99361713817922
 20
-181.8030110504958
 30
0.0
 11
291.82395211396101
 21
-182.25545111507699
 31
0.0
  0
LINE
  8
DETAIL
  6
CONTINUOUS
 62
     5
 10
291.82395211396101
 20
-182.25545111507699
 30
0.0
 11
291.3149570413068
 21
-182.76444618773101
 31
0.0
  0
LINE
  8
DETAIL
  6
CONTINUOUS
 62
     5
 10
291.3149570413068
 20
-182.76444618773101
 30
0.0
 11
290.80596196865281
 21
-183.10377623616679
 31
0.0
  0
LINE
  8
DETAIL
  6
CONTINUOUS
 62
     5
 10
290.80596196865281
 20
-183.10377623616679
 30
0.0
 11
290.29696689599882
 21
-183.10377623616679
 31
0.0
  0
LINE
  8
DETAIL
  6
CONTINUOUS
 62
     5
 10
260.88836269821218
 20
-167.49459400811111
 30
0.0
 11
261.0580277224301
 21
-167.49459400811111
 31
0.0
  0
LINE
  8
DETAIL
  6
CONTINUOUS
 62
     5
 10
299.7982082522069
 20
-196.0548730848075
 30
0.0
 11
299.51543321184357
 21
-196.7335331816796
 31
0.0
  0
LINE
  8
DETAIL
  6
CONTINUOUS
 62
     5
 10
299.51543321184357
 20
-196.7335331816796
 30
0.0
 11
299.28921317955292
 21
-197.24252825433359
 31
0.0
  0
LINE
  8
DETAIL
  6
CONTINUOUS
 62
     5
 10
299.28921317955292
 20
-197.24252825433359
 30
0.0
 11
298.78021810689887
 21
-197.75152332698761
 31
0.0
  0
LINE
  8
DETAIL
  6
CONTINUOUS
 62
     5
 10
298.78021810689887
 20
-197.75152332698761
 30
0.0
 11
298.3277780423175
 21
-198.03429836735091
 31
0.0
  0
LINE
  8
DETAIL
  6
CONTINUOUS
 62
     5
 10
298.3277780423175
 20
-198.03429836735091
 30
0.0
 11
297.81878296966352
 21
-198.03429836735091
 31
0.0
  0
LINE
  8
DETAIL
  6
CONTINUOUS
 62
     5
 10
297.81878296966352
 20
-188.08061694656161
 30
0.0
 11
298.3277780423175
 21
-188.2502819707797
 31
0.0
  0
LINE
  8
DETAIL
  6
CONTINUOUS
 62
     5
 10
298.3277780423175
 20
-188.2502819707797
 30
0.0
 11
298.78021810689887
 21
-188.58961201921571
 31
0.0
  0
LINE
  8
DETAIL
  6
CONTINUOUS
 62
     5
 10
298.78021810689887
 20
-188.58961201921571
 30
0.0
 11
299.28921317955292
 21
-188.9854970757244
 31
0.0
  0
LINE
  8
DETAIL
  6
CONTINUOUS
 62
     5
 10
299.28921317955292
 20
-188.9854970757244
 30
0.0
 11
299.51543321184357
 21
-189.5510471564512
 31
0.0
  0
LINE
  8
DETAIL
  6
CONTINUOUS
 62
     5
 10
299.51543321184357
 20
-189.5510471564512
 30
0.0
 11
299.7982082522069
 21
-189.94693221295961
 31
0.0
  0
LINE
  8
DETAIL
  6
CONTINUOUS
 62
     5
 10
263.03745300497337
 20
-183.10377623616679
 30
0.0
 11
290.29696689599882
 21
-183.10377623616679
 31
0.0
  0
LINE
  8
DETAIL
  6
CONTINUOUS
 62
     5
 10
297.81878296966352
 20
-200.23994368218521
 30
0.0
 11
297.81878296966352
 21
-200.52271872254849
 31
0.0
  0
LINE
  8
DETAIL
  6
CONTINUOUS
 62
     5
 10
297.81878296966352
 20
-200.52271872254849
 30
0.0
 11
297.59256293737292
 21
-200.7489387548392
 31
0.0
  0
LINE
  8
DETAIL
  6
CONTINUOUS
 62
     5
 10
297.59256293737292
 20
-200.7489387548392
 30
0.0
 11
297.30978789700953
 21
-201.03171379520239
 31
0.0
  0
LINE
  8
DETAIL
  6
CONTINUOUS
 62
     5
 10
297.30978789700953
 20
-201.03171379520239
 30
0.0
 11
297.02701285664602
 21
-201.25793382749319
 31
0.0
  0
LINE
  8
DETAIL
  6
CONTINUOUS
 62
     5
 10
297.02701285664602
 20
-201.25793382749319
 30
0.0
 11
296.80079282435548
 21
-201.25793382749319
 31
0.0
  0
LINE
  8
DETAIL
  6
CONTINUOUS
 62
     5
 10
296.80079282435548
 20
-201.25793382749319
 30
0.0
 11
296.80079282435548
 21
-214.5483607245699
 31
0.0
  0
LINE
  8
DETAIL
  6
CONTINUOUS
 62
     5
 10
256.87295712505278
 20
-172.47143471850561
 30
0.0
 11
258.85238240759622
 21
-172.47143471850561
 31
0.0
  0
LINE
  8
DETAIL
  6
CONTINUOUS
 62
     5
 10
256.87295712505278
 20
-169.5871293067996
 30
0.0
 11
256.87295712505278
 21
-172.47143471850561
 31
0.0
  0
LINE
  8
DETAIL
  6
CONTINUOUS
 62
     5
 10
299.7982082522069
 20
-189.94693221295961
 30
0.0
 11
299.7982082522069
 21
-196.0548730848075
 31
0.0
  0
LINE
  8
DETAIL
  6
CONTINUOUS
 62
     5
 10
295.78280267904762
 20
-169.5871293067996
 30
0.0
 11
295.78280267904762
 21
-199.22195353687721
 31
0.0
  0
LINE
  8
DETAIL
  6
CONTINUOUS
 62
     5
 10
297.81878296966352
 20
-169.5871293067996
 30
0.0
 11
297.81878296966352
 21
-214.5483607245699
 31
0.0
  0
LINE
  8
DETAIL
  6
CONTINUOUS
 62
     5
 10
258.85238240759622
 20
-169.5871293067996
 30
0.0
 11
258.85238240759622
 21
-172.47143471850561
 31
0.0
  0
LINE
  8
DETAIL
  6
CONTINUOUS
 62
     5
 10
293.80337739650417
 20
-167.49459400811111
 30
0.0
 11
294.31237246915828
 21
-167.77736904847441
 31
0.0
  0
LINE
  8
DETAIL
  6
CONTINUOUS
 62
     5
 10
294.31237246915828
 20
-167.77736904847441
 30
0.0
 11
294.82136754181221
 21
-168.1166990969102
 31
0.0
  0
LINE
  8
DETAIL
  6
CONTINUOUS
 62
     5
 10
294.82136754181221
 20
-168.1166990969102
 30
0.0
 11
295.33036261446608
 21
-168.62569416956421
 31
0.0
  0
LINE
  8
DETAIL
  6
CONTINUOUS
 62
     5
 10
295.33036261446608
 20
-168.62569416956421
 30
0.0
 11
295.50002763868412
 21
-169.0215792260731
 31
0.0
  0
LINE
  8
DETAIL
  6
CONTINUOUS
 62
     5
 10
295.50002763868412
 20
-169.0215792260731
 30
0.0
 11
295.78280267904762
 21
-169.5871293067996
 31
0.0
  0
LINE
  8
DETAIL
  6
CONTINUOUS
 62
     5
 10
293.80337739650417
 20
-165.62827874171279
 30
0.0
 11
295.10414258217571
 21
-165.7979437659308
 31
0.0
  0
LINE
  8
DETAIL
  6
CONTINUOUS
 62
     5
 10
295.10414258217571
 20
-165.7979437659308
 30
0.0
 11
296.00902271133799
 21
-166.4766038628031
 31
0.0
  0
LINE
  8
DETAIL
  6
CONTINUOUS
 62
     5
 10
296.00902271133799
 20
-166.4766038628031
 30
0.0
 11
297.02701285664602
 21
-167.32492898389319
 31
0.0
  0
LINE
  8
DETAIL
  6
CONTINUOUS
 62
     5
 10
297.02701285664602
 20
-167.32492898389319
 30
0.0
 11
297.59256293737292
 21
-168.62569416956421
 31
0.0
  0
LINE
  8
DETAIL
  6
CONTINUOUS
 62
     5
 10
297.59256293737292
 20
-168.62569416956421
 30
0.0
 11
297.81878296966352
 21
-169.5871293067996
 31
0.0
  0
LINE
  8
DETAIL
  6
CONTINUOUS
 62
     5
 10
292.332947186615
 20
-167.49459400811111
 30
0.0
 11
292.332947186615
 21
-181.0677959455509
 31
0.0
  0
LINE
  8
DETAIL
  6
CONTINUOUS
 62
     5
 10
261.0580277224301
 20
-167.49459400811111
 30
0.0
 11
261.0580277224301
 21
-181.0677959455509
 31
0.0
  0
LINE
  8
DETAIL
  6
CONTINUOUS
 62
     5
 10
260.88836269821218
 20
-167.49459400811111
 30
0.0
 11
293.80337739650417
 21
-167.49459400811111
 31
0.0
  0
LINE
  8
DETAIL
  6
CONTINUOUS
 62
     5
 10
258.85238240759622
 20
-169.5871293067996
 30
0.0
 11
258.85238240759622
 21
-169.0215792260731
 31
0.0
  0
LINE
  8
DETAIL
  6
CONTINUOUS
 62
     5
 10
258.85238240759622
 20
-169.0215792260731
 30
0.0
 11
259.19171245603212
 21
-168.62569416956421
 31
0.0
  0
LINE
  8
DETAIL
  6
CONTINUOUS
 62
     5
 10
259.19171245603212
 20
-168.62569416956421
 30
0.0
 11
259.58759751254092
 21
-168.1166990969102
 31
0.0
  0
LINE
  8
DETAIL
  6
CONTINUOUS
 62
     5
 10
259.58759751254092
 20
-168.1166990969102
 30
0.0
 11
260.15314759326748
 21
-167.77736904847441
 31
0.0
  0
LINE
  8
DETAIL
  6
CONTINUOUS
 62
     5
 10
260.15314759326748
 20
-167.77736904847441
 30
0.0
 11
260.88836269821218
 21
-167.49459400811111
 31
0.0
  0
LINE
  8
DETAIL
  6
CONTINUOUS
 62
     5
 10
256.87295712505278
 20
-169.5871293067996
 30
0.0
 11
257.09917715734349
 21
-168.62569416956421
 31
0.0
  0
LINE
  8
DETAIL
  6
CONTINUOUS
 62
     5
 10
257.09917715734349
 20
-168.62569416956421
 30
0.0
 11
257.6647272380701
 21
-167.32492898389319
 31
0.0
  0
LINE
  8
DETAIL
  6
CONTINUOUS
 62
     5
 10
257.6647272380701
 20
-167.32492898389319
 30
0.0
 11
258.39994234301491
 21
-166.4766038628031
 31
0.0
  0
LINE
  8
DETAIL
  6
CONTINUOUS
 62
     5
 10
258.39994234301491
 20
-166.4766038628031
 30
0.0
 11
259.58759751254092
 21
-165.7979437659308
 31
0.0
  0
LINE
  8
DETAIL
  6
CONTINUOUS
 62
     5
 10
259.58759751254092
 20
-165.7979437659308
 30
0.0
 11
260.88836269821218
 21
-165.62827874171279
 31
0.0
  0
LINE
  8
DETAIL
  6
CONTINUOUS
 62
     5
 10
260.88836269821218
 20
-165.62827874171279
 30
0.0
 11
293.80337739650417
 21
-165.62827874171279
 31
0.0
  0
LINE
  8
DETAIL
  6
CONTINUOUS
 62
     5
 10
295.50002763868412
 20
-214.5483607245699
 30
0.0
 11
297.81878296966352
 21
-214.5483607245699
 31
0.0
  0
LINE
  8
DETAIL
  6
CONTINUOUS
 62
     5
 10
295.50002763868412
 20
-199.22195353687721
 30
0.0
 11
295.78280267904762
 21
-199.22195353687721
 31
0.0
  0
LINE
  8
DETAIL
  6
CONTINUOUS
 62
     5
 10
-377.88268425525172
 20
-296.89245247837277
 30
0.0
 11
-365.55369249541042
 21
-296.89245247837277
 31
0.0
  0
LINE
  8
DETAIL
  6
CONTINUOUS
 62
     5
 10
-377.88268425525172
 20
-296.89245247837277
 30
0.0
 11
-378.84411939248707
 21
-296.89245247837277
 31
0.0
  0
LINE
  8
DETAIL
  6
CONTINUOUS
 62
     5
 10
-378.84411939248707
 20
-296.89245247837277
 30
0.0
 11
-379.57933449743138
 21
-296.27034738957298
 31
0.0
  0
LINE
  8
DETAIL
  6
CONTINUOUS
 62
     5
 10
-379.57933449743138
 20
-296.27034738957298
 30
0.0
 11
-380.03177456201303
 21
-295.76135231691921
 31
0.0
  0
LINE
  8
DETAIL
  6
CONTINUOUS
 62
     5
 10
-380.03177456201303
 20
-295.76135231691921
 30
0.0
 11
-380.37110461044892
 21
-295.08269222004719
 31
0.0
  0
LINE
  8
DETAIL
  6
CONTINUOUS
 62
     5
 10
-380.37110461044892
 20
-295.08269222004719
 30
0.0
 11
-380.54076963466707
 21
-294.40403212317523
 31
0.0
  0
LINE
  8
DETAIL
  6
CONTINUOUS
 62
     5
 10
-380.54076963466707
 20
-294.40403212317523
 30
0.0
 11
-380.54076963466707
 21
-56.703333193756627
 31
0.0
  0
LINE
  8
DETAIL
  6
CONTINUOUS
 62
     5
 10
-378.84411939248707
 20
-55.17634797579467
 30
0.0
 11
-365.55369249541042
 21
-55.17634797579467
 31
0.0
  0
LINE
  8
DETAIL
  6
CONTINUOUS
 62
     5
 10
-380.54076963466707
 20
-56.703333193756627
 30
0.0
 11
-380.54076963466707
 21
-56.307448137248002
 31
0.0
  0
LINE
  8
DETAIL
  6
CONTINUOUS
 62
     5
 10
-380.54076963466707
 20
-56.307448137248002
 30
0.0
 11
-380.37110461044892
 21
-55.968118088811927
 31
0.0
  0
LINE
  8
DETAIL
  6
CONTINUOUS
 62
     5
 10
-380.37110461044892
 20
-55.968118088811927
 30
0.0
 11
-379.74899952164952
 21
-55.51567802423051
 31
0.0
  0
LINE
  8
DETAIL
  6
CONTINUOUS
 62
     5
 10
-379.74899952164952
 20
-55.51567802423051
 30
0.0
 11
-379.35311446514112
 21
-55.17634797579467
 31
0.0
  0
LINE
  8
DETAIL
  6
CONTINUOUS
 62
     5
 10
-379.35311446514112
 20
-55.17634797579467
 30
0.0
 11
-378.84411939248707
 21
-55.17634797579467
 31
0.0
  0
LINE
  8
DETAIL
  6
CONTINUOUS
 62
     5
 10
-365.55369249541042
 20
-296.89245247837277
 30
0.0
 11
-365.55369249541042
 21
-55.17634797579467
 31
0.0
  0
LINE
  8
DETAIL
  6
CONTINUOUS
 62
     5
 10
-296.97045784857352
 20
-47.315201853694127
 30
0.0
 11
-365.55369249541042
 21
-55.17634797579467
 31
0.0
  0
LINE
  8
DETAIL
  6
CONTINUOUS
 62
     5
 10
-295.50002763868412
 20
-46.014436668022647
 30
0.0
 11
-296.00902271133799
 21
-46.69309676489479
 31
0.0
  0
LINE
  8
DETAIL
  6
CONTINUOUS
 62
     5
 10
-296.00902271133799
 20
-46.69309676489479
 30
0.0
 11
-296.40490776784691
 21
-47.03242681333063
 31
0.0
  0
LINE
  8
DETAIL
  6
CONTINUOUS
 62
     5
 10
-296.40490776784691
 20
-47.03242681333063
 30
0.0
 11
-296.97045784857352
 21
-47.315201853694127
 31
0.0
  0
LINE
  8
DETAIL
  6
CONTINUOUS
 62
     5
 10
-365.55369249541042
 20
-296.89245247837277
 30
0.0
 11
-296.97045784857352
 21
-304.86670861661861
 31
0.0
  0
LINE
  8
DETAIL
  6
CONTINUOUS
 62
     5
 10
-296.97045784857352
 20
-304.86670861661861
 30
0.0
 11
-296.40490776784691
 21
-305.09292864890932
 31
0.0
  0
LINE
  8
DETAIL
  6
CONTINUOUS
 62
     5
 10
-296.40490776784691
 20
-305.09292864890932
 30
0.0
 11
-296.00902271133799
 21
-305.37570368927283
 31
0.0
  0
LINE
  8
DETAIL
  6
CONTINUOUS
 62
     5
 10
-296.00902271133799
 20
-305.37570368927283
 30
0.0
 11
-295.50002763868412
 21
-306.05436378614468
 31
0.0
  0
LINE
  8
DETAIL
  6
CONTINUOUS
 62
     5
 10
377.88268425525189
 20
-296.89245247837277
 30
0.0
 11
365.66680251155572
 21
-296.89245247837277
 31
0.0
  0
LINE
  8
DETAIL
  6
CONTINUOUS
 62
     5
 10
380.65387965081248
 20
-294.40403212317523
 30
0.0
 11
380.37110461044921
 21
-295.08269222004719
 31
0.0
  0
LINE
  8
DETAIL
  6
CONTINUOUS
 62
     5
 10
380.37110461044921
 20
-295.08269222004719
 30
0.0
 11
380.14488457815861
 21
-295.76135231691921
 31
0.0
  0
LINE
  8
DETAIL
  6
CONTINUOUS
 62
     5
 10
380.14488457815861
 20
-295.76135231691921
 30
0.0
 11
379.35311446514118
 21
-296.27034738957298
 31
0.0
  0
LINE
  8
DETAIL
  6
CONTINUOUS
 62
     5
 10
379.35311446514118
 20
-296.27034738957298
 30
0.0
 11
378.84411939248741
 21
-296.89245247837277
 31
0.0
  0
LINE
  8
DETAIL
  6
CONTINUOUS
 62
     5
 10
378.84411939248741
 20
-296.89245247837277
 30
0.0
 11
377.88268425525189
 21
-296.89245247837277
 31
0.0
  0
LINE
  8
DETAIL
  6
CONTINUOUS
 62
     5
 10
380.65387965081248
 20
-294.40403212317523
 30
0.0
 11
380.65387965081248
 21
-56.703333193756627
 31
0.0
  0
LINE
  8
DETAIL
  6
CONTINUOUS
 62
     5
 10
378.84411939248741
 20
-55.17634797579467
 30
0.0
 11
365.66680251155572
 21
-55.17634797579467
 31
0.0
  0
LINE
  8
DETAIL
  6
CONTINUOUS
 62
     5
 10
378.84411939248741
 20
-55.17634797579467
 30
0.0
 11
379.35311446514118
 21
-55.17634797579467
 31
0.0
  0
LINE
  8
DETAIL
  6
CONTINUOUS
 62
     5
 10
379.35311446514118
 20
-55.17634797579467
 30
0.0
 11
379.97521955394058
 21
-55.51567802423051
 31
0.0
  0
LINE
  8
DETAIL
  6
CONTINUOUS
 62
     5
 10
379.97521955394058
 20
-55.51567802423051
 30
0.0
 11
380.37110461044921
 21
-55.968118088811927
 31
0.0
  0
LINE
  8
DETAIL
  6
CONTINUOUS
 62
     5
 10
380.37110461044921
 20
-55.968118088811927
 30
0.0
 11
380.37110461044921
 21
-56.307448137248002
 31
0.0
  0
LINE
  8
DETAIL
  6
CONTINUOUS
 62
     5
 10
380.37110461044921
 20
-56.307448137248002
 30
0.0
 11
380.65387965081248
 21
-56.703333193756627
 31
0.0
  0
LINE
  8
DETAIL
  6
CONTINUOUS
 62
     5
 10
365.66680251155572
 20
-296.89245247837277
 30
0.0
 11
365.66680251155572
 21
-55.17634797579467
 31
0.0
  0
LINE
  8
DETAIL
  6
CONTINUOUS
 62
     5
 10
297.02701285664602
 20
-47.315201853694127
 30
0.0
 11
365.66680251155572
 21
-55.17634797579467
 31
0.0
  0
LINE
  8
DETAIL
  6
CONTINUOUS
 62
     5
 10
297.02701285664602
 20
-47.315201853694127
 30
0.0
 11
296.63112780013762
 21
-47.03242681333063
 31
0.0
  0
LINE
  8
DETAIL
  6
CONTINUOUS
 62
     5
 10
296.63112780013762
 20
-47.03242681333063
 30
0.0
 11
295.78280267904762
 21
-46.69309676489479
 31
0.0
  0
LINE
  8
DETAIL
  6
CONTINUOUS
 62
     5
 10
295.78280267904762
 20
-46.69309676489479
 30
0.0
 11
295.50002763868412
 21
-46.014436668022647
 31
0.0
  0
LINE
  8
DETAIL
  6
CONTINUOUS
 62
     5
 10
365.66680251155572
 20
-296.89245247837277
 30
0.0
 11
297.02701285664602
 21
-304.86670861661861
 31
0.0
  0
LINE
  8
DETAIL
  6
CONTINUOUS
 62
     5
 10
295.50002763868412
 20
-306.05436378614468
 30
0.0
 11
295.78280267904762
 21
-305.37570368927283
 31
0.0
  0
LINE
  8
DETAIL
  6
CONTINUOUS
 62
     5
 10
295.78280267904762
 20
-305.37570368927283
 30
0.0
 11
296.63112780013762
 21
-305.09292864890932
 31
0.0
  0
LINE
  8
DETAIL
  6
CONTINUOUS
 62
     5
 10
296.63112780013762
 20
-305.09292864890932
 30
0.0
 11
297.02701285664602
 21
-304.86670861661861
 31
0.0
  0
LINE
  8
DETAIL
  6
CONTINUOUS
 62
     5
 10
281.36127562051752
 20
-176.09095523515609
 30
0.0
 11
281.64405066088108
 21
-174.56397001719421
 31
0.0
  0
LINE
  8
DETAIL
  6
CONTINUOUS
 62
     5
 10
281.64405066088108
 20
-174.56397001719421
 30
0.0
 11
282.32271075775287
 21
-173.31975983959569
 31
0.0
  0
LINE
  8
DETAIL
  6
CONTINUOUS
 62
     5
 10
282.32271075775287
 20
-173.31975983959569
 30
0.0
 11
283.34070090306079
 21
-172.075549661997
 31
0.0
  0
LINE
  8
DETAIL
  6
CONTINUOUS
 62
     5
 10
283.34070090306079
 20
-172.075549661997
 30
0.0
 11
284.81113111295031
 21
-171.50999958127019
 31
0.0
  0
LINE
  8
DETAIL
  6
CONTINUOUS
 62
     5
 10
284.81113111295031
 20
-171.50999958127019
 30
0.0
 11
286.33811633091238
 21
-171.28377954897971
 31
0.0
  0
LINE
  8
DETAIL
  6
CONTINUOUS
 62
     5
 10
286.33811633091238
 20
-171.28377954897971
 30
0.0
 11
287.80854654080139
 21
-171.7927746216337
 31
0.0
  0
LINE
  8
DETAIL
  6
CONTINUOUS
 62
     5
 10
287.80854654080139
 20
-171.7927746216337
 30
0.0
 11
289.10931172647292
 21
-172.47143471850561
 31
0.0
  0
LINE
  8
DETAIL
  6
CONTINUOUS
 62
     5
 10
289.10931172647292
 20
-172.47143471850561
 30
0.0
 11
290.1273018717809
 21
-173.77219990417711
 31
0.0
  0
LINE
  8
DETAIL
  6
CONTINUOUS
 62
     5
 10
290.1273018717809
 20
-173.77219990417711
 30
0.0
 11
290.52318692828982
 21
-175.29918512213911
 31
0.0
  0
LINE
  8
DETAIL
  6
CONTINUOUS
 62
     5
 10
290.52318692828982
 20
-175.29918512213911
 30
0.0
 11
290.52318692828982
 21
-176.76961533202831
 31
0.0
  0
LINE
  8
DETAIL
  6
CONTINUOUS
 62
     5
 10
290.52318692828982
 20
-176.76961533202831
 30
0.0
 11
290.1273018717809
 21
-178.29660054999039
 31
0.0
  0
LINE
  8
DETAIL
  6
CONTINUOUS
 62
     5
 10
290.1273018717809
 20
-178.29660054999039
 30
0.0
 11
289.10931172647292
 21
-179.5973657356619
 31
0.0
  0
LINE
  8
DETAIL
  6
CONTINUOUS
 62
     5
 10
289.10931172647292
 20
-179.5973657356619
 30
0.0
 11
287.80854654080139
 21
-180.2760258325338
 31
0.0
  0
LINE
  8
DETAIL
  6
CONTINUOUS
 62
     5
 10
287.80854654080139
 20
-180.2760258325338
 30
0.0
 11
286.33811633091238
 21
-180.78502090518779
 31
0.0
  0
LINE
  8
DETAIL
  6
CONTINUOUS
 62
     5
 10
286.33811633091238
 20
-180.78502090518779
 30
0.0
 11
284.81113111295031
 21
-180.55880087289691
 31
0.0
  0
LINE
  8
DETAIL
  6
CONTINUOUS
 62
     5
 10
284.81113111295031
 20
-180.55880087289691
 30
0.0
 11
283.34070090306079
 21
-179.9932507921703
 31
0.0
  0
LINE
  8
DETAIL
  6
CONTINUOUS
 62
     5
 10
283.34070090306079
 20
-179.9932507921703
 30
0.0
 11
282.32271075775287
 21
-178.97526064686241
 31
0.0
  0
LINE
  8
DETAIL
  6
CONTINUOUS
 62
     5
 10
282.32271075775287
 20
-178.97526064686241
 30
0.0
 11
281.64405066088108
 21
-177.50483043697301
 31
0.0
  0
LINE
  8
DETAIL
  6
CONTINUOUS
 62
     5
 10
281.64405066088108
 20
-177.50483043697301
 30
0.0
 11
281.36127562051752
 21
-176.09095523515609
 31
0.0
  0
LINE
  8
DETAIL
  6
CONTINUOUS
 62
     5
 10
284.5283560725868
 20
-174.56397001719421
 30
0.0
 11
287.29955146814751
 21
-177.50483043697301
 31
0.0
  0
LINE
  8
DETAIL
  6
CONTINUOUS
 62
     5
 10
287.29955146814751
 20
-174.56397001719421
 30
0.0
 11
284.5283560725868
 21
-177.50483043697301
 31
0.0
  0
LINE
  8
DETAIL
  6
CONTINUOUS
 62
     5
 10
263.37678305340961
 20
-176.09095523515609
 30
0.0
 11
263.54644807762747
 21
-174.56397001719421
 31
0.0
  0
LINE
  8
DETAIL
  6
CONTINUOUS
 62
     5
 10
263.54644807762747
 20
-174.56397001719421
 30
0.0
 11
264.33821819064502
 21
-173.31975983959569
 31
0.0
  0
LINE
  8
DETAIL
  6
CONTINUOUS
 62
     5
 10
264.33821819064502
 20
-173.31975983959569
 30
0.0
 11
265.35620833595289
 21
-172.075549661997
 31
0.0
  0
LINE
  8
DETAIL
  6
CONTINUOUS
 62
     5
 10
265.35620833595289
 20
-172.075549661997
 30
0.0
 11
266.88319355391491
 21
-171.50999958127019
 31
0.0
  0
LINE
  8
DETAIL
  6
CONTINUOUS
 62
     5
 10
266.88319355391491
 20
-171.50999958127019
 30
0.0
 11
268.35362376380408
 21
-171.28377954897971
 31
0.0
  0
LINE
  8
DETAIL
  6
CONTINUOUS
 62
     5
 10
268.35362376380408
 20
-171.28377954897971
 30
0.0
 11
269.88060898176627
 21
-171.7927746216337
 31
0.0
  0
LINE
  8
DETAIL
  6
CONTINUOUS
 62
     5
 10
269.88060898176627
 20
-171.7927746216337
 30
0.0
 11
271.06826415129228
 21
-172.47143471850561
 31
0.0
  0
LINE
  8
DETAIL
  6
CONTINUOUS
 62
     5
 10
271.06826415129228
 20
-172.47143471850561
 30
0.0
 11
272.02969928852758
 21
-173.77219990417711
 31
0.0
  0
LINE
  8
DETAIL
  6
CONTINUOUS
 62
     5
 10
272.02969928852758
 20
-173.77219990417711
 30
0.0
 11
272.6518043773267
 21
-175.29918512213911
 31
0.0
  0
LINE
  8
DETAIL
  6
CONTINUOUS
 62
     5
 10
272.6518043773267
 20
-175.29918512213911
 30
0.0
 11
272.6518043773267
 21
-176.76961533202831
 31
0.0
  0
LINE
  8
DETAIL
  6
CONTINUOUS
 62
     5
 10
272.6518043773267
 20
-176.76961533202831
 30
0.0
 11
272.02969928852758
 21
-178.29660054999039
 31
0.0
  0
LINE
  8
DETAIL
  6
CONTINUOUS
 62
     5
 10
272.02969928852758
 20
-178.29660054999039
 30
0.0
 11
271.06826415129228
 21
-179.5973657356619
 31
0.0
  0
LINE
  8
DETAIL
  6
CONTINUOUS
 62
     5
 10
271.06826415129228
 20
-179.5973657356619
 30
0.0
 11
269.88060898176627
 21
-180.2760258325338
 31
0.0
  0
LINE
  8
DETAIL
  6
CONTINUOUS
 62
     5
 10
269.88060898176627
 20
-180.2760258325338
 30
0.0
 11
268.35362376380408
 21
-180.78502090518779
 31
0.0
  0
LINE
  8
DETAIL
  6
CONTINUOUS
 62
     5
 10
268.35362376380408
 20
-180.78502090518779
 30
0.0
 11
266.88319355391491
 21
-180.55880087289691
 31
0.0
  0
LINE
  8
DETAIL
  6
CONTINUOUS
 62
     5
 10
266.88319355391491
 20
-180.55880087289691
 30
0.0
 11
265.35620833595289
 21
-179.9932507921703
 31
0.0
  0
LINE
  8
DETAIL
  6
CONTINUOUS
 62
     5
 10
265.35620833595289
 20
-179.9932507921703
 30
0.0
 11
264.33821819064502
 21
-178.97526064686241
 31
0.0
  0
LINE
  8
DETAIL
  6
CONTINUOUS
 62
     5
 10
264.33821819064502
 20
-178.97526064686241
 30
0.0
 11
263.54644807762747
 21
-177.50483043697301
 31
0.0
  0
LINE
  8
DETAIL
  6
CONTINUOUS
 62
     5
 10
263.54644807762747
 20
-177.50483043697301
 30
0.0
 11
263.37678305340961
 21
-176.09095523515609
 31
0.0
  0
LINE
  8
DETAIL
  6
CONTINUOUS
 62
     5
 10
266.6569735216242
 20
-174.56397001719421
 30
0.0
 11
269.37161390911228
 21
-177.50483043697301
 31
0.0
  0
LINE
  8
DETAIL
  6
CONTINUOUS
 62
     5
 10
269.37161390911228
 20
-174.56397001719421
 30
0.0
 11
266.6569735216242
 21
-177.50483043697301
 31
0.0
  0
LINE
  8
DETAIL
  6
CONTINUOUS
 62
     5
 10
-272.42558434503599
 20
-176.09095523515609
 30
0.0
 11
-272.25591932081812
 21
-174.56397001719421
 31
0.0
  0
LINE
  8
DETAIL
  6
CONTINUOUS
 62
     5
 10
-272.25591932081812
 20
-174.56397001719421
 30
0.0
 11
-271.4641492078008
 21
-173.31975983959569
 31
0.0
  0
LINE
  8
DETAIL
  6
CONTINUOUS
 62
     5
 10
-271.4641492078008
 20
-173.31975983959569
 30
0.0
 11
-270.55926907863801
 21
-172.075549661997
 31
0.0
  0
LINE
  8
DETAIL
  6
CONTINUOUS
 62
     5
 10
-270.55926907863801
 20
-172.075549661997
 30
0.0
 11
-268.91917384453058
 21
-171.50999958127019
 31
0.0
  0
LINE
  8
DETAIL
  6
CONTINUOUS
 62
     5
 10
-268.91917384453058
 20
-171.50999958127019
 30
0.0
 11
-267.44874363464152
 21
-171.28377954897971
 31
0.0
  0
LINE
  8
DETAIL
  6
CONTINUOUS
 62
     5
 10
-267.44874363464152
 20
-171.28377954897971
 30
0.0
 11
-266.03486843282462
 21
-171.7927746216337
 31
0.0
  0
LINE
  8
DETAIL
  6
CONTINUOUS
 62
     5
 10
-266.03486843282462
 20
-171.7927746216337
 30
0.0
 11
-264.73410324715343
 21
-172.47143471850561
 31
0.0
  0
LINE
  8
DETAIL
  6
CONTINUOUS
 62
     5
 10
-264.73410324715343
 20
-172.47143471850561
 30
0.0
 11
-263.77266810991802
 21
-173.77219990417711
 31
0.0
  0
LINE
  8
DETAIL
  6
CONTINUOUS
 62
     5
 10
-263.77266810991802
 20
-173.77219990417711
 30
0.0
 11
-263.26367303726403
 21
-175.29918512213911
 31
0.0
  0
LINE
  8
DETAIL
  6
CONTINUOUS
 62
     5
 10
-263.26367303726403
 20
-175.29918512213911
 30
0.0
 11
-263.26367303726403
 21
-176.76961533202831
 31
0.0
  0
LINE
  8
DETAIL
  6
CONTINUOUS
 62
     5
 10
-263.26367303726403
 20
-176.76961533202831
 30
0.0
 11
-263.77266810991802
 21
-178.29660054999039
 31
0.0
  0
LINE
  8
DETAIL
  6
CONTINUOUS
 62
     5
 10
-263.77266810991802
 20
-178.29660054999039
 30
0.0
 11
-264.73410324715343
 21
-179.5973657356619
 31
0.0
  0
LINE
  8
DETAIL
  6
CONTINUOUS
 62
     5
 10
-264.73410324715343
 20
-179.5973657356619
 30
0.0
 11
-266.03486843282462
 21
-180.2760258325338
 31
0.0
  0
LINE
  8
DETAIL
  6
CONTINUOUS
 62
     5
 10
-266.03486843282462
 20
-180.2760258325338
 30
0.0
 11
-267.44874363464152
 21
-180.78502090518779
 31
0.0
  0
LINE
  8
DETAIL
  6
CONTINUOUS
 62
     5
 10
-267.44874363464152
 20
-180.78502090518779
 30
0.0
 11
-268.91917384453058
 21
-180.55880087289691
 31
0.0
  0
LINE
  8
DETAIL
  6
CONTINUOUS
 62
     5
 10
-268.91917384453058
 20
-180.55880087289691
 30
0.0
 11
-270.55926907863801
 21
-179.9932507921703
 31
0.0
  0
LINE
  8
DETAIL
  6
CONTINUOUS
 62
     5
 10
-270.55926907863801
 20
-179.9932507921703
 30
0.0
 11
-271.4641492078008
 21
-178.97526064686241
 31
0.0
  0
LINE
  8
DETAIL
  6
CONTINUOUS
 62
     5
 10
-271.4641492078008
 20
-178.97526064686241
 30
0.0
 11
-272.25591932081812
 21
-177.50483043697301
 31
0.0
  0
LINE
  8
DETAIL
  6
CONTINUOUS
 62
     5
 10
-272.25591932081812
 20
-177.50483043697301
 30
0.0
 11
-272.42558434503599
 21
-176.09095523515609
 31
0.0
  0
LINE
  8
DETAIL
  6
CONTINUOUS
 62
     5
 10
-269.54127893332998
 20
-174.56397001719421
 30
0.0
 11
-266.43075348933348
 21
-177.50483043697301
 31
0.0
  0
LINE
  8
DETAIL
  6
CONTINUOUS
 62
     5
 10
-266.43075348933348
 20
-174.56397001719421
 30
0.0
 11
-269.54127893332998
 21
-177.50483043697301
 31
0.0
  0
LINE
  8
DETAIL
  6
CONTINUOUS
 62
     5
 10
-290.52318692828948
 20
-176.09095523515609
 30
0.0
 11
-290.18385687985352
 21
-174.56397001719421
 31
0.0
  0
LINE
  8
DETAIL
  6
CONTINUOUS
 62
     5
 10
-290.18385687985352
 20
-174.56397001719421
 30
0.0
 11
-289.50519678298173
 21
-173.31975983959569
 31
0.0
  0
LINE
  8
DETAIL
  6
CONTINUOUS
 62
     5
 10
-289.50519678298173
 20
-173.31975983959569
 30
0.0
 11
-288.48720663767358
 21
-172.075549661997
 31
0.0
  0
LINE
  8
DETAIL
  6
CONTINUOUS
 62
     5
 10
-288.48720663767358
 20
-172.075549661997
 30
0.0
 11
-287.01677642778418
 21
-171.50999958127019
 31
0.0
  0
LINE
  8
DETAIL
  6
CONTINUOUS
 62
     5
 10
-287.01677642778418
 20
-171.50999958127019
 30
0.0
 11
-285.48979120982222
 21
-171.28377954897971
 31
0.0
  0
LINE
  8
DETAIL
  6
CONTINUOUS
 62
     5
 10
-285.48979120982222
 20
-171.28377954897971
 30
0.0
 11
-283.90625098378752
 21
-171.7927746216337
 31
0.0
  0
LINE
  8
DETAIL
  6
CONTINUOUS
 62
     5
 10
-283.90625098378752
 20
-171.7927746216337
 30
0.0
 11
-282.71859581426122
 21
-172.47143471850561
 31
0.0
  0
LINE
  8
DETAIL
  6
CONTINUOUS
 62
     5
 10
-282.71859581426122
 20
-172.47143471850561
 30
0.0
 11
-281.70060566895341
 21
-173.77219990417711
 31
0.0
  0
LINE
  8
DETAIL
  6
CONTINUOUS
 62
     5
 10
-281.70060566895341
 20
-173.77219990417711
 30
0.0
 11
-281.24816560437188
 21
-175.29918512213911
 31
0.0
  0
LINE
  8
DETAIL
  6
CONTINUOUS
 62
     5
 10
-281.24816560437188
 20
-175.29918512213911
 30
0.0
 11
-281.24816560437188
 21
-176.76961533202831
 31
0.0
  0
LINE
  8
DETAIL
  6
CONTINUOUS
 62
     5
 10
-281.24816560437188
 20
-176.76961533202831
 30
0.0
 11
-281.70060566895341
 21
-178.29660054999039
 31
0.0
  0
LINE
  8
DETAIL
  6
CONTINUOUS
 62
     5
 10
-281.70060566895341
 20
-178.29660054999039
 30
0.0
 11
-282.71859581426122
 21
-179.5973657356619
 31
0.0
  0
LINE
  8
DETAIL
  6
CONTINUOUS
 62
     5
 10
-282.71859581426122
 20
-179.5973657356619
 30
0.0
 11
-283.90625098378752
 21
-180.2760258325338
 31
0.0
  0
LINE
  8
DETAIL
  6
CONTINUOUS
 62
     5
 10
-283.90625098378752
 20
-180.2760258325338
 30
0.0
 11
-285.48979120982222
 21
-180.78502090518779
 31
0.0
  0
LINE
  8
DETAIL
  6
CONTINUOUS
 62
     5
 10
-285.48979120982222
 20
-180.78502090518779
 30
0.0
 11
-287.01677642778418
 21
-180.55880087289691
 31
0.0
  0
LINE
  8
DETAIL
  6
CONTINUOUS
 62
     5
 10
-287.01677642778418
 20
-180.55880087289691
 30
0.0
 11
-288.48720663767358
 21
-179.9932507921703
 31
0.0
  0
LINE
  8
DETAIL
  6
CONTINUOUS
 62
     5
 10
-288.48720663767358
 20
-179.9932507921703
 30
0.0
 11
-289.50519678298173
 21
-178.97526064686241
 31
0.0
  0
LINE
  8
DETAIL
  6
CONTINUOUS
 62
     5
 10
-289.50519678298173
 20
-178.97526064686241
 30
0.0
 11
-290.18385687985352
 21
-177.50483043697301
 31
0.0
  0
LINE
  8
DETAIL
  6
CONTINUOUS
 62
     5
 10
-290.18385687985352
 20
-177.50483043697301
 30
0.0
 11
-290.52318692828948
 21
-176.09095523515609
 31
0.0
  0
LINE
  8
DETAIL
  6
CONTINUOUS
 62
     5
 10
-287.41266148429281
 20
-174.56397001719421
 30
0.0
 11
-284.5283560725868
 21
-177.50483043697301
 31
0.0
  0
LINE
  8
DETAIL
  6
CONTINUOUS
 62
     5
 10
-284.5283560725868
 20
-174.56397001719421
 30
0.0
 11
-287.41266148429281
 21
-177.50483043697301
 31
0.0
  0
LINE
  8
DETAIL
  6
CONTINUOUS
 62
     5
 10
-295.50002763868412
 20
-330.03368720895509
 30
0.0
 11
-296.40490776784691
 21
-328.50670199099318
 31
0.0
  0
LINE
  8
DETAIL
  6
CONTINUOUS
 62
     5
 10
-296.40490776784691
 20
-328.50670199099318
 30
0.0
 11
-297.19667788086417
 21
-326.81005174881318
 31
0.0
  0
LINE
  8
DETAIL
  6
CONTINUOUS
 62
     5
 10
-297.19667788086417
 20
-326.81005174881318
 30
0.0
 11
-297.19667788086417
 21
-324.83062646626979
 31
0.0
  0
LINE
  8
DETAIL
  6
CONTINUOUS
 62
     5
 10
-297.19667788086417
 20
-324.83062646626979
 30
0.0
 11
-296.40490776784691
 21
-323.02086620794489
 31
0.0
  0
LINE
  8
DETAIL
  6
CONTINUOUS
 62
     5
 10
-296.40490776784691
 20
-323.02086620794489
 30
0.0
 11
-295.50002763868412
 21
-321.55043599805532
 31
0.0
  0
LINE
  8
DETAIL
  6
CONTINUOUS
 62
     5
 10
-295.50002763868412
 20
-30.51836445611184
 30
0.0
 11
-296.40490776784691
 21
-29.04793424622267
 31
0.0
  0
LINE
  8
DETAIL
  6
CONTINUOUS
 62
     5
 10
-296.40490776784691
 20
-29.04793424622267
 30
0.0
 11
-297.19667788086417
 21
-27.351284004042778
 31
0.0
  0
LINE
  8
DETAIL
  6
CONTINUOUS
 62
     5
 10
-297.19667788086417
 20
-27.351284004042778
 30
0.0
 11
-297.19667788086417
 21
-25.25874870535381
 31
0.0
  0
LINE
  8
DETAIL
  6
CONTINUOUS
 62
     5
 10
-297.19667788086417
 20
-25.25874870535381
 30
0.0
 11
-296.40490776784691
 21
-23.562098463173921
 31
0.0
  0
LINE
  8
DETAIL
  6
CONTINUOUS
 62
     5
 10
-296.40490776784691
 20
-23.562098463173921
 30
0.0
 11
-295.50002763868412
 21
-22.03511324521196
 31
0.0
  0
LINE
  8
DETAIL
  6
CONTINUOUS
 62
     5
 10
120.12294760534451
 20
-350.48526022813257
 30
0.0
 11
122.6113679605419
 21
-350.48526022813257
 31
0.0
  0
LINE
  8
DETAIL
  6
CONTINUOUS
 62
     5
 10
117.6345272501471
 20
0.0
 30
0.0
 11
119.6139525326905
 21
0.3958850565088596
 31
0.0
  0
LINE
  8
DETAIL
  6
CONTINUOUS
 62
     5
 10
119.6139525326905
 20
0.3958850565088596
 30
0.0
 11
121.3106027748704
 21
0.3958850565088596
 31
0.0
  0
LINE
  8
DETAIL
  6
CONTINUOUS
 62
     5
 10
121.3106027748704
 20
0.3958850565088596
 30
0.0
 11
123.1203630331959
 21
0.0
 31
0.0
  0
LINE
  8
DETAIL
  6
CONTINUOUS
 62
     5
 10
123.1203630331959
 20
0.0
 30
0.0
 11
124.5907932430853
 21
-0.9614351372354122
 31
0.0
  0
LINE
  8
DETAIL
  6
CONTINUOUS
 62
     5
 10
120.12294760534451
 20
-1.809760258325241
 30
0.0
 11
122.6113679605419
 21
-1.809760258325241
 31
0.0
  0
LINE
  8
DETAIL
  6
CONTINUOUS
 62
     5
 10
122.6113679605419
 20
-1.583540226034529
 30
0.0
 11
120.12294760534451
 21
-1.583540226034529
 31
0.0
  0
LINE
  8
DETAIL
  6
CONTINUOUS
 62
     5
 10
124.5907932430853
 20
-351.10736531693192
 30
0.0
 11
123.1203630331959
 21
-352.06880045416727
 31
0.0
  0
LINE
  8
DETAIL
  6
CONTINUOUS
 62
     5
 10
123.1203630331959
 20
-352.06880045416727
 30
0.0
 11
121.3106027748704
 21
-352.80401555911197
 31
0.0
  0
LINE
  8
DETAIL
  6
CONTINUOUS
 62
     5
 10
121.3106027748704
 20
-352.80401555911197
 30
0.0
 11
119.6139525326905
 21
-352.80401555911197
 31
0.0
  0
LINE
  8
DETAIL
  6
CONTINUOUS
 62
     5
 10
119.6139525326905
 20
-352.80401555911197
 30
0.0
 11
117.6345272501471
 21
-352.06880045416727
 31
0.0
  0
LINE
  8
DETAIL
  6
CONTINUOUS
 62
     5
 10
-281.02194557208122
 20
-0.7917701130172645
 30
0.0
 11
-290.52318692828948
 21
-0.7917701130172645
 31
0.0
  0
LINE
  8
DETAIL
  6
CONTINUOUS
 62
     5
 10
-290.52318692828948
 20
-0.9614351372354122
 30
0.0
 11
-290.52318692828948
 21
-0.7917701130172645
 31
0.0
  0
LINE
  8
DETAIL
  6
CONTINUOUS
 62
     5
 10
-281.02194557208122
 20
-0.9614351372354122
 30
0.0
 11
-281.02194557208122
 21
-0.7917701130172645
 31
0.0
  0
LINE
  8
DETAIL
  6
CONTINUOUS
 62
     5
 10
-290.52318692828948
 20
-0.7917701130172645
 30
0.0
 11
-288.88309169418199
 21
0.3958850565088596
 31
0.0
  0
LINE
  8
DETAIL
  6
CONTINUOUS
 62
     5
 10
-288.88309169418199
 20
0.3958850565088596
 30
0.0
 11
-287.41266148429281
 21
1.1876551695261239
 31
0.0
  0
LINE
  8
DETAIL
  6
CONTINUOUS
 62
     5
 10
-287.41266148429281
 20
1.1876551695261239
 30
0.0
 11
-285.7160112421127
 21
1.5269852179621921
 31
0.0
  0
LINE
  8
DETAIL
  6
CONTINUOUS
 62
     5
 10
-285.7160112421127
 20
1.5269852179621921
 30
0.0
 11
-283.90625098378752
 21
1.1876551695261239
 31
0.0
  0
LINE
  8
DETAIL
  6
CONTINUOUS
 62
     5
 10
-283.90625098378752
 20
1.1876551695261239
 30
0.0
 11
-282.20960074160718
 21
0.3958850565088596
 31
0.0
  0
LINE
  8
DETAIL
  6
CONTINUOUS
 62
     5
 10
-282.20960074160718
 20
0.3958850565088596
 30
0.0
 11
-281.02194557208122
 21
-0.7917701130172645
 31
0.0
  0
LINE
  8
DETAIL
  6
CONTINUOUS
 62
     5
 10
280.85228054786347
 20
-351.27703034115012
 30
0.0
 11
290.29696689599882
 21
-351.27703034115012
 31
0.0
  0
LINE
  8
DETAIL
  6
CONTINUOUS
 62
     5
 10
290.29696689599882
 20
-351.10736531693192
 30
0.0
 11
290.29696689599882
 21
-351.27703034115012
 31
0.0
  0
LINE
  8
DETAIL
  6
CONTINUOUS
 62
     5
 10
280.85228054786347
 20
-351.10736531693192
 30
0.0
 11
280.85228054786347
 21
-351.27703034115012
 31
0.0
  0
LINE
  8
DETAIL
  6
CONTINUOUS
 62
     5
 10
290.29696689599882
 20
-351.27703034115012
 30
0.0
 11
288.82653668610942
 21
-352.46468551067602
 31
0.0
  0
LINE
  8
DETAIL
  6
CONTINUOUS
 62
     5
 10
288.82653668610942
 20
-352.46468551067602
 30
0.0
 11
287.29955146814751
 21
-353.31301063176602
 31
0.0
  0
LINE
  8
DETAIL
  6
CONTINUOUS
 62
     5
 10
287.29955146814751
 20
-353.31301063176602
 30
0.0
 11
285.54634621789478
 21
-353.5957856721293
 31
0.0
  0
LINE
  8
DETAIL
  6
CONTINUOUS
 62
     5
 10
285.54634621789478
 20
-353.5957856721293
 30
0.0
 11
283.84969597571489
 21
-353.31301063176602
 31
0.0
  0
LINE
  8
DETAIL
  6
CONTINUOUS
 62
     5
 10
283.84969597571489
 20
-353.31301063176602
 30
0.0
 11
282.03993571738943
 21
-352.46468551067602
 31
0.0
  0
LINE
  8
DETAIL
  6
CONTINUOUS
 62
     5
 10
282.03993571738943
 20
-352.46468551067602
 30
0.0
 11
280.85228054786347
 21
-351.27703034115012
 31
0.0
  0
LINE
  8
DETAIL
  6
CONTINUOUS
 62
     5
 10
-297.70567295351827
 20
-213.02137550660791
 30
0.0
 11
-298.89332812304428
 21
-211.04195022406449
 31
0.0
  0
LINE
  8
DETAIL
  6
CONTINUOUS
 62
     5
 10
-298.89332812304428
 20
-211.04195022406449
 30
0.0
 11
-299.68509823606149
 21
-208.72319489308509
 31
0.0
  0
LINE
  8
DETAIL
  6
CONTINUOUS
 62
     5
 10
-299.68509823606149
 20
-208.72319489308509
 30
0.0
 11
-299.68509823606149
 21
-206.4609945701782
 31
0.0
  0
LINE
  8
DETAIL
  6
CONTINUOUS
 62
     5
 10
-299.68509823606149
 20
-206.4609945701782
 30
0.0
 11
-298.89332812304428
 21
-204.2553492553443
 31
0.0
  0
LINE
  8
DETAIL
  6
CONTINUOUS
 62
     5
 10
-298.89332812304428
 20
-204.2553492553443
 30
0.0
 11
-297.70567295351827
 21
-202.21936896472829
 31
0.0
  0
LINE
  8
DETAIL
  6
CONTINUOUS
 62
     5
 10
296.80079282435548
 20
-213.5303705792619
 30
0.0
 11
296.80079282435548
 21
-211.04195022406449
 31
0.0
  0
LINE
  8
DETAIL
  6
CONTINUOUS
 62
     5
 10
296.80079282435548
 20
-203.9160192069082
 30
0.0
 11
296.80079282435548
 21
-201.76692890014709
 31
0.0
  0
LINE
  8
DETAIL
  6
CONTINUOUS
 62
     5
 10
297.81878296966352
 20
-202.21936896472829
 30
0.0
 11
299.119548155335
 21
-204.2553492553443
 31
0.0
  0
LINE
  8
DETAIL
  6
CONTINUOUS
 62
     5
 10
299.119548155335
 20
-204.2553492553443
 30
0.0
 11
299.7982082522069
 21
-206.4609945701782
 31
0.0
  0
LINE
  8
DETAIL
  6
CONTINUOUS
 62
     5
 10
299.7982082522069
 20
-206.4609945701782
 30
0.0
 11
299.7982082522069
 21
-208.72319489308509
 31
0.0
  0
LINE
  8
DETAIL
  6
CONTINUOUS
 62
     5
 10
299.7982082522069
 20
-208.72319489308509
 30
0.0
 11
299.119548155335
 21
-211.04195022406449
 31
0.0
  0
LINE
  8
DETAIL
  6
CONTINUOUS
 62
     5
 10
299.119548155335
 20
-211.04195022406449
 30
0.0
 11
297.81878296966352
 21
-213.02137550660791
 31
0.0
  0
LINE
  8
OUTLINE
  6
CONTINUOUS
 62
     3
 10
295.50002763868412
 20
-176.09095523515609
 30
0.0
 11
295.50002763868412
 21
-348.2796149132987
 31
0.0
  0
LINE
  8
OUTLINE
  6
CONTINUOUS
 62
     3
 10
292.84194225926888
 20
-348.2796149132987
 30
0.0
 11
295.50002763868412
 21
-348.2796149132987
 31
0.0
  0
LINE
  8
OUTLINE
  6
CONTINUOUS
 62
     3
 10
292.84194225926888
 20
-348.2796149132987
 30
0.0
 11
292.84194225926888
 21
-351.10736531693192
 31
0.0
  0
LINE
  8
OUTLINE
  6
CONTINUOUS
 62
     3
 10
292.84194225926888
 20
-3.7891855408686301
 30
0.0
 11
295.50002763868412
 21
-3.7891855408686301
 31
0.0
  0
LINE
  8
OUTLINE
  6
CONTINUOUS
 62
     3
 10
292.84194225926888
 20
-3.7891855408686301
 30
0.0
 11
292.84194225926888
 21
-0.9614351372354122
 31
0.0
  0
LINE
  8
OUTLINE
  6
CONTINUOUS
 62
     3
 10
122.6113679605419
 20
-351.10736531693192
 30
0.0
 11
292.84194225926888
 21
-351.10736531693192
 31
0.0
  0
LINE
  8
OUTLINE
  6
CONTINUOUS
 62
     3
 10
122.6113679605419
 20
-0.9614351372354122
 30
0.0
 11
292.84194225926888
 21
-0.9614351372354122
 31
0.0
  0
LINE
  8
OUTLINE
  6
CONTINUOUS
 62
     3
 10
295.50002763868412
 20
-166.0807188062943
 30
0.0
 11
295.50002763868412
 21
-3.7891855408686301
 31
0.0
  0
LINE
  8
OUTLINE
  6
CONTINUOUS
 62
     3
 10
-205.0683488124896
 20
-0.9614351372354122
 30
0.0
 11
-292.72883224312341
 21
-0.9614351372354122
 31
0.0
  0
LINE
  8
OUTLINE
  6
CONTINUOUS
 62
     3
 10
-205.0683488124896
 20
-351.10736531693192
 30
0.0
 11
-292.72883224312341
 21
-351.10736531693192
 31
0.0
  0
LINE
  8
OUTLINE
  6
CONTINUOUS
 62
     3
 10
-295.50002763868412
 20
-176.09095523515609
 30
0.0
 11
-295.50002763868412
 21
-348.2796149132987
 31
0.0
  0
LINE
  8
OUTLINE
  6
CONTINUOUS
 62
     3
 10
-292.72883224312341
 20
-348.2796149132987
 30
0.0
 11
-295.50002763868412
 21
-348.2796149132987
 31
0.0
  0
LINE
  8
OUTLINE
  6
CONTINUOUS
 62
     3
 10
-292.72883224312341
 20
-348.2796149132987
 30
0.0
 11
-292.72883224312341
 21
-351.10736531693192
 31
0.0
  0
LINE
  8
OUTLINE
  6
CONTINUOUS
 62
     3
 10
-292.72883224312341
 20
-3.7891855408686301
 30
0.0
 11
-295.50002763868412
 21
-3.7891855408686301
 31
0.0
  0
LINE
  8
OUTLINE
  6
CONTINUOUS
 62
     3
 10
-292.72883224312341
 20
-3.7891855408686301
 30
0.0
 11
-292.72883224312341
 21
-0.9614351372354122
 31
0.0
  0
LINE
  8
OUTLINE
  6
CONTINUOUS
 62
     3
 10
-295.50002763868412
 20
-166.0807188062943
 30
0.0
 11
-295.50002763868412
 21
-3.7891855408686301
 31
0.0
  0
LINE
  8
OUTLINE
  6
CONTINUOUS
 62
     3
 10
263.03745300497337
 20
-348.61894496173448
 30
0.0
 11
265.18654331173479
 21
-348.61894496173448
 31
0.0
  0
LINE
  8
OUTLINE
  6
CONTINUOUS
 62
     3
 10
-205.0683488124896
 20
-352.06880045416727
 30
0.0
 11
120.12294760534451
 21
-352.06880045416727
 31
0.0
  0
LINE
  8
OUTLINE
  6
CONTINUOUS
 62
     3
 10
-205.0683488124896
 20
-352.06880045416727
 30
0.0
 11
-205.0683488124896
 21
-347.48784480028121
 31
0.0
  0
LINE
  8
OUTLINE
  6
CONTINUOUS
 62
     3
 10
-205.0683488124896
 20
0.0
 30
0.0
 11
120.12294760534451
 21
0.0
 31
0.0
  0
LINE
  8
OUTLINE
  6
CONTINUOUS
 62
     3
 10
-205.0683488124896
 20
-4.5809556538858942
 30
0.0
 11
-205.0683488124896
 21
0.0
 31
0.0
  0
LINE
  8
OUTLINE
  6
CONTINUOUS
 62
     3
 10
-377.88268425525172
 20
-296.89245247837277
 30
0.0
 11
-365.55369249541042
 21
-296.89245247837277
 31
0.0
  0
LINE
  8
OUTLINE
  6
CONTINUOUS
 62
     3
 10
-377.88268425525172
 20
-296.89245247837277
 30
0.0
 11
-378.84411939248707
 21
-296.89245247837277
 31
0.0
  0
LINE
  8
OUTLINE
  6
CONTINUOUS
 62
     3
 10
-378.84411939248707
 20
-296.89245247837277
 30
0.0
 11
-379.57933449743138
 21
-296.27034738957298
 31
0.0
  0
LINE
  8
OUTLINE
  6
CONTINUOUS
 62
     3
 10
-379.57933449743138
 20
-296.27034738957298
 30
0.0
 11
-380.03177456201303
 21
-295.76135231691921
 31
0.0
  0
LINE
  8
OUTLINE
  6
CONTINUOUS
 62
     3
 10
-380.03177456201303
 20
-295.76135231691921
 30
0.0
 11
-380.37110461044892
 21
-295.08269222004719
 31
0.0
  0
LINE
  8
OUTLINE
  6
CONTINUOUS
 62
     3
 10
-380.37110461044892
 20
-295.08269222004719
 30
0.0
 11
-380.54076963466707
 21
-294.40403212317523
 31
0.0
  0
LINE
  8
OUTLINE
  6
CONTINUOUS
 62
     3
 10
-380.54076963466707
 20
-294.40403212317523
 30
0.0
 11
-380.54076963466707
 21
-56.703333193756627
 31
0.0
  0
LINE
  8
OUTLINE
  6
CONTINUOUS
 62
     3
 10
-378.84411939248707
 20
-55.17634797579467
 30
0.0
 11
-365.55369249541042
 21
-55.17634797579467
 31
0.0
  0
LINE
  8
OUTLINE
  6
CONTINUOUS
 62
     3
 10
-380.54076963466707
 20
-56.703333193756627
 30
0.0
 11
-380.54076963466707
 21
-56.307448137248002
 31
0.0
  0
LINE
  8
OUTLINE
  6
CONTINUOUS
 62
     3
 10
-380.54076963466707
 20
-56.307448137248002
 30
0.0
 11
-380.37110461044892
 21
-55.968118088811927
 31
0.0
  0
LINE
  8
OUTLINE
  6
CONTINUOUS
 62
     3
 10
-380.37110461044892
 20
-55.968118088811927
 30
0.0
 11
-379.74899952164952
 21
-55.51567802423051
 31
0.0
  0
LINE
  8
OUTLINE
  6
CONTINUOUS
 62
     3
 10
-379.74899952164952
 20
-55.51567802423051
 30
0.0
 11
-379.35311446514112
 21
-55.17634797579467
 31
0.0
  0
LINE
  8
OUTLINE
  6
CONTINUOUS
 62
     3
 10
-379.35311446514112
 20
-55.17634797579467
 30
0.0
 11
-378.84411939248707
 21
-55.17634797579467
 31
0.0
  0
LINE
  8
OUTLINE
  6
CONTINUOUS
 62
     3
 10
-296.97045784857352
 20
-47.315201853694127
 30
0.0
 11
-365.55369249541042
 21
-55.17634797579467
 31
0.0
  0
LINE
  8
OUTLINE
  6
CONTINUOUS
 62
     3
 10
-295.50002763868412
 20
-46.014436668022647
 30
0.0
 11
-296.00902271133799
 21
-46.69309676489479
 31
0.0
  0
LINE
  8
OUTLINE
  6
CONTINUOUS
 62
     3
 10
-296.00902271133799
 20
-46.69309676489479
 30
0.0
 11
-296.40490776784691
 21
-47.03242681333063
 31
0.0
  0
LINE
  8
OUTLINE
  6
CONTINUOUS
 62
     3
 10
-296.40490776784691
 20
-47.03242681333063
 30
0.0
 11
-296.97045784857352
 21
-47.315201853694127
 31
0.0
  0
LINE
  8
OUTLINE
  6
CONTINUOUS
 62
     3
 10
-365.55369249541042
 20
-296.89245247837277
 30
0.0
 11
-296.97045784857352
 21
-304.86670861661861
 31
0.0
  0
LINE
  8
OUTLINE
  6
CONTINUOUS
 62
     3
 10
-296.97045784857352
 20
-304.86670861661861
 30
0.0
 11
-296.40490776784691
 21
-305.09292864890932
 31
0.0
  0
LINE
  8
OUTLINE
  6
CONTINUOUS
 62
     3
 10
-296.40490776784691
 20
-305.09292864890932
 30
0.0
 11
-296.00902271133799
 21
-305.37570368927283
 31
0.0
  0
LINE
  8
OUTLINE
  6
CONTINUOUS
 62
     3
 10
-296.00902271133799
 20
-305.37570368927283
 30
0.0
 11
-295.50002763868412
 21
-306.05436378614468
 31
0.0
  0
LINE
  8
OUTLINE
  6
CONTINUOUS
 62
     3
 10
377.88268425525189
 20
-296.89245247837277
 30
0.0
 11
365.66680251155572
 21
-296.89245247837277
 31
0.0
  0
LINE
  8
OUTLINE
  6
CONTINUOUS
 62
     3
 10
380.65387965081248
 20
-294.40403212317523
 30
0.0
 11
380.37110461044921
 21
-295.08269222004719
 31
0.0
  0
LINE
  8
OUTLINE
  6
CONTINUOUS
 62
     3
 10
380.37110461044921
 20
-295.08269222004719
 30
0.0
 11
380.14488457815861
 21
-295.76135231691921
 31
0.0
  0
LINE
  8
OUTLINE
  6
CONTINUOUS
 62
     3
 10
380.14488457815861
 20
-295.76135231691921
 30
0.0
 11
379.35311446514118
 21
-296.27034738957298
 31
0.0
  0
LINE
  8
OUTLINE
  6
CONTINUOUS
 62
     3
 10
379.35311446514118
 20
-296.27034738957298
 30
0.0
 11
378.84411939248741
 21
-296.89245247837277
 31
0.0
  0
LINE
  8
OUTLINE
  6
CONTINUOUS
 62
     3
 10
378.84411939248741
 20
-296.89245247837277
 30
0.0
 11
377.88268425525189
 21
-296.89245247837277
 31
0.0
  0
LINE
  8
OUTLINE
  6
CONTINUOUS
 62
     3
 10
380.65387965081248
 20
-294.40403212317523
 30
0.0
 11
380.65387965081248
 21
-56.703333193756627
 31
0.0
  0
LINE
  8
OUTLINE
  6
CONTINUOUS
 62
     3
 10
378.84411939248741
 20
-55.17634797579467
 30
0.0
 11
365.66680251155572
 21
-55.17634797579467
 31
0.0
  0
LINE
  8
OUTLINE
  6
CONTINUOUS
 62
     3
 10
378.84411939248741
 20
-55.17634797579467
 30
0.0
 11
379.35311446514118
 21
-55.17634797579467
 31
0.0
  0
LINE
  8
OUTLINE
  6
CONTINUOUS
 62
     3
 10
379.35311446514118
 20
-55.17634797579467
 30
0.0
 11
379.97521955394058
 21
-55.51567802423051
 31
0.0
  0
LINE
  8
OUTLINE
  6
CONTINUOUS
 62
     3
 10
379.97521955394058
 20
-55.51567802423051
 30
0.0
 11
380.37110461044921
 21
-55.968118088811927
 31
0.0
  0
LINE
  8
OUTLINE
  6
CONTINUOUS
 62
     3
 10
380.37110461044921
 20
-55.968118088811927
 30
0.0
 11
380.37110461044921
 21
-56.307448137248002
 31
0.0
  0
LINE
  8
OUTLINE
  6
CONTINUOUS
 62
     3
 10
380.37110461044921
 20
-56.307448137248002
 30
0.0
 11
380.65387965081248
 21
-56.703333193756627
 31
0.0
  0
LINE
  8
OUTLINE
  6
CONTINUOUS
 62
     3
 10
297.02701285664602
 20
-47.315201853694127
 30
0.0
 11
365.66680251155572
 21
-55.17634797579467
 31
0.0
  0
LINE
  8
OUTLINE
  6
CONTINUOUS
 62
     3
 10
297.02701285664602
 20
-47.315201853694127
 30
0.0
 11
296.63112780013762
 21
-47.03242681333063
 31
0.0
  0
LINE
  8
OUTLINE
  6
CONTINUOUS
 62
     3
 10
296.63112780013762
 20
-47.03242681333063
 30
0.0
 11
295.78280267904762
 21
-46.69309676489479
 31
0.0
  0
LINE
  8
OUTLINE
  6
CONTINUOUS
 62
     3
 10
295.78280267904762
 20
-46.69309676489479
 30
0.0
 11
295.50002763868412
 21
-46.014436668022647
 31
0.0
  0
LINE
  8
OUTLINE
  6
CONTINUOUS
 62
     3
 10
365.66680251155572
 20
-296.89245247837277
 30
0.0
 11
297.02701285664602
 21
-304.86670861661861
 31
0.0
  0
LINE
  8
OUTLINE
  6
CONTINUOUS
 62
     3
 10
295.50002763868412
 20
-306.05436378614468
 30
0.0
 11
295.78280267904762
 21
-305.37570368927283
 31
0.0
  0
LINE
  8
OUTLINE
  6
CONTINUOUS
 62
     3
 10
295.78280267904762
 20
-305.37570368927283
 30
0.0
 11
296.63112780013762
 21
-305.09292864890932
 31
0.0
  0
LINE
  8
OUTLINE
  6
CONTINUOUS
 62
     3
 10
296.63112780013762
 20
-305.09292864890932
 30
0.0
 11
297.02701285664602
 21
-304.86670861661861
 31
0.0
  0
LINE
  8
OUTLINE
  6
CONTINUOUS
 62
     3
 10
117.6345272501471
 20
0.0
 30
0.0
 11
119.6139525326905
 21
0.3958850565088596
 31
0.0
  0
LINE
  8
OUTLINE
  6
CONTINUOUS
 62
     3
 10
119.6139525326905
 20
0.3958850565088596
 30
0.0
 11
121.3106027748704
 21
0.3958850565088596
 31
0.0
  0
LINE
  8
OUTLINE
  6
CONTINUOUS
 62
     3
 10
121.3106027748704
 20
0.3958850565088596
 30
0.0
 11
123.1203630331959
 21
0.0
 31
0.0
  0
LINE
  8
OUTLINE
  6
CONTINUOUS
 62
     3
 10
123.1203630331959
 20
0.0
 30
0.0
 11
124.5907932430853
 21
-0.9614351372354122
 31
0.0
  0
LINE
  8
OUTLINE
  6
CONTINUOUS
 62
     3
 10
124.5907932430853
 20
-351.10736531693192
 30
0.0
 11
123.1203630331959
 21
-352.06880045416727
 31
0.0
  0
LINE
  8
OUTLINE
  6
CONTINUOUS
 62
     3
 10
123.1203630331959
 20
-352.06880045416727
 30
0.0
 11
121.3106027748704
 21
-352.80401555911197
 31
0.0
  0
LINE
  8
OUTLINE
  6
CONTINUOUS
 62
     3
 10
121.3106027748704
 20
-352.80401555911197
 30
0.0
 11
119.6139525326905
 21
-352.80401555911197
 31
0.0
  0
LINE
  8
OUTLINE
  6
CONTINUOUS
 62
     3
 10
119.6139525326905
 20
-352.80401555911197
 30
0.0
 11
117.6345272501471
 21
-352.06880045416727
 31
0.0
  0
ENDSEC
  0
EOF
