  0
SECTION
  2
HEADER
  9
$ACADVER
  1
AC1009
  9
$DWGCODEPAGE
  3
dos932
  9
$INSBASE
 10
0.0
 20
0.0
 30
0.0
  9
$EXTMIN
 10
-985.67961
 20
-756.866444
 30
-0.001526
  9
$EXTMAX
 10
1091.72517
 20
498.596199
 30
50.001526
  9
$LIMMIN
 10
-2970.0
 20
-2100.0
  9
$LIMMAX
 10
2970.0
 20
2100.0
  9
$ORTHOMODE
 70
     1
  9
$REGENMODE
 70
     1
  9
$FILLMODE
 70
     1
  9
$QTEXTMODE
 70
     0
  9
$MIRRTEXT
 70
     0
  9
$DRAGMODE
 70
     2
  9
$LTSCALE
 40
20.0
  9
$OSMODE
 70
  3071
  9
$ATTMODE
 70
     1
  9
$TEXTSIZE
 40
64.0
  9
$TRACEWID
 40
0.05
  9
$TEXTSTYLE
  7
STANDARD
  9
$CLAYER
  8
FIX
  9
$CELTYPE
  6
CONTINUOUS
  9
$CECOLOR
 62
     7
  9
$DIMSCALE
 40
1.0
  9
$DIMASZ
 40
12.0
  9
$DIMEXO
 40
20.0
  9
$DIMDLI
 40
200.0
  9
$DIMRND
 40
0.0
  9
$DIMDLE
 40
0.0
  9
$DIMEXE
 40
20.0
  9
$DIMTP
 40
0.0
  9
$DIMTM
 40
0.0
  9
$DIMTXT
 40
64.0
  9
$DIMCEN
 40
0.09
  9
$DIMTSZ
 40
0.0
  9
$DIMTOL
 70
     0
  9
$DIMLIM
 70
     0
  9
$DIMTIH
 70
     0
  9
$DIMTOH
 70
     0
  9
$DIMSE1
 70
     0
  9
$DIMSE2
 70
     0
  9
$DIMTAD
 70
     1
  9
$DIMZIN
 70
     8
  9
$DIMBLK
  1
DOT1
  9
$DIMASO
 70
     1
  9
$DIMSHO
 70
     0
  9
$DIMPOST
  1

  9
$DIMAPOST
  1

  9
$DIMALT
 70
     0
  9
$DIMALTD
 70
     2
  9
$DIMALTF
 40
25.4
  9
$DIMLFAC
 40
1.0
  9
$DIMTOFL
 70
     1
  9
$DIMTVP
 40
0.0
  9
$DIMTIX
 70
     1
  9
$DIMSOXD
 70
     0
  9
$DIMSAH
 70
     1
  9
$DIMBLK1
  1
_ORIGIN
  9
$DIMBLK2
  1
_ORIGIN
  9
$DIMSTYLE
  2
STANDARD
  9
$DIMCLRD
 70
     7
  9
$DIMCLRE
 70
     7
  9
$DIMCLRT
 70
     7
  9
$DIMTFAC
 40
1.0
  9
$DIMGAP
 40
25.0
  9
$LUNITS
 70
     2
  9
$LUPREC
 70
     4
  9
$SKETCHINC
 40
0.1
  9
$FILLETRAD
 40
3.0
  9
$AUNITS
 70
     1
  9
$AUPREC
 70
     3
  9
$MENU
  1
ACAD
  9
$ELEVATION
 40
0.0
  9
$PELEVATION
 40
0.0
  9
$THICKNESS
 40
50.0
  9
$LIMCHECK
 70
     0
  9
$BLIPMODE
 70
     0
  9
$CHAMFERA
 40
0.0
  9
$CHAMFERB
 40
0.0
  9
$SKPOLY
 70
     0
  9
$TDCREATE
 40
2453019.62301037
  9
$TDUPDATE
 40
2454782.414013263
  9
$TDINDWG
 40
1.5699770023
  9
$TDUSRTIMER
 40
1.5699770023
  9
$USRTIMER
 70
     1
  9
$ANGBASE
 50
0.0
  9
$ANGDIR
 70
     0
  9
$PDMODE
 70
     3
  9
$PDSIZE
 40
-2.0
  9
$PLINEWID
 40
0.0
  9
$COORDS
 70
     2
  9
$SPLFRAME
 70
     0
  9
$SPLINETYPE
 70
     6
  9
$SPLINESEGS
 70
     8
  9
$ATTDIA
 70
     1
  9
$ATTREQ
 70
     1
  9
$HANDLING
 70
     0
  9
$HANDSEED
  5
E0D3
  9
$SURFTAB1
 70
     6
  9
$SURFTAB2
 70
     6
  9
$SURFTYPE
 70
     6
  9
$SURFU
 70
     6
  9
$SURFV
 70
     6
  9
$UCSNAME
  2

  9
$UCSORG
 10
0.0
 20
0.0
 30
0.0
  9
$UCSXDIR
 10
1.0
 20
0.0
 30
0.0
  9
$UCSYDIR
 10
0.0
 20
1.0
 30
0.0
  9
$PUCSNAME
  2

  9
$PUCSORG
 10
0.0
 20
0.0
 30
0.0
  9
$PUCSXDIR
 10
1.0
 20
0.0
 30
0.0
  9
$PUCSYDIR
 10
0.0
 20
1.0
 30
0.0
  9
$USERI1
 70
     0
  9
$USERI2
 70
     0
  9
$USERI3
 70
     0
  9
$USERI4
 70
     0
  9
$USERI5
 70
     0
  9
$USERR1
 40
20.0
  9
$USERR2
 40
0.0
  9
$USERR3
 40
0.0
  9
$USERR4
 40
0.0
  9
$USERR5
 40
0.0
  9
$WORLDVIEW
 70
     1
  9
$SHADEDGE
 70
     3
  9
$SHADEDIF
 70
    70
  9
$TILEMODE
 70
     1
  9
$MAXACTVP
 70
    48
  9
$PINSBASE
 10
0.0
 20
0.0
 30
0.0
  9
$PLIMCHECK
 70
     0
  9
$PEXTMIN
 10
-100000000000000000000.0
 20
-100000000000000000000.0
 30
-100000000000000000000.0
  9
$PEXTMAX
 10
100000000000000000000.0
 20
100000000000000000000.0
 30
100000000000000000000.0
  9
$PLIMMIN
 10
0.0
 20
0.0
  9
$PLIMMAX
 10
12.0
 20
9.0
  9
$UNITMODE
 70
     0
  9
$VISRETAIN
 70
     0
  9
$PLINEGEN
 70
     0
  9
$PSLTSCALE
 70
     0
  9
$TREEDEPTH
 70
  3020
  0
ENDSEC
  0
SECTION
  2
TABLES
  0
TABLE
  2
LTYPE
 70
     3
  0
LTYPE
  2
CONTINUOUS
 70
     0
  3
実線
 72
    65
 73
     0
 40
0.0
  0
LTYPE
  2
DASHDOT
 70
     0
  3
____ _ ____ _ ____ _ ____ _ ____ _ ____ _ ____
 72
    65
 73
     4
 40
5.5
 49
4.0
 49
-0.6
 49
0.3
 49
-0.6
  0
LTYPE
  2
DASHED
 70
     0
  3
-- -- -- -- -- -- -- -- -- -- -- -- -- -- --
 72
    65
 73
     2
 40
0.75
 49
0.5
 49
-0.25
  0
ENDTAB
  0
TABLE
  2
LAYER
 70
    12
  0
LAYER
  2
0
 70
     0
 62
     7
  6
CONTINUOUS
  0
LAYER
  2
BASIS
 70
     0
 62
     6
  6
DASHDOT
  0
LAYER
  2
OUTLINE
 70
     0
 62
     3
  6
CONTINUOUS
  0
LAYER
  2
DETAIL
 70
     0
 62
     5
  6
CONTINUOUS
  0
LAYER
  2
SIZE
 70
     0
 62
    30
  6
CONTINUOUS
  0
LAYER
  2
ARRANGE
 70
     0
 62
     1
  6
CONTINUOUS
  0
LAYER
  2
DEFPOINTS
 70
     0
 62
     7
  6
CONTINUOUS
  0
LAYER
  2
ETC
 70
     0
 62
    61
  6
CONTINUOUS
  0
LAYER
  2
FIX
 70
     0
 62
    11
  6
CONTINUOUS
  0
LAYER
  2
NOTE
 70
     0
 62
     4
  6
CONTINUOUS
  0
LAYER
  2
SERVICESPACE
 70
    64
 62
     2
  6
DASHDOT
  0
LAYER
  2
SYMBOLLINE
 70
    64
 62
    15
  6
CONTINUOUS
  0
ENDTAB
  0
TABLE
  2
STYLE
 70
     1
  0
STYLE
  2
STANDARD
 70
     0
 40
64.0
 41
0.9
 50
0.0
 71
     0
 42
64.0
  3
SIMPLEX.shx
  4
BIGFONT.shx
  0
ENDTAB
  0
TABLE
  2
APPID
 70
    15
  0
APPID
  2
ACAD
 70
     0
  0
APPID
  2
AUTOCAD_POSTSCRIPT_FIGURE
 70
     0
  0
APPID
  2
ACAD_EXEMPT_FROM_CAD_STANDARDS
 70
     0
  0
APPID
  2
ACAD_PSEXT
 70
     0
  0
APPID
  2
ACAUTHENVIRON
 70
     0
  0
APPID
  2
GENIUS_GENOENT_13
 70
     0
  0
APPID
  2
GENIUS_GENCFG_13
 70
     0
  0
APPID
  2
GENIUS_GENCFG0_13
 70
     0
  0
APPID
  2
GENIUS_GENCFG1_13
 70
     0
  0
APPID
  2
GENIUS_GENCFG2_13
 70
     0
  0
APPID
  2
GENIUS_GENCFG3_13
 70
     0
  0
APPID
  2
GENIUS_GENCFG4_13
 70
     0
  0
APPID
  2
GENIUS_GEVCFG0_13
 70
     0
  0
APPID
  2
CONTENTBLOCKICON
 70
     0
  0
APPID
  2
CONTENTBLOCKDESCRIPTION
 70
     0
  0
ENDTAB
  0
TABLE
  2
DIMSTYLE
 70
     1
  0
DIMSTYLE
  2
STANDARD
 70
     0
  3

  4

  5

  6

  7

 40
1.0
 41
0.18
 42
0.0625
 43
0.38
 44
0.18
 45
0.0
 46
0.0
 47
0.0
 48
0.0
140
0.18
141
0.09
142
0.0
143
25.4
144
1.0
145
0.0
146
1.0
147
0.09
 71
     0
 72
     0
 73
     1
 74
     1
 75
     0
 76
     0
 77
     0
 78
     0
170
     0
171
     2
172
     0
173
     0
174
     0
175
     0
176
     7
177
     7
178
     7
  0
ENDTAB
  0
TABLE
  2
VIEW
 70
     1
  0
VIEW
  2
ALL
 70
     0
 40
4282.619808
 10
0.0
 20
41.309904
 41
5940.0
 11
0.0
 21
0.0
 31
1.0
 12
0.0
 22
0.0
 32
0.0
 42
50.0
 43
0.0
 44
0.0
 50
0.0
 71
     0
  0
ENDTAB
  0
TABLE
  2
UCS
 70
     0
  0
ENDTAB
  0
TABLE
  2
VPORT
 70
     1
  0
VPORT
  2
*ACTIVE
 70
     0
 10
0.0
 20
0.0
 11
1.0
 21
1.0
 12
53.02278
 22
-129.135122
 13
0.0
 23
0.0
 14
1.0
 24
1.0
 15
0.0
 25
0.0
 16
0.0
 26
0.0
 36
1.0
 17
0.0
 27
0.0
 37
0.0
 40
1280.998325
 41
1.629679
 42
50.0
 43
0.0
 44
0.0
 50
0.0
 51
0.0
 71
     0
 72
  1000
 73
     1
 74
     0
 75
     0
 76
     0
 77
     0
 78
     0
  0
ENDTAB
  0
ENDSEC
  0
SECTION
  2
BLOCKS
  0
BLOCK
  8
0
  2
DOT1
 70
     0
 10
0.0
 20
0.0
 30
0.0
  3
DOT1
  1

  0
CIRCLE
  8
SIZE
  6
CONTINUOUS
 62
     7
 10
0.0
 20
0.0
 30
0.0
 40
3.0
  0
ENDBLK
  8
0
  0
BLOCK
  8
0
  2
_ORIGIN
 70
     0
 10
0.0
 20
0.0
 30
0.0
  3
_ORIGIN
  1

  0
CIRCLE
  8
0
  6
CONTINUOUS
 62
     7
 10
0.0
 20
0.0
 30
0.0
 40
0.5
  0
LINE
  8
0
  6
CONTINUOUS
 62
     7
 10
0.0
 20
0.0
 30
0.0
 11
-1.0
 21
0.0
 31
0.0
  0
ENDBLK
  8
0
  0
ENDSEC
  0
SECTION
  2
ENTITIES
  0
TEXT
  8
ETC
  6
CONTINUOUS
 62
    61
 10
675.134277
 20
216.80587
 30
0.0
 40
40.0
  1
BFS-150SHU2_5
 41
0.9
  0
TEXT
  8
ETC
  6
CONTINUOUS
 62
    61
 10
670.948283
 20
156.109591
 30
0.0
 40
40.0
  1
産業扇
 41
0.9
  0
TEXT
  8
ETC
  6
CONTINUOUS
 62
    61
 10
721.555785
 20
74.23948
 30
0.0
 40
40.0
  1
BFS-150SHU2
 41
0.9
  0
TEXT
  8
ETC
  6
CONTINUOUS
 62
    61
 10
721.555785
 20
7.369049
 30
0.0
 40
40.0
  1
BFS-150THU2
 41
0.9
  0
CIRCLE
  8
ARRANGE
  6
CONTINUOUS
 62
     1
 10
0.0
 20
0.0
 30
0.0
 40
40.0
  0
LINE
  8
BASIS
  6
DASHDOT
 62
     6
 10
602.713513
 20
-176.0
 30
0.0
 11
-651.515751
 21
-176.0
 31
0.0
  0
LINE
  8
BASIS
  6
DASHDOT
 62
     6
 10
0.0
 20
51.917352
 30
0.0
 11
0.0
 21
-368.162571
 31
0.0
  0
POINT
  8
ARRANGE
  6
CONTINUOUS
 62
     1
 10
0.0
 20
0.0
 30
0.0
 39
50.0
  0
LINE
  8
DETAIL
  6
CONTINUOUS
 62
     5
 10
162.6
 20
0.0
 30
0.0
 11
518.9
 21
0.0
 31
0.0
  0
LINE
  8
DETAIL
  6
CONTINUOUS
 62
     5
 10
162.6
 20
-350.0
 30
0.0
 11
518.9
 21
-350.0
 31
0.0
  0
LINE
  8
DETAIL
  6
CONTINUOUS
 62
     5
 10
-602.9
 20
-284.0
 30
0.0
 11
-590.5
 21
-284.0
 31
0.0
  0
LINE
  8
DETAIL
  6
CONTINUOUS
 62
     5
 10
-602.9
 20
-42.0
 30
0.0
 11
-590.5
 21
-42.0
 31
0.0
  0
LINE
  8
DETAIL
  6
CONTINUOUS
 62
     5
 10
-605.5
 20
-44.6
 30
0.0
 11
-605.5
 21
-163.0
 31
0.0
  0
LINE
  8
DETAIL
  6
CONTINUOUS
 62
     5
 10
-605.5
 20
-281.4
 30
0.0
 11
-605.5
 21
-163.0
 31
0.0
  0
ARC
  8
DETAIL
  6
CONTINUOUS
 62
     5
 10
-602.9
 20
-281.4
 30
0.0
 40
2.6
 50
180.0
 51
270.0
  0
ARC
  8
DETAIL
  6
CONTINUOUS
 62
     5
 10
-602.9
 20
-44.6
 30
0.0
 40
2.6
 50
90.0
 51
180.0
  0
LINE
  8
DETAIL
  6
CONTINUOUS
 62
     5
 10
-590.5
 20
-284.0
 30
0.0
 11
-522.3
 21
-292.0
 31
0.0
  0
LINE
  8
DETAIL
  6
DASHED
 62
     5
 10
-208.7
 20
-348.2
 30
0.0
 11
-208.7
 21
-1.8
 31
0.0
  0
LINE
  8
DETAIL
  6
CONTINUOUS
 62
     5
 10
-207.9
 20
-348.2
 30
0.0
 11
-207.9
 21
-1.8
 31
0.0
  0
LINE
  8
DETAIL
  6
CONTINUOUS
 62
     5
 10
-209.5
 20
-348.2
 30
0.0
 11
-209.5
 21
-1.8
 31
0.0
  0
LINE
  8
DETAIL
  6
CONTINUOUS
 62
     5
 10
179.5
 20
-343.2
 30
0.0
 11
179.5
 21
-177.96332
 31
0.0
  0
LINE
  8
DETAIL
  6
CONTINUOUS
 62
     5
 10
-520.5
 20
-167.86794
 30
0.0
 11
-520.5
 21
-348.4
 31
0.0
  0
LINE
  8
DETAIL
  6
CONTINUOUS
 62
     5
 10
159.5
 20
-350.2
 30
0.0
 11
-166.5
 21
-350.2
 31
0.0
  0
LINE
  8
DETAIL
  6
CONTINUOUS
 62
     5
 10
-169.4
 20
-350.0
 30
0.0
 11
-518.9
 21
-350.0
 31
0.0
  0
ARC
  8
DETAIL
  6
CONTINUOUS
 62
     5
 10
-504.3
 20
-346.4
 30
0.0
 40
6.1
 50
219.601983
 51
320.398035
  0
LINE
  8
DETAIL
  6
CONTINUOUS
 62
     5
 10
-499.6
 20
-350.0
 30
0.0
 11
-509.0
 21
-350.0
 31
0.0
  0
LINE
  8
DETAIL
  6
CONTINUOUS
 62
     5
 10
-509.0
 20
-350.288445
 30
0.0
 11
-499.6
 21
-350.288445
 31
0.0
  0
LINE
  8
DETAIL
  6
CONTINUOUS
 62
     5
 10
-509.0
 20
-350.0
 30
0.0
 11
-509.0
 21
-350.288445
 31
0.0
  0
LINE
  8
DETAIL
  6
CONTINUOUS
 62
     5
 10
-509.0
 20
-350.0
 30
0.0
 11
-515.4
 21
-350.0
 31
0.0
  0
LINE
  8
DETAIL
  6
CONTINUOUS
 62
     5
 10
-515.4
 20
-350.0
 30
0.0
 11
-515.4
 21
-350.28844
 31
0.0
  0
LINE
  8
DETAIL
  6
CONTINUOUS
 62
     5
 10
-515.4
 20
-350.28844
 30
0.0
 11
-509.0
 21
-350.28844
 31
0.0
  0
ARC
  8
DETAIL
  6
CONTINUOUS
 62
     5
 10
-510.7
 20
-346.4
 30
0.0
 40
6.1
 50
219.601983
 51
301.61856
  0
LINE
  8
DETAIL
  6
CONTINUOUS
 62
     5
 10
-520.5
 20
-348.4
 30
0.0
 11
-518.9
 21
-348.4
 31
0.0
  0
LINE
  8
DETAIL
  6
CONTINUOUS
 62
     5
 10
-518.9
 20
-348.4
 30
0.0
 11
-518.9
 21
-350.0
 31
0.0
  0
ARC
  8
DETAIL
  6
CONTINUOUS
 62
     5
 10
-518.5
 20
-348.8
 30
0.0
 40
1.2
 50
180.0
 51
250.528779
  0
LINE
  8
DETAIL
  6
CONTINUOUS
 62
     5
 10
-518.9
 20
-348.8
 30
0.0
 11
-519.7
 21
-348.8
 31
0.0
  0
ARC
  8
DETAIL
  6
DASHED
 62
     5
 10
-518.5
 20
-348.8
 30
0.0
 40
1.2
 50
250.528779
 51
270.0
  0
LINE
  8
DETAIL
  6
CONTINUOUS
 62
     5
 10
-519.7
 20
-348.8
 30
0.0
 11
-519.7
 21
-348.4
 31
0.0
  0
ARC
  8
DETAIL
  6
CONTINUOUS
 62
     5
 10
-518.799118
 20
-325.0
 30
0.0
 40
4.200882
 50
118.265038
 51
241.734985
  0
LINE
  8
DETAIL
  6
CONTINUOUS
 62
     5
 10
-520.5
 20
-328.7
 30
0.0
 11
-520.5
 21
-321.3
 31
0.0
  0
LINE
  8
DETAIL
  6
CONTINUOUS
 62
     5
 10
-520.5
 20
-321.3
 30
0.0
 11
-520.788445
 21
-321.3
 31
0.0
  0
LINE
  8
DETAIL
  6
CONTINUOUS
 62
     5
 10
-520.5
 20
-328.7
 30
0.0
 11
-520.788445
 21
-328.7
 31
0.0
  0
LINE
  8
DETAIL
  6
CONTINUOUS
 62
     5
 10
-520.788445
 20
-321.3
 30
0.0
 11
-520.788445
 21
-328.7
 31
0.0
  0
LINE
  8
DETAIL
  6
CONTINUOUS
 62
     5
 10
-520.3
 20
-305.5
 30
0.0
 11
-519.7
 21
-305.5
 31
0.0
  0
ARC
  8
DETAIL
  6
CONTINUOUS
 62
     5
 10
-522.3
 20
-294.0
 30
0.0
 40
2.0
 50
25.841933
 51
90.0
  0
ARC
  8
DETAIL
  6
CONTINUOUS
 62
     5
 10
-490.2
 20
-346.4
 30
0.0
 40
6.1
 50
219.601983
 51
320.398035
  0
LINE
  8
DETAIL
  6
CONTINUOUS
 62
     5
 10
-485.5
 20
-350.0
 30
0.0
 11
-494.9
 21
-350.0
 31
0.0
  0
LINE
  8
DETAIL
  6
CONTINUOUS
 62
     5
 10
-494.9
 20
-350.0
 30
0.0
 11
-494.9
 21
-350.288445
 31
0.0
  0
LINE
  8
DETAIL
  6
CONTINUOUS
 62
     5
 10
-485.5
 20
-350.0
 30
0.0
 11
-485.5
 21
-350.288445
 31
0.0
  0
LINE
  8
DETAIL
  6
CONTINUOUS
 62
     5
 10
-494.9
 20
-350.288445
 30
0.0
 11
-485.5
 21
-350.288445
 31
0.0
  0
LINE
  8
DETAIL
  6
CONTINUOUS
 62
     5
 10
-499.6
 20
-350.0
 30
0.0
 11
-499.6
 21
-350.288445
 31
0.0
  0
LINE
  8
DETAIL
  6
CONTINUOUS
 62
     5
 10
-374.7
 20
-350.3
 30
0.0
 11
-371.6
 21
-350.3
 31
0.0
  0
LINE
  8
DETAIL
  6
CONTINUOUS
 62
     5
 10
-361.5
 20
-350.3
 30
0.0
 11
-364.6
 21
-350.3
 31
0.0
  0
LINE
  8
DETAIL
  6
CONTINUOUS
 62
     5
 10
-361.5
 20
-350.0
 30
0.0
 11
-361.5
 21
-350.3
 31
0.0
  0
LINE
  8
DETAIL
  6
CONTINUOUS
 62
     5
 10
-364.6
 20
-350.0
 30
0.0
 11
-364.6
 21
-350.3
 31
0.0
  0
LINE
  8
DETAIL
  6
CONTINUOUS
 62
     5
 10
-371.6
 20
-350.0
 30
0.0
 11
-371.6
 21
-350.3
 31
0.0
  0
LINE
  8
DETAIL
  6
CONTINUOUS
 62
     5
 10
-374.7
 20
-350.0
 30
0.0
 11
-374.7
 21
-350.3
 31
0.0
  0
LINE
  8
DETAIL
  6
CONTINUOUS
 62
     5
 10
-324.7
 20
-350.3
 30
0.0
 11
-321.6
 21
-350.3
 31
0.0
  0
LINE
  8
DETAIL
  6
CONTINUOUS
 62
     5
 10
-311.5
 20
-350.3
 30
0.0
 11
-314.6
 21
-350.3
 31
0.0
  0
LINE
  8
DETAIL
  6
CONTINUOUS
 62
     5
 10
-314.6
 20
-350.0
 30
0.0
 11
-314.6
 21
-350.3
 31
0.0
  0
LINE
  8
DETAIL
  6
CONTINUOUS
 62
     5
 10
-321.6
 20
-350.0
 30
0.0
 11
-321.6
 21
-350.3
 31
0.0
  0
LINE
  8
DETAIL
  6
CONTINUOUS
 62
     5
 10
-324.7
 20
-350.0
 30
0.0
 11
-324.7
 21
-350.3
 31
0.0
  0
LINE
  8
DETAIL
  6
CONTINUOUS
 62
     5
 10
-311.5
 20
-350.0
 30
0.0
 11
-311.5
 21
-350.3
 31
0.0
  0
ARC
  8
DETAIL
  6
CONTINUOUS
 62
     5
 10
-294.3
 20
-346.4
 30
0.0
 40
6.1
 50
219.601983
 51
320.398035
  0
LINE
  8
DETAIL
  6
CONTINUOUS
 62
     5
 10
-289.6
 20
-350.0
 30
0.0
 11
-299.0
 21
-350.0
 31
0.0
  0
LINE
  8
DETAIL
  6
CONTINUOUS
 62
     5
 10
-299.0
 20
-350.0
 30
0.0
 11
-299.0
 21
-350.288445
 31
0.0
  0
LINE
  8
DETAIL
  6
CONTINUOUS
 62
     5
 10
-289.6
 20
-350.0
 30
0.0
 11
-289.6
 21
-350.288445
 31
0.0
  0
LINE
  8
DETAIL
  6
CONTINUOUS
 62
     5
 10
-299.0
 20
-350.288445
 30
0.0
 11
-289.6
 21
-350.288445
 31
0.0
  0
ARC
  8
DETAIL
  6
CONTINUOUS
 62
     5
 10
-224.9
 20
-346.4
 30
0.0
 40
6.1
 50
219.601983
 51
320.398035
  0
LINE
  8
DETAIL
  6
CONTINUOUS
 62
     5
 10
-220.2
 20
-350.0
 30
0.0
 11
-229.6
 21
-350.0
 31
0.0
  0
LINE
  8
DETAIL
  6
CONTINUOUS
 62
     5
 10
-229.6
 20
-350.0
 30
0.0
 11
-229.6
 21
-350.288445
 31
0.0
  0
LINE
  8
DETAIL
  6
CONTINUOUS
 62
     5
 10
-220.2
 20
-350.0
 30
0.0
 11
-220.2
 21
-350.288445
 31
0.0
  0
LINE
  8
DETAIL
  6
CONTINUOUS
 62
     5
 10
-229.6
 20
-350.288445
 30
0.0
 11
-220.2
 21
-350.288445
 31
0.0
  0
ARC
  8
DETAIL
  6
CONTINUOUS
 62
     5
 10
-166.8
 20
-345.6
 30
0.0
 40
6.1
 50
226.162866
 51
311.05335
  0
LINE
  8
DETAIL
  6
CONTINUOUS
 62
     5
 10
-166.5
 20
-348.2
 30
0.0
 11
-209.5
 21
-348.2
 31
0.0
  0
LINE
  8
DETAIL
  6
CONTINUOUS
 62
     5
 10
-166.5
 20
-348.4
 30
0.0
 11
-169.4
 21
-348.4
 31
0.0
  0
ARC
  8
DETAIL
  6
CONTINUOUS
 62
     5
 10
-184.0
 20
-346.4
 30
0.0
 40
6.1
 50
219.601983
 51
320.398035
  0
LINE
  8
DETAIL
  6
CONTINUOUS
 62
     5
 10
-179.3
 20
-350.0
 30
0.0
 11
-188.7
 21
-350.0
 31
0.0
  0
LINE
  8
DETAIL
  6
CONTINUOUS
 62
     5
 10
-188.7
 20
-350.0
 30
0.0
 11
-188.7
 21
-350.288445
 31
0.0
  0
LINE
  8
DETAIL
  6
CONTINUOUS
 62
     5
 10
-179.3
 20
-350.0
 30
0.0
 11
-179.3
 21
-350.288445
 31
0.0
  0
LINE
  8
DETAIL
  6
CONTINUOUS
 62
     5
 10
-188.7
 20
-350.288445
 30
0.0
 11
-179.3
 21
-350.288445
 31
0.0
  0
LINE
  8
DETAIL
  6
CONTINUOUS
 62
     5
 10
-169.4
 20
-348.2
 30
0.0
 11
-169.4
 21
-350.0
 31
0.0
  0
LINE
  8
DETAIL
  6
CONTINUOUS
 62
     5
 10
-166.5
 20
-348.2
 30
0.0
 11
-166.5
 21
-350.2
 31
0.0
  0
LINE
  8
DETAIL
  6
CONTINUOUS
 62
     5
 10
-201.084921
 20
-332.515074
 30
0.0
 11
-198.115079
 21
-335.484926
 31
0.0
  0
LINE
  8
DETAIL
  6
CONTINUOUS
 62
     5
 10
-198.115074
 20
-332.515079
 30
0.0
 11
-201.084926
 21
-335.484921
 31
0.0
  0
CIRCLE
  8
DETAIL
  6
CONTINUOUS
 62
     5
 10
-199.6
 20
-334.0
 30
0.0
 40
4.7
  0
ARC
  8
DETAIL
  6
CONTINUOUS
 62
     5
 10
-86.0
 20
-345.6
 30
0.0
 40
6.1
 50
228.94665
 51
311.05335
  0
LINE
  8
DETAIL
  6
CONTINUOUS
 62
     5
 10
-64.6
 20
-350.28844
 30
0.0
 11
-55.2
 21
-350.28844
 31
0.0
  0
LINE
  8
DETAIL
  6
CONTINUOUS
 62
     5
 10
-55.2
 20
-350.2
 30
0.0
 11
-55.2
 21
-350.28844
 31
0.0
  0
LINE
  8
DETAIL
  6
CONTINUOUS
 62
     5
 10
-64.6
 20
-350.2
 30
0.0
 11
-64.6
 21
-350.28844
 31
0.0
  0
ARC
  8
DETAIL
  6
CONTINUOUS
 62
     5
 10
-59.9
 20
-346.4
 30
0.0
 40
6.1
 50
219.601983
 51
320.398035
  0
ARC
  8
DETAIL
  6
CONTINUOUS
 62
     5
 10
79.2
 20
-345.6
 30
0.0
 40
6.1
 50
228.94665
 51
311.05335
  0
LINE
  8
DETAIL
  6
CONTINUOUS
 62
     5
 10
100.6
 20
-350.28844
 30
0.0
 11
110.0
 21
-350.28844
 31
0.0
  0
LINE
  8
DETAIL
  6
CONTINUOUS
 62
     5
 10
110.0
 20
-350.2
 30
0.0
 11
110.0
 21
-350.28844
 31
0.0
  0
LINE
  8
DETAIL
  6
CONTINUOUS
 62
     5
 10
100.6
 20
-350.2
 30
0.0
 11
100.6
 21
-350.28844
 31
0.0
  0
ARC
  8
DETAIL
  6
CONTINUOUS
 62
     5
 10
105.3
 20
-346.4
 30
0.0
 40
6.1
 50
219.601983
 51
320.398035
  0
ARC
  8
DETAIL
  6
CONTINUOUS
 62
     5
 10
174.5
 20
-343.2
 30
0.0
 40
5.0
 50
270.0
 51
0.0
  0
ARC
  8
DETAIL
  6
CONTINUOUS
 62
     5
 10
178.5
 20
-346.4
 30
0.0
 40
6.1
 50
219.601983
 51
320.398035
  0
LINE
  8
DETAIL
  6
CONTINUOUS
 62
     5
 10
183.2
 20
-350.0
 30
0.0
 11
173.8
 21
-350.0
 31
0.0
  0
LINE
  8
DETAIL
  6
CONTINUOUS
 62
     5
 10
173.8
 20
-350.288445
 30
0.0
 11
183.2
 21
-350.288445
 31
0.0
  0
LINE
  8
DETAIL
  6
CONTINUOUS
 62
     5
 10
173.8
 20
-350.0
 30
0.0
 11
173.8
 21
-350.288445
 31
0.0
  0
LINE
  8
DETAIL
  6
CONTINUOUS
 62
     5
 10
174.5
 20
-348.2
 30
0.0
 11
159.5
 21
-348.2
 31
0.0
  0
LINE
  8
DETAIL
  6
CONTINUOUS
 62
     5
 10
159.5
 20
-350.2
 30
0.0
 11
159.5
 21
-348.2
 31
0.0
  0
LINE
  8
DETAIL
  6
CONTINUOUS
 62
     5
 10
162.6
 20
-348.2
 30
0.0
 11
162.6
 21
-350.0
 31
0.0
  0
LINE
  8
DETAIL
  6
CONTINUOUS
 62
     5
 10
162.6
 20
-350.0
 30
0.0
 11
159.5
 21
-350.0
 31
0.0
  0
LINE
  8
DETAIL
  6
CONTINUOUS
 62
     5
 10
162.6
 20
-349.2
 30
0.0
 11
159.5
 21
-349.2
 31
0.0
  0
LINE
  8
DETAIL
  6
CONTINUOUS
 62
     5
 10
183.2
 20
-350.0
 30
0.0
 11
183.2
 21
-350.288445
 31
0.0
  0
ARC
  8
DETAIL
  6
CONTINUOUS
 62
     5
 10
223.4
 20
-345.6
 30
0.0
 40
6.1
 50
226.162866
 51
313.837134
  0
ARC
  8
DETAIL
  6
CONTINUOUS
 62
     5
 10
241.2
 20
-345.6
 30
0.0
 40
6.1
 50
226.162866
 51
313.837134
  0
CIRCLE
  8
DETAIL
  6
CONTINUOUS
 62
     5
 10
169.1
 20
-334.0
 30
0.0
 40
4.7
  0
LINE
  8
DETAIL
  6
CONTINUOUS
 62
     5
 10
170.58493
 20
-332.51507
 30
0.0
 11
167.61507
 21
-335.48492
 31
0.0
  0
LINE
  8
DETAIL
  6
CONTINUOUS
 62
     5
 10
167.61508
 20
-332.51507
 30
0.0
 11
170.58492
 21
-335.48492
 31
0.0
  0
LINE
  8
DETAIL
  6
CONTINUOUS
 62
     5
 10
159.5
 20
0.2
 30
0.0
 11
-166.5
 21
0.2
 31
0.0
  0
LINE
  8
DETAIL
  6
CONTINUOUS
 62
     5
 10
-590.5
 20
-42.0
 30
0.0
 11
-522.3
 21
-34.0
 31
0.0
  0
LINE
  8
DETAIL
  6
CONTINUOUS
 62
     5
 10
-520.5
 20
-1.6
 30
0.0
 11
-520.5
 21
-165.72701
 31
0.0
  0
LINE
  8
DETAIL
  6
CONTINUOUS
 62
     5
 10
-590.5
 20
-42.0
 30
0.0
 11
-590.5
 21
-163.0
 31
0.0
  0
LINE
  8
DETAIL
  6
CONTINUOUS
 62
     5
 10
-486.8
 20
-167.6
 30
0.0
 11
-518.0
 21
-167.6
 31
0.0
  0
LINE
  8
DETAIL
  6
CONTINUOUS
 62
     5
 10
-486.9
 20
-165.6
 30
0.0
 11
-519.9
 21
-165.6
 31
0.0
  0
LINE
  8
DETAIL
  6
CONTINUOUS
 62
     5
 10
-488.8
 20
-183.0
 30
0.0
 11
-516.0
 21
-183.0
 31
0.0
  0
LINE
  8
DETAIL
  6
CONTINUOUS
 62
     5
 10
-590.5
 20
-284.0
 30
0.0
 11
-590.5
 21
-163.0
 31
0.0
  0
LINE
  8
DETAIL
  6
CONTINUOUS
 62
     5
 10
-523.5
 20
-169.6
 30
0.0
 11
-523.5
 21
-214.6
 31
0.0
  0
LINE
  8
DETAIL
  6
CONTINUOUS
 62
     5
 10
-525.5
 20
-190.1
 30
0.0
 11
-525.5
 21
-196.1
 31
0.0
  0
LINE
  8
DETAIL
  6
CONTINUOUS
 62
     5
 10
-521.5
 20
-169.6
 30
0.0
 11
-521.5
 21
-199.2
 31
0.0
  0
ARC
  8
DETAIL
  6
CONTINUOUS
 62
     5
 10
-518.9
 20
-207.6
 30
0.0
 40
6.1
 50
138.94665
 51
221.05335
  0
LINE
  8
DETAIL
  6
CONTINUOUS
 62
     5
 10
-522.5
 20
-201.2
 30
0.0
 11
-522.5
 21
-214.6
 31
0.0
  0
ARC
  8
DETAIL
  6
CONTINUOUS
 62
     5
 10
-522.5
 20
-200.2
 30
0.0
 40
1.0
 50
180.0
 51
270.0
  0
ARC
  8
DETAIL
  6
CONTINUOUS
 62
     5
 10
-523.5
 20
-196.1
 30
0.0
 40
2.0
 50
180.0
 51
270.0
  0
LINE
  8
DETAIL
  6
CONTINUOUS
 62
     5
 10
-520.5
 20
-214.6
 30
0.0
 11
-523.5
 21
-214.6
 31
0.0
  0
ARC
  8
DETAIL
  6
CONTINUOUS
 62
     5
 10
-521.5
 20
-200.2
 30
0.0
 40
1.0
 50
0.0
 51
90.0
  0
LINE
  8
DETAIL
  6
CONTINUOUS
 62
     5
 10
-520.5
 20
-200.2
 30
0.0
 11
-520.5
 21
-214.6
 31
0.0
  0
LINE
  8
DETAIL
  6
CONTINUOUS
 62
     5
 10
-512.384921
 20
-174.515074
 30
0.0
 11
-509.415079
 21
-177.484926
 31
0.0
  0
LINE
  8
DETAIL
  6
CONTINUOUS
 62
     5
 10
-509.415074
 20
-174.515079
 30
0.0
 11
-512.384926
 21
-177.484921
 31
0.0
  0
CIRCLE
  8
DETAIL
  6
CONTINUOUS
 62
     5
 10
-510.9
 20
-176.0
 30
0.0
 40
4.7
  0
ARC
  8
DETAIL
  6
CONTINUOUS
 62
     5
 10
-523.5
 20
-190.1
 30
0.0
 40
2.0
 50
90.0
 51
180.0
  0
ARC
  8
DETAIL
  6
CONTINUOUS
 62
     5
 10
-519.5
 20
-169.6
 30
0.0
 40
4.0
 50
90.0
 51
180.0
  0
LINE
  8
DETAIL
  6
CONTINUOUS
 62
     5
 10
-518.0
 20
-167.6
 30
0.0
 11
-519.5
 21
-167.6
 31
0.0
  0
LINE
  8
DETAIL
  6
CONTINUOUS
 62
     5
 10
-518.0
 20
-167.6
 30
0.0
 11
-518.0
 21
-181.0
 31
0.0
  0
ARC
  8
DETAIL
  6
CONTINUOUS
 62
     5
 10
-519.5
 20
-169.6
 30
0.0
 40
2.0
 50
90.0
 51
180.0
  0
ARC
  8
DETAIL
  6
CONTINUOUS
 62
     5
 10
-516.0
 20
-181.0
 30
0.0
 40
2.0
 50
180.0
 51
270.0
  0
LINE
  8
DETAIL
  6
CONTINUOUS
 62
     5
 10
-494.384921
 20
-174.515074
 30
0.0
 11
-491.415079
 21
-177.484926
 31
0.0
  0
LINE
  8
DETAIL
  6
CONTINUOUS
 62
     5
 10
-491.415074
 20
-174.515079
 30
0.0
 11
-494.384926
 21
-177.484921
 31
0.0
  0
CIRCLE
  8
DETAIL
  6
CONTINUOUS
 62
     5
 10
-492.9
 20
-176.0
 30
0.0
 40
4.7
  0
ARC
  8
DETAIL
  6
CONTINUOUS
 62
     5
 10
-486.5
 20
-169.6
 30
0.0
 40
4.0
 50
0.0
 51
90.0
  0
ARC
  8
DETAIL
  6
CONTINUOUS
 62
     5
 10
-486.5
 20
-169.6
 30
0.0
 40
2.0
 50
0.0
 51
90.0
  0
LINE
  8
DETAIL
  6
CONTINUOUS
 62
     5
 10
-484.5
 20
-169.6
 30
0.0
 11
-484.5
 21
-172.6
 31
0.0
  0
LINE
  8
DETAIL
  6
CONTINUOUS
 62
     5
 10
-482.5
 20
-169.6
 30
0.0
 11
-482.5
 21
-172.6
 31
0.0
  0
LINE
  8
DETAIL
  6
CONTINUOUS
 62
     5
 10
-482.5
 20
-172.6
 30
0.0
 11
-484.5
 21
-172.6
 31
0.0
  0
LINE
  8
DETAIL
  6
CONTINUOUS
 62
     5
 10
-486.8
 20
-167.6
 30
0.0
 11
-486.8
 21
-181.0
 31
0.0
  0
LINE
  8
DETAIL
  6
CONTINUOUS
 62
     5
 10
-486.5
 20
-167.6
 30
0.0
 11
-486.8
 21
-167.6
 31
0.0
  0
ARC
  8
DETAIL
  6
CONTINUOUS
 62
     5
 10
-488.8
 20
-181.0
 30
0.0
 40
2.0
 50
270.0
 51
0.0
  0
ARC
  8
DETAIL
  6
CONTINUOUS
 62
     5
 10
-516.9
 20
-145.99996
 30
0.0
 40
6.1
 50
129.601983
 51
230.398035
  0
LINE
  8
DETAIL
  6
CONTINUOUS
 62
     5
 10
-520.5
 20
-150.69996
 30
0.0
 11
-520.5
 21
-141.29996
 31
0.0
  0
LINE
  8
DETAIL
  6
CONTINUOUS
 62
     5
 10
-520.5
 20
-141.29996
 30
0.0
 11
-520.788445
 21
-141.29996
 31
0.0
  0
LINE
  8
DETAIL
  6
CONTINUOUS
 62
     5
 10
-520.5
 20
-150.69996
 30
0.0
 11
-520.788445
 21
-150.69996
 31
0.0
  0
LINE
  8
DETAIL
  6
CONTINUOUS
 62
     5
 10
-520.788445
 20
-141.29996
 30
0.0
 11
-520.788445
 21
-150.69996
 31
0.0
  0
LINE
  8
DETAIL
  6
CONTINUOUS
 62
     5
 10
-173.9
 20
-195.2
 30
0.0
 11
-173.9
 21
-194.2
 31
0.0
  0
LINE
  8
DETAIL
  6
CONTINUOUS
 62
     5
 10
-201.084921
 20
-174.515074
 30
0.0
 11
-198.115079
 21
-177.484926
 31
0.0
  0
LINE
  8
DETAIL
  6
CONTINUOUS
 62
     5
 10
-198.115074
 20
-174.515079
 30
0.0
 11
-201.084926
 21
-177.484921
 31
0.0
  0
CIRCLE
  8
DETAIL
  6
CONTINUOUS
 62
     5
 10
-199.6
 20
-176.0
 30
0.0
 40
4.7
  0
LINE
  8
DETAIL
  6
CONTINUOUS
 62
     5
 10
-169.4
 20
0.0
 30
0.0
 11
-518.9
 21
0.0
 31
0.0
  0
ARC
  8
DETAIL
  6
CONTINUOUS
 62
     5
 10
-504.3
 20
-3.6
 30
0.0
 40
6.1
 50
39.601965
 51
140.398017
  0
LINE
  8
DETAIL
  6
CONTINUOUS
 62
     5
 10
-499.6
 20
0.0
 30
0.0
 11
-509.0
 21
0.0
 31
0.0
  0
LINE
  8
DETAIL
  6
CONTINUOUS
 62
     5
 10
-509.0
 20
0.288445
 30
0.0
 11
-499.6
 21
0.288445
 31
0.0
  0
ARC
  8
DETAIL
  6
CONTINUOUS
 62
     5
 10
-516.9
 20
-26.0
 30
0.0
 40
6.1
 50
129.601983
 51
230.398035
  0
LINE
  8
DETAIL
  6
CONTINUOUS
 62
     5
 10
-520.5
 20
-30.7
 30
0.0
 11
-520.5
 21
-21.3
 31
0.0
  0
LINE
  8
DETAIL
  6
CONTINUOUS
 62
     5
 10
-520.5
 20
-21.3
 30
0.0
 11
-520.788445
 21
-21.3
 31
0.0
  0
LINE
  8
DETAIL
  6
CONTINUOUS
 62
     5
 10
-520.5
 20
-30.7
 30
0.0
 11
-520.788445
 21
-30.7
 31
0.0
  0
LINE
  8
DETAIL
  6
CONTINUOUS
 62
     5
 10
-520.788445
 20
-21.3
 30
0.0
 11
-520.788445
 21
-30.7
 31
0.0
  0
LINE
  8
DETAIL
  6
CONTINUOUS
 62
     5
 10
-520.3
 20
-20.5
 30
0.0
 11
-519.7
 21
-20.5
 31
0.0
  0
ARC
  8
DETAIL
  6
CONTINUOUS
 62
     5
 10
-522.3
 20
-32.0
 30
0.0
 40
2.0
 50
270.0
 51
334.158067
  0
LINE
  8
DETAIL
  6
CONTINUOUS
 62
     5
 10
-509.0
 20
0.0
 30
0.0
 11
-509.0
 21
0.288445
 31
0.0
  0
LINE
  8
DETAIL
  6
CONTINUOUS
 62
     5
 10
-520.5
 20
-1.6
 30
0.0
 11
-518.9
 21
-1.6
 31
0.0
  0
LINE
  8
DETAIL
  6
CONTINUOUS
 62
     5
 10
-518.9
 20
0.0
 30
0.0
 11
-518.9
 21
-1.6
 31
0.0
  0
ARC
  8
DETAIL
  6
CONTINUOUS
 62
     5
 10
-518.5
 20
-2.0
 30
0.0
 40
1.2
 50
109.471221
 51
160.528779
  0
ARC
  8
DETAIL
  6
CONTINUOUS
 62
     5
 10
-490.2
 20
-3.6
 30
0.0
 40
6.1
 50
39.601965
 51
140.398017
  0
LINE
  8
DETAIL
  6
CONTINUOUS
 62
     5
 10
-485.5
 20
0.0
 30
0.0
 11
-494.9
 21
0.0
 31
0.0
  0
LINE
  8
DETAIL
  6
CONTINUOUS
 62
     5
 10
-494.9
 20
0.0
 30
0.0
 11
-494.9
 21
0.288445
 31
0.0
  0
LINE
  8
DETAIL
  6
CONTINUOUS
 62
     5
 10
-485.5
 20
0.0
 30
0.0
 11
-485.5
 21
0.288445
 31
0.0
  0
LINE
  8
DETAIL
  6
CONTINUOUS
 62
     5
 10
-494.9
 20
0.288445
 30
0.0
 11
-485.5
 21
0.288445
 31
0.0
  0
LINE
  8
DETAIL
  6
CONTINUOUS
 62
     5
 10
-499.6
 20
0.0
 30
0.0
 11
-499.6
 21
0.288445
 31
0.0
  0
LINE
  8
DETAIL
  6
CONTINUOUS
 62
     5
 10
-316.2
 20
0.0
 30
0.0
 11
-316.2
 21
0.3
 31
0.0
  0
LINE
  8
DETAIL
  6
CONTINUOUS
 62
     5
 10
-326.3
 20
0.3
 30
0.0
 11
-323.2
 21
0.3
 31
0.0
  0
LINE
  8
DETAIL
  6
CONTINUOUS
 62
     5
 10
-313.1
 20
0.3
 30
0.0
 11
-316.2
 21
0.3
 31
0.0
  0
LINE
  8
DETAIL
  6
CONTINUOUS
 62
     5
 10
-323.2
 20
0.0
 30
0.0
 11
-323.2
 21
0.3
 31
0.0
  0
LINE
  8
DETAIL
  6
CONTINUOUS
 62
     5
 10
-326.3
 20
0.0
 30
0.0
 11
-326.3
 21
0.3
 31
0.0
  0
LINE
  8
DETAIL
  6
CONTINUOUS
 62
     5
 10
-313.1
 20
0.0
 30
0.0
 11
-313.1
 21
0.3
 31
0.0
  0
LINE
  8
DETAIL
  6
CONTINUOUS
 62
     5
 10
-212.8
 20
0.3
 30
0.0
 11
-215.9
 21
0.3
 31
0.0
  0
ARC
  8
DETAIL
  6
CONTINUOUS
 62
     5
 10
-294.3
 20
-3.6
 30
0.0
 40
6.1
 50
39.601965
 51
140.398017
  0
LINE
  8
DETAIL
  6
CONTINUOUS
 62
     5
 10
-289.6
 20
0.0
 30
0.0
 11
-299.0
 21
0.0
 31
0.0
  0
LINE
  8
DETAIL
  6
CONTINUOUS
 62
     5
 10
-299.0
 20
0.0
 30
0.0
 11
-299.0
 21
0.288445
 31
0.0
  0
LINE
  8
DETAIL
  6
CONTINUOUS
 62
     5
 10
-289.6
 20
0.0
 30
0.0
 11
-289.6
 21
0.288445
 31
0.0
  0
LINE
  8
DETAIL
  6
CONTINUOUS
 62
     5
 10
-299.0
 20
0.288445
 30
0.0
 11
-289.6
 21
0.288445
 31
0.0
  0
ARC
  8
DETAIL
  6
CONTINUOUS
 62
     5
 10
-224.9
 20
-3.6
 30
0.0
 40
6.1
 50
39.601965
 51
140.398017
  0
LINE
  8
DETAIL
  6
CONTINUOUS
 62
     5
 10
-220.2
 20
0.0
 30
0.0
 11
-229.6
 21
0.0
 31
0.0
  0
LINE
  8
DETAIL
  6
CONTINUOUS
 62
     5
 10
-229.6
 20
0.0
 30
0.0
 11
-229.6
 21
0.288445
 31
0.0
  0
LINE
  8
DETAIL
  6
CONTINUOUS
 62
     5
 10
-220.2
 20
0.0
 30
0.0
 11
-220.2
 21
0.288445
 31
0.0
  0
LINE
  8
DETAIL
  6
CONTINUOUS
 62
     5
 10
-229.6
 20
0.288445
 30
0.0
 11
-220.2
 21
0.288445
 31
0.0
  0
LINE
  8
DETAIL
  6
DASHED
 62
     5
 10
-226.0
 20
0.3
 30
0.0
 11
-222.9
 21
0.3
 31
0.0
  0
LINE
  8
DETAIL
  6
CONTINUOUS
 62
     5
 10
-215.9
 20
0.0
 30
0.0
 11
-215.9
 21
0.3
 31
0.0
  0
ARC
  8
DETAIL
  6
CONTINUOUS
 62
     5
 10
-166.8
 20
-4.4
 30
0.0
 40
6.1
 50
48.94665
 51
133.837134
  0
LINE
  8
DETAIL
  6
CONTINUOUS
 62
     5
 10
-166.5
 20
-1.8
 30
0.0
 11
-209.5
 21
-1.8
 31
0.0
  0
LINE
  8
DETAIL
  6
CONTINUOUS
 62
     5
 10
-201.084921
 20
-14.515074
 30
0.0
 11
-198.115079
 21
-17.484926
 31
0.0
  0
LINE
  8
DETAIL
  6
CONTINUOUS
 62
     5
 10
-198.115074
 20
-14.515079
 30
0.0
 11
-201.084926
 21
-17.484921
 31
0.0
  0
CIRCLE
  8
DETAIL
  6
CONTINUOUS
 62
     5
 10
-199.6
 20
-16.0
 30
0.0
 40
4.7
  0
LINE
  8
DETAIL
  6
CONTINUOUS
 62
     5
 10
-212.8
 20
0.0
 30
0.0
 11
-212.8
 21
0.3
 31
0.0
  0
ARC
  8
DETAIL
  6
CONTINUOUS
 62
     5
 10
-184.0
 20
-3.6
 30
0.0
 40
6.1
 50
39.601965
 51
140.398017
  0
LINE
  8
DETAIL
  6
CONTINUOUS
 62
     5
 10
-179.3
 20
0.0
 30
0.0
 11
-188.7
 21
0.0
 31
0.0
  0
LINE
  8
DETAIL
  6
CONTINUOUS
 62
     5
 10
-188.7
 20
0.0
 30
0.0
 11
-188.7
 21
0.288445
 31
0.0
  0
LINE
  8
DETAIL
  6
CONTINUOUS
 62
     5
 10
-179.3
 20
0.0
 30
0.0
 11
-179.3
 21
0.288445
 31
0.0
  0
LINE
  8
DETAIL
  6
CONTINUOUS
 62
     5
 10
-188.7
 20
0.288445
 30
0.0
 11
-179.3
 21
0.288445
 31
0.0
  0
LINE
  8
DETAIL
  6
CONTINUOUS
 62
     5
 10
-169.4
 20
0.0
 30
0.0
 11
-169.4
 21
-1.8
 31
0.0
  0
LINE
  8
DETAIL
  6
CONTINUOUS
 62
     5
 10
-166.5
 20
-1.8
 30
0.0
 11
-166.5
 21
0.2
 31
0.0
  0
LINE
  8
DETAIL
  6
CONTINUOUS
 62
     5
 10
-0.5
 20
-25.0
 30
0.0
 11
-0.5
 21
-101.0
 31
0.0
  0
LINE
  8
DETAIL
  6
CONTINUOUS
 62
     5
 10
190.5
 20
-28.0
 30
0.0
 11
190.5
 21
-101.0
 31
0.0
  0
LINE
  8
DETAIL
  6
CONTINUOUS
 62
     5
 10
180.5
 20
-25.0
 30
0.0
 11
180.5
 21
-101.0
 31
0.0
  0
LINE
  8
DETAIL
  6
CONTINUOUS
 62
     5
 10
-10.5
 20
-28.0
 30
0.0
 11
-10.5
 21
-77.0
 31
0.0
  0
LINE
  8
DETAIL
  6
CONTINUOUS
 62
     5
 10
4.8
 20
-193.5
 30
0.0
 11
96.0
 21
-193.5
 31
0.0
  0
LINE
  8
DETAIL
  6
CONTINUOUS
 62
     5
 10
1.5
 20
-178.5
 30
0.0
 11
96.0
 21
-178.5
 31
0.0
  0
LINE
  8
DETAIL
  6
CONTINUOUS
 62
     5
 10
-10.5
 20
-174.0
 30
0.0
 11
-10.5
 21
-125.0
 31
0.0
  0
LINE
  8
DETAIL
  6
CONTINUOUS
 62
     5
 10
-0.5
 20
-177.0
 30
0.0
 11
-0.5
 21
-101.0
 31
0.0
  0
LINE
  8
DETAIL
  6
CONTINUOUS
 62
     5
 10
4.8
 20
-193.5
 30
0.0
 11
1.8
 21
-190.5
 31
0.0
  0
LINE
  8
DETAIL
  6
CONTINUOUS
 62
     5
 10
-7.5
 20
-177.0
 30
0.0
 11
1.8
 21
-177.0
 31
0.0
  0
LINE
  8
DETAIL
  6
CONTINUOUS
 62
     5
 10
-10.5
 20
-174.0
 30
0.0
 11
-7.5
 21
-177.0
 31
0.0
  0
LINE
  8
DETAIL
  6
CONTINUOUS
 62
     5
 10
1.8
 20
-190.5
 30
0.0
 11
1.8
 21
-177.0
 31
0.0
  0
LINE
  8
DETAIL
  6
CONTINUOUS
 62
     5
 10
0.3
 20
-177.3
 30
0.0
 11
0.3
 21
-177.0
 31
0.0
  0
LINE
  8
DETAIL
  6
CONTINUOUS
 62
     5
 10
1.5
 20
-177.7
 30
0.0
 11
1.8
 21
-177.7
 31
0.0
  0
LINE
  8
DETAIL
  6
CONTINUOUS
 62
     5
 10
1.1
 20
-177.3
 30
0.0
 11
1.1
 21
-177.0
 31
0.0
  0
ARC
  8
DETAIL
  6
CONTINUOUS
 62
     5
 10
1.5
 20
-177.3
 30
0.0
 40
1.2
 50
180.0
 51
270.0
  0
ARC
  8
DETAIL
  6
CONTINUOUS
 62
     5
 10
1.5
 20
-177.3
 30
0.0
 40
0.4
 50
180.0
 51
270.0
  0
CIRCLE
  8
DETAIL
  6
CONTINUOUS
 62
     5
 10
58.0
 20
-206.0
 30
0.0
 40
4.7
  0
LINE
  8
DETAIL
  6
CONTINUOUS
 62
     5
 10
59.48493
 20
-204.51507
 30
0.0
 11
56.51507
 21
-207.48492
 31
0.0
  0
LINE
  8
DETAIL
  6
CONTINUOUS
 62
     5
 10
56.51508
 20
-204.51507
 30
0.0
 11
59.48492
 21
-207.48492
 31
0.0
  0
CIRCLE
  8
DETAIL
  6
CONTINUOUS
 62
     5
 10
58.0
 20
-186.0
 30
0.0
 40
4.7
  0
LINE
  8
DETAIL
  6
CONTINUOUS
 62
     5
 10
59.48493
 20
-184.51507
 30
0.0
 11
56.51507
 21
-187.48492
 31
0.0
  0
LINE
  8
DETAIL
  6
CONTINUOUS
 62
     5
 10
56.51508
 20
-184.51507
 30
0.0
 11
59.48492
 21
-187.48492
 31
0.0
  0
LINE
  8
DETAIL
  6
CONTINUOUS
 62
     5
 10
-76.684921
 20
-80.815074
 30
0.0
 11
-73.715079
 21
-83.784926
 31
0.0
  0
LINE
  8
DETAIL
  6
CONTINUOUS
 62
     5
 10
-73.715074
 20
-80.815079
 30
0.0
 11
-76.684926
 21
-83.784921
 31
0.0
  0
CIRCLE
  8
DETAIL
  6
CONTINUOUS
 62
     5
 10
-75.2
 20
-82.3
 30
0.0
 40
4.7
  0
ARC
  8
DETAIL
  6
CONTINUOUS
 62
     5
 10
-75.2
 20
-64.4
 30
0.0
 40
0.6
 50
90.0
 51
180.0
  0
ARC
  8
DETAIL
  6
CONTINUOUS
 62
     5
 10
-75.2
 20
-68.2
 30
0.0
 40
0.6
 50
180.0
 51
270.0
  0
LINE
  8
DETAIL
  6
CONTINUOUS
 62
     5
 10
-65.2
 20
-75.5
 30
0.0
 11
-85.2
 21
-75.5
 31
0.0
  0
LINE
  8
DETAIL
  6
CONTINUOUS
 62
     5
 10
-65.2
 20
-57.1
 30
0.0
 11
-85.2
 21
-57.1
 31
0.0
  0
LINE
  8
DETAIL
  6
CONTINUOUS
 62
     5
 10
-67.2
 20
-87.3
 30
0.0
 11
-83.2
 21
-87.3
 31
0.0
  0
LINE
  8
DETAIL
  6
CONTINUOUS
 62
     5
 10
-81.7
 20
-56.3
 30
0.0
 11
-68.7
 21
-56.3
 31
0.0
  0
LINE
  8
DETAIL
  6
CONTINUOUS
 62
     5
 10
-84.35147
 20
-75.5
 30
0.0
 11
-84.35147
 21
-57.1
 31
0.0
  0
LINE
  8
DETAIL
  6
CONTINUOUS
 62
     5
 10
-83.2
 20
-57.1
 30
0.0
 11
-83.2
 21
-75.5
 31
0.0
  0
LINE
  8
DETAIL
  6
CONTINUOUS
 62
     5
 10
-85.2
 20
-57.1
 30
0.0
 11
-85.2
 21
-85.3
 31
0.0
  0
ARC
  8
DETAIL
  6
CONTINUOUS
 62
     5
 10
-83.2
 20
-85.3
 30
0.0
 40
2.0
 50
180.0
 51
270.0
  0
LINE
  8
DETAIL
  6
CONTINUOUS
 62
     5
 10
-75.8
 20
-64.4
 30
0.0
 11
-75.8
 21
-68.2
 31
0.0
  0
LINE
  8
DETAIL
  6
CONTINUOUS
 62
     5
 10
-81.2
 20
-57.1
 30
0.0
 11
-81.2
 21
-56.3
 31
0.0
  0
LINE
  8
DETAIL
  6
CONTINUOUS
 62
     5
 10
-81.7
 20
-57.1
 30
0.0
 11
-81.7
 21
-56.3
 31
0.0
  0
LINE
  8
DETAIL
  6
CONTINUOUS
 62
     5
 10
-66.04853
 20
-57.1
 30
0.0
 11
-66.04853
 21
-75.5
 31
0.0
  0
LINE
  8
DETAIL
  6
CONTINUOUS
 62
     5
 10
-67.2
 20
-57.1
 30
0.0
 11
-67.2
 21
-75.5
 31
0.0
  0
LINE
  8
DETAIL
  6
CONTINUOUS
 62
     5
 10
-65.2
 20
-57.1
 30
0.0
 11
-65.2
 21
-85.3
 31
0.0
  0
ARC
  8
DETAIL
  6
CONTINUOUS
 62
     5
 10
-67.2
 20
-85.3
 30
0.0
 40
2.0
 50
270.0
 51
0.0
  0
ARC
  8
DETAIL
  6
CONTINUOUS
 62
     5
 10
-75.2
 20
-64.4
 30
0.0
 40
0.6
 50
0.0
 51
90.0
  0
ARC
  8
DETAIL
  6
CONTINUOUS
 62
     5
 10
-75.2
 20
-68.2
 30
0.0
 40
0.6
 50
270.0
 51
0.0
  0
LINE
  8
DETAIL
  6
CONTINUOUS
 62
     5
 10
-74.6
 20
-64.4
 30
0.0
 11
-74.6
 21
-68.2
 31
0.0
  0
LINE
  8
DETAIL
  6
CONTINUOUS
 62
     5
 10
-69.2
 20
-57.1
 30
0.0
 11
-69.2
 21
-56.3
 31
0.0
  0
LINE
  8
DETAIL
  6
CONTINUOUS
 62
     5
 10
-68.7
 20
-57.1
 30
0.0
 11
-68.7
 21
-56.3
 31
0.0
  0
LINE
  8
DETAIL
  6
CONTINUOUS
 62
     5
 10
-3.85
 20
-83.5
 30
0.0
 11
-3.85
 21
-118.5
 31
0.0
  0
LINE
  8
DETAIL
  6
CONTINUOUS
 62
     5
 10
-3.85
 20
-77.5
 30
0.0
 11
-3.85
 21
-124.5
 31
0.0
  0
LINE
  8
DETAIL
  6
CONTINUOUS
 62
     5
 10
-0.85
 20
-77.5
 30
0.0
 11
-0.85
 21
-124.5
 31
0.0
  0
LINE
  8
DETAIL
  6
CONTINUOUS
 62
     5
 10
-0.85
 20
-80.5
 30
0.0
 11
-0.85
 21
-121.5
 31
0.0
  0
LINE
  8
DETAIL
  6
CONTINUOUS
 62
     5
 10
-3.85
 20
-122.0
 30
0.0
 11
-7.5
 21
-122.0
 31
0.0
  0
LINE
  8
DETAIL
  6
CONTINUOUS
 62
     5
 10
-10.5
 20
-125.0
 30
0.0
 11
-7.5
 21
-122.0
 31
0.0
  0
LINE
  8
DETAIL
  6
CONTINUOUS
 62
     5
 10
-0.85
 20
-118.0
 30
0.0
 11
-0.5
 21
-118.0
 31
0.0
  0
LINE
  8
DETAIL
  6
CONTINUOUS
 62
     5
 10
-3.85
 20
-121.36144
 30
0.0
 11
-0.85
 21
-121.36144
 31
0.0
  0
LINE
  8
DETAIL
  6
CONTINUOUS
 62
     5
 10
-3.85
 20
-124.5
 30
0.0
 11
-0.85
 21
-124.5
 31
0.0
  0
ARC
  8
DETAIL
  6
CONTINUOUS
 62
     5
 10
-0.85
 20
-118.5
 30
0.0
 40
3.0
 50
180.0
 51
252.518964
  0
LINE
  8
DETAIL
  6
DASHED
 62
     5
 10
-0.85
 20
-122.0
 30
0.0
 11
-3.85
 21
-122.0
 31
0.0
  0
LINE
  8
DETAIL
  6
CONTINUOUS
 62
     5
 10
-0.5
 20
-122.0
 30
0.0
 11
-0.85
 21
-122.0
 31
0.0
  0
LINE
  8
DETAIL
  6
CONTINUOUS
 62
     5
 10
-3.85
 20
-80.0
 30
0.0
 11
-7.5
 21
-80.0
 31
0.0
  0
LINE
  8
DETAIL
  6
CONTINUOUS
 62
     5
 10
-10.5
 20
-77.0
 30
0.0
 11
-7.5
 21
-80.0
 31
0.0
  0
LINE
  8
DETAIL
  6
CONTINUOUS
 62
     5
 10
-0.85
 20
-84.0
 30
0.0
 11
-0.5
 21
-84.0
 31
0.0
  0
LINE
  8
DETAIL
  6
CONTINUOUS
 62
     5
 10
-0.85
 20
-77.5
 30
0.0
 11
-3.85
 21
-77.5
 31
0.0
  0
LINE
  8
DETAIL
  6
CONTINUOUS
 62
     5
 10
-3.85
 20
-80.63855
 30
0.0
 11
-0.85
 21
-80.63855
 31
0.0
  0
ARC
  8
DETAIL
  6
CONTINUOUS
 62
     5
 10
-0.85
 20
-83.5
 30
0.0
 40
3.0
 50
107.481036
 51
180.0
  0
LINE
  8
DETAIL
  6
CONTINUOUS
 62
     5
 10
-0.5
 20
-80.0
 30
0.0
 11
-0.85
 21
-80.0
 31
0.0
  0
LINE
  8
DETAIL
  6
DASHED
 62
     5
 10
-0.85
 20
-80.0
 30
0.0
 11
-3.85
 21
-80.0
 31
0.0
  0
LINE
  8
DETAIL
  6
CONTINUOUS
 62
     5
 10
190.5
 20
-174.0
 30
0.0
 11
190.5
 21
-101.0
 31
0.0
  0
LINE
  8
DETAIL
  6
CONTINUOUS
 62
     5
 10
180.5
 20
-177.0
 30
0.0
 11
180.5
 21
-101.0
 31
0.0
  0
LINE
  8
DETAIL
  6
CONTINUOUS
 62
     5
 10
175.2
 20
-193.5
 30
0.0
 11
96.0
 21
-193.5
 31
0.0
  0
LINE
  8
DETAIL
  6
CONTINUOUS
 62
     5
 10
178.5
 20
-178.5
 30
0.0
 11
96.0
 21
-178.5
 31
0.0
  0
CIRCLE
  8
DETAIL
  6
CONTINUOUS
 62
     5
 10
241.2
 20
-276.0
 30
0.0
 40
4.7
  0
LINE
  8
DETAIL
  6
CONTINUOUS
 62
     5
 10
242.684926
 20
-274.515079
 30
0.0
 11
239.715074
 21
-277.484921
 31
0.0
  0
LINE
  8
DETAIL
  6
CONTINUOUS
 62
     5
 10
239.715079
 20
-274.515074
 30
0.0
 11
242.684921
 21
-277.484926
 31
0.0
  0
LINE
  8
DETAIL
  6
CONTINUOUS
 62
     5
 10
175.2
 20
-193.5
 30
0.0
 11
178.2
 21
-190.5
 31
0.0
  0
LINE
  8
DETAIL
  6
CONTINUOUS
 62
     5
 10
187.5
 20
-177.0
 30
0.0
 11
178.2
 21
-177.0
 31
0.0
  0
CIRCLE
  8
DETAIL
  6
CONTINUOUS
 62
     5
 10
169.1
 20
-186.0
 30
0.0
 40
4.7
  0
LINE
  8
DETAIL
  6
CONTINUOUS
 62
     5
 10
170.58493
 20
-184.51507
 30
0.0
 11
167.61507
 21
-187.48492
 31
0.0
  0
LINE
  8
DETAIL
  6
CONTINUOUS
 62
     5
 10
167.61508
 20
-184.51507
 30
0.0
 11
170.58492
 21
-187.48492
 31
0.0
  0
LINE
  8
DETAIL
  6
CONTINUOUS
 62
     5
 10
178.9
 20
-177.3
 30
0.0
 11
178.9
 21
-177.0
 31
0.0
  0
LINE
  8
DETAIL
  6
CONTINUOUS
 62
     5
 10
178.5
 20
-177.7
 30
0.0
 11
178.2
 21
-177.7
 31
0.0
  0
LINE
  8
DETAIL
  6
CONTINUOUS
 62
     5
 10
179.7
 20
-177.3
 30
0.0
 11
179.7
 21
-177.0
 31
0.0
  0
LINE
  8
DETAIL
  6
CONTINUOUS
 62
     5
 10
178.2
 20
-190.5
 30
0.0
 11
178.2
 21
-177.0
 31
0.0
  0
ARC
  8
DETAIL
  6
CONTINUOUS
 62
     5
 10
178.5
 20
-177.3
 30
0.0
 40
1.2
 50
270.0
 51
0.0
  0
ARC
  8
DETAIL
  6
CONTINUOUS
 62
     5
 10
178.5
 20
-177.3
 30
0.0
 40
0.4
 50
270.0
 51
0.0
  0
LINE
  8
DETAIL
  6
CONTINUOUS
 62
     5
 10
187.5
 20
-177.0
 30
0.0
 11
190.5
 21
-174.0
 31
0.0
  0
CIRCLE
  8
DETAIL
  6
CONTINUOUS
 62
     5
 10
241.2
 20
-76.0
 30
0.0
 40
4.7
  0
LINE
  8
DETAIL
  6
CONTINUOUS
 62
     5
 10
242.684926
 20
-74.515079
 30
0.0
 11
239.715074
 21
-77.484921
 31
0.0
  0
LINE
  8
DETAIL
  6
CONTINUOUS
 62
     5
 10
239.715079
 20
-74.515074
 30
0.0
 11
242.684921
 21
-77.484926
 31
0.0
  0
LINE
  8
DETAIL
  6
CONTINUOUS
 62
     5
 10
1.5
 20
-23.5
 30
0.0
 11
96.0
 21
-23.5
 31
0.0
  0
LINE
  8
DETAIL
  6
CONTINUOUS
 62
     5
 10
4.8
 20
-8.5
 30
0.0
 11
96.0
 21
-8.5
 31
0.0
  0
ARC
  8
DETAIL
  6
CONTINUOUS
 62
     5
 10
-86.0
 20
-4.4
 30
0.0
 40
6.1
 50
48.94665
 51
131.05335
  0
LINE
  8
DETAIL
  6
CONTINUOUS
 62
     5
 10
-64.6
 20
0.28845
 30
0.0
 11
-55.2
 21
0.28845
 31
0.0
  0
LINE
  8
DETAIL
  6
CONTINUOUS
 62
     5
 10
-55.2
 20
0.2
 30
0.0
 11
-55.2
 21
0.28845
 31
0.0
  0
LINE
  8
DETAIL
  6
CONTINUOUS
 62
     5
 10
-64.6
 20
0.2
 30
0.0
 11
-64.6
 21
0.28845
 31
0.0
  0
ARC
  8
DETAIL
  6
CONTINUOUS
 62
     5
 10
-59.9
 20
-3.6
 30
0.0
 40
6.1
 50
39.601965
 51
140.398017
  0
CIRCLE
  8
DETAIL
  6
CONTINUOUS
 62
     5
 10
19.1
 20
-16.0
 30
0.0
 40
4.7
  0
LINE
  8
DETAIL
  6
CONTINUOUS
 62
     5
 10
20.58493
 20
-14.51507
 30
0.0
 11
17.61507
 21
-17.48492
 31
0.0
  0
LINE
  8
DETAIL
  6
CONTINUOUS
 62
     5
 10
17.61508
 20
-14.51507
 30
0.0
 11
20.58492
 21
-17.48492
 31
0.0
  0
LINE
  8
DETAIL
  6
CONTINUOUS
 62
     5
 10
-7.5
 20
-25.0
 30
0.0
 11
1.8
 21
-25.0
 31
0.0
  0
LINE
  8
DETAIL
  6
CONTINUOUS
 62
     5
 10
-10.5
 20
-28.0
 30
0.0
 11
-7.5
 21
-25.0
 31
0.0
  0
LINE
  8
DETAIL
  6
CONTINUOUS
 62
     5
 10
1.1
 20
-24.7
 30
0.0
 11
1.1
 21
-25.0
 31
0.0
  0
LINE
  8
DETAIL
  6
DASHED
 62
     5
 10
0.3
 20
-38.5
 30
0.0
 11
1.1
 21
-38.5
 31
0.0
  0
LINE
  8
DETAIL
  6
CONTINUOUS
 62
     5
 10
1.8
 20
-11.5
 30
0.0
 11
1.8
 21
-25.0
 31
0.0
  0
LINE
  8
DETAIL
  6
CONTINUOUS
 62
     5
 10
4.8
 20
-8.5
 30
0.0
 11
1.8
 21
-11.5
 31
0.0
  0
ARC
  8
DETAIL
  6
CONTINUOUS
 62
     5
 10
1.5
 20
-24.7
 30
0.0
 40
0.4
 50
90.0
 51
180.0
  0
ARC
  8
DETAIL
  6
CONTINUOUS
 62
     5
 10
1.5
 20
-24.7
 30
0.0
 40
1.2
 50
90.0
 51
180.0
  0
LINE
  8
DETAIL
  6
CONTINUOUS
 62
     5
 10
0.3
 20
-24.7
 30
0.0
 11
0.3
 21
-25.0
 31
0.0
  0
LINE
  8
DETAIL
  6
CONTINUOUS
 62
     5
 10
1.5
 20
-24.3
 30
0.0
 11
1.8
 21
-24.3
 31
0.0
  0
LINE
  8
DETAIL
  6
CONTINUOUS
 62
     5
 10
175.2
 20
-8.5
 30
0.0
 11
96.0
 21
-8.5
 31
0.0
  0
LINE
  8
DETAIL
  6
CONTINUOUS
 62
     5
 10
178.5
 20
-23.5
 30
0.0
 11
96.0
 21
-23.5
 31
0.0
  0
ARC
  8
DETAIL
  6
CONTINUOUS
 62
     5
 10
79.2
 20
-4.4
 30
0.0
 40
6.1
 50
48.94665
 51
131.05335
  0
LINE
  8
DETAIL
  6
CONTINUOUS
 62
     5
 10
100.6
 20
0.28845
 30
0.0
 11
110.0
 21
0.28845
 31
0.0
  0
LINE
  8
DETAIL
  6
CONTINUOUS
 62
     5
 10
110.0
 20
0.2
 30
0.0
 11
110.0
 21
0.28845
 31
0.0
  0
LINE
  8
DETAIL
  6
CONTINUOUS
 62
     5
 10
100.6
 20
0.2
 30
0.0
 11
100.6
 21
0.28845
 31
0.0
  0
ARC
  8
DETAIL
  6
CONTINUOUS
 62
     5
 10
105.3
 20
-3.6
 30
0.0
 40
6.1
 50
39.601965
 51
140.398017
  0
LINE
  8
DETAIL
  6
CONTINUOUS
 62
     5
 10
179.5
 20
-24.03667
 30
0.0
 11
179.5
 21
-6.8
 31
0.0
  0
LINE
  8
DETAIL
  6
CONTINUOUS
 62
     5
 10
187.5
 20
-25.0
 30
0.0
 11
178.2
 21
-25.0
 31
0.0
  0
CIRCLE
  8
DETAIL
  6
CONTINUOUS
 62
     5
 10
169.1
 20
-16.0
 30
0.0
 40
4.7
  0
LINE
  8
DETAIL
  6
CONTINUOUS
 62
     5
 10
170.58493
 20
-14.51507
 30
0.0
 11
167.61507
 21
-17.48492
 31
0.0
  0
LINE
  8
DETAIL
  6
CONTINUOUS
 62
     5
 10
167.61508
 20
-14.51507
 30
0.0
 11
170.58492
 21
-17.48492
 31
0.0
  0
LINE
  8
DETAIL
  6
CONTINUOUS
 62
     5
 10
178.5
 20
-24.3
 30
0.0
 11
178.2
 21
-24.3
 31
0.0
  0
LINE
  8
DETAIL
  6
CONTINUOUS
 62
     5
 10
175.2
 20
-8.5
 30
0.0
 11
178.2
 21
-11.5
 31
0.0
  0
LINE
  8
DETAIL
  6
CONTINUOUS
 62
     5
 10
178.2
 20
-11.5
 30
0.0
 11
178.2
 21
-25.0
 31
0.0
  0
LINE
  8
DETAIL
  6
CONTINUOUS
 62
     5
 10
179.7
 20
-24.7
 30
0.0
 11
179.7
 21
-25.0
 31
0.0
  0
LINE
  8
DETAIL
  6
CONTINUOUS
 62
     5
 10
178.9
 20
-24.7
 30
0.0
 11
178.9
 21
-25.0
 31
0.0
  0
ARC
  8
DETAIL
  6
CONTINUOUS
 62
     5
 10
178.5
 20
-24.7
 30
0.0
 40
1.2
 50
0.0
 51
90.0
  0
ARC
  8
DETAIL
  6
CONTINUOUS
 62
     5
 10
178.5
 20
-24.7
 30
0.0
 40
0.4
 50
0.0
 51
90.0
  0
LINE
  8
DETAIL
  6
CONTINUOUS
 62
     5
 10
187.5
 20
-25.0
 30
0.0
 11
190.5
 21
-28.0
 31
0.0
  0
ARC
  8
DETAIL
  6
CONTINUOUS
 62
     5
 10
178.5
 20
-3.6
 30
0.0
 40
6.1
 50
39.601965
 51
140.398017
  0
LINE
  8
DETAIL
  6
CONTINUOUS
 62
     5
 10
183.2
 20
0.0
 30
0.0
 11
173.8
 21
0.0
 31
0.0
  0
LINE
  8
DETAIL
  6
CONTINUOUS
 62
     5
 10
173.8
 20
0.288445
 30
0.0
 11
183.2
 21
0.288445
 31
0.0
  0
LINE
  8
DETAIL
  6
CONTINUOUS
 62
     5
 10
173.8
 20
0.0
 30
0.0
 11
173.8
 21
0.288445
 31
0.0
  0
LINE
  8
DETAIL
  6
CONTINUOUS
 62
     5
 10
174.5
 20
-1.8
 30
0.0
 11
159.5
 21
-1.8
 31
0.0
  0
LINE
  8
DETAIL
  6
CONTINUOUS
 62
     5
 10
159.5
 20
-1.8
 30
0.0
 11
159.5
 21
0.2
 31
0.0
  0
ARC
  8
DETAIL
  6
CONTINUOUS
 62
     5
 10
174.5
 20
-6.8
 30
0.0
 40
5.0
 50
0.0
 51
90.0
  0
LINE
  8
DETAIL
  6
CONTINUOUS
 62
     5
 10
162.6
 20
0.0
 30
0.0
 11
162.6
 21
-1.8
 31
0.0
  0
LINE
  8
DETAIL
  6
CONTINUOUS
 62
     5
 10
162.6
 20
0.0
 30
0.0
 11
159.5
 21
0.0
 31
0.0
  0
LINE
  8
DETAIL
  6
CONTINUOUS
 62
     5
 10
162.6
 20
-0.8
 30
0.0
 11
159.5
 21
-0.8
 31
0.0
  0
LINE
  8
DETAIL
  6
CONTINUOUS
 62
     5
 10
162.6
 20
-1.6
 30
0.0
 11
159.5
 21
-1.6
 31
0.0
  0
LINE
  8
DETAIL
  6
CONTINUOUS
 62
     5
 10
183.2
 20
0.0
 30
0.0
 11
183.2
 21
0.288445
 31
0.0
  0
ARC
  8
DETAIL
  6
CONTINUOUS
 62
     5
 10
223.4
 20
-4.4
 30
0.0
 40
6.1
 50
46.162866
 51
133.837134
  0
ARC
  8
DETAIL
  6
CONTINUOUS
 62
     5
 10
241.2
 20
-4.4
 30
0.0
 40
6.1
 50
46.162866
 51
133.837134
  0
LINE
  8
DETAIL
  6
CONTINUOUS
 62
     5
 10
590.5
 20
-284.0
 30
0.0
 11
522.3
 21
-292.0
 31
0.0
  0
LINE
  8
DETAIL
  6
CONTINUOUS
 62
     5
 10
520.5
 20
-167.86794
 30
0.0
 11
520.5
 21
-348.4
 31
0.0
  0
ARC
  8
DETAIL
  6
CONTINUOUS
 62
     5
 10
489.0
 20
-346.4
 30
0.0
 40
6.1
 50
219.601983
 51
320.398035
  0
LINE
  8
DETAIL
  6
CONTINUOUS
 62
     5
 10
493.7
 20
-350.0
 30
0.0
 11
484.3
 21
-350.0
 31
0.0
  0
LINE
  8
DETAIL
  6
CONTINUOUS
 62
     5
 10
484.3
 20
-350.288445
 30
0.0
 11
493.7
 21
-350.288445
 31
0.0
  0
ARC
  8
DETAIL
  6
CONTINUOUS
 62
     5
 10
270.3
 20
-346.4
 30
0.0
 40
6.1
 50
219.601983
 51
320.398035
  0
LINE
  8
DETAIL
  6
CONTINUOUS
 62
     5
 10
275.0
 20
-350.0
 30
0.0
 11
265.6
 21
-350.0
 31
0.0
  0
LINE
  8
DETAIL
  6
CONTINUOUS
 62
     5
 10
265.6
 20
-350.0
 30
0.0
 11
265.6
 21
-350.288445
 31
0.0
  0
LINE
  8
DETAIL
  6
CONTINUOUS
 62
     5
 10
275.0
 20
-350.0
 30
0.0
 11
275.0
 21
-350.288445
 31
0.0
  0
LINE
  8
DETAIL
  6
CONTINUOUS
 62
     5
 10
265.6
 20
-350.288445
 30
0.0
 11
275.0
 21
-350.288445
 31
0.0
  0
ARC
  8
DETAIL
  6
CONTINUOUS
 62
     5
 10
313.5
 20
-346.4
 30
0.0
 40
6.1
 50
219.601983
 51
320.398035
  0
LINE
  8
DETAIL
  6
CONTINUOUS
 62
     5
 10
318.2
 20
-350.0
 30
0.0
 11
308.8
 21
-350.0
 31
0.0
  0
LINE
  8
DETAIL
  6
CONTINUOUS
 62
     5
 10
308.8
 20
-350.0
 30
0.0
 11
308.8
 21
-350.288445
 31
0.0
  0
LINE
  8
DETAIL
  6
CONTINUOUS
 62
     5
 10
318.2
 20
-350.0
 30
0.0
 11
318.2
 21
-350.288445
 31
0.0
  0
LINE
  8
DETAIL
  6
CONTINUOUS
 62
     5
 10
308.8
 20
-350.288445
 30
0.0
 11
318.2
 21
-350.288445
 31
0.0
  0
LINE
  8
DETAIL
  6
CONTINUOUS
 62
     5
 10
484.3
 20
-350.0
 30
0.0
 11
484.3
 21
-350.288445
 31
0.0
  0
ARC
  8
DETAIL
  6
CONTINUOUS
 62
     5
 10
502.2
 20
-346.4
 30
0.0
 40
6.1
 50
219.601983
 51
320.398035
  0
LINE
  8
DETAIL
  6
CONTINUOUS
 62
     5
 10
506.9
 20
-350.0
 30
0.0
 11
497.5
 21
-350.0
 31
0.0
  0
LINE
  8
DETAIL
  6
CONTINUOUS
 62
     5
 10
497.5
 20
-350.0
 30
0.0
 11
497.5
 21
-350.288445
 31
0.0
  0
LINE
  8
DETAIL
  6
CONTINUOUS
 62
     5
 10
506.9
 20
-350.0
 30
0.0
 11
506.9
 21
-350.288445
 31
0.0
  0
LINE
  8
DETAIL
  6
CONTINUOUS
 62
     5
 10
497.5
 20
-350.288445
 30
0.0
 11
506.9
 21
-350.288445
 31
0.0
  0
LINE
  8
DETAIL
  6
CONTINUOUS
 62
     5
 10
493.7
 20
-350.0
 30
0.0
 11
493.7
 21
-350.288445
 31
0.0
  0
ARC
  8
DETAIL
  6
CONTINUOUS
 62
     5
 10
518.5
 20
-348.0
 30
0.0
 40
1.2
 50
289.471221
 51
340.528779
  0
LINE
  8
DETAIL
  6
CONTINUOUS
 62
     5
 10
518.9
 20
-348.4
 30
0.0
 11
518.9
 21
-350.0
 31
0.0
  0
LINE
  8
DETAIL
  6
CONTINUOUS
 62
     5
 10
520.5
 20
-348.4
 30
0.0
 11
518.9
 21
-348.4
 31
0.0
  0
ARC
  8
DETAIL
  6
CONTINUOUS
 62
     5
 10
518.799118
 20
-325.0
 30
0.0
 40
4.200882
 50
298.265015
 51
61.734962
  0
LINE
  8
DETAIL
  6
CONTINUOUS
 62
     5
 10
520.5
 20
-328.7
 30
0.0
 11
520.5
 21
-321.3
 31
0.0
  0
LINE
  8
DETAIL
  6
CONTINUOUS
 62
     5
 10
520.5
 20
-321.3
 30
0.0
 11
520.788445
 21
-321.3
 31
0.0
  0
LINE
  8
DETAIL
  6
CONTINUOUS
 62
     5
 10
520.5
 20
-328.7
 30
0.0
 11
520.788445
 21
-328.7
 31
0.0
  0
LINE
  8
DETAIL
  6
CONTINUOUS
 62
     5
 10
520.788445
 20
-321.3
 30
0.0
 11
520.788445
 21
-328.7
 31
0.0
  0
ARC
  8
DETAIL
  6
CONTINUOUS
 62
     5
 10
522.3
 20
-294.0
 30
0.0
 40
2.0
 50
90.0
 51
154.158067
  0
LINE
  8
DETAIL
  6
CONTINUOUS
 62
     5
 10
590.5
 20
-42.0
 30
0.0
 11
522.3
 21
-34.0
 31
0.0
  0
LINE
  8
DETAIL
  6
CONTINUOUS
 62
     5
 10
520.5
 20
-1.6
 30
0.0
 11
520.5
 21
-165.72701
 31
0.0
  0
LINE
  8
DETAIL
  6
CONTINUOUS
 62
     5
 10
491.415079
 20
-174.515074
 30
0.0
 11
494.384921
 21
-177.484926
 31
0.0
  0
LINE
  8
DETAIL
  6
CONTINUOUS
 62
     5
 10
494.384926
 20
-174.515079
 30
0.0
 11
491.415074
 21
-177.484921
 31
0.0
  0
CIRCLE
  8
DETAIL
  6
CONTINUOUS
 62
     5
 10
492.9
 20
-176.0
 30
0.0
 40
4.7
  0
LINE
  8
DETAIL
  6
CONTINUOUS
 62
     5
 10
486.8
 20
-167.6
 30
0.0
 11
518.0
 21
-167.6
 31
0.0
  0
LINE
  8
DETAIL
  6
CONTINUOUS
 62
     5
 10
486.9
 20
-165.6
 30
0.0
 11
519.5
 21
-165.6
 31
0.0
  0
LINE
  8
DETAIL
  6
CONTINUOUS
 62
     5
 10
488.8
 20
-183.0
 30
0.0
 11
516.0
 21
-183.0
 31
0.0
  0
ARC
  8
DETAIL
  6
CONTINUOUS
 62
     5
 10
486.5
 20
-169.6
 30
0.0
 40
4.0
 50
90.0
 51
180.0
  0
ARC
  8
DETAIL
  6
CONTINUOUS
 62
     5
 10
486.5
 20
-169.6
 30
0.0
 40
2.0
 50
90.0
 51
180.0
  0
LINE
  8
DETAIL
  6
CONTINUOUS
 62
     5
 10
484.5
 20
-169.6
 30
0.0
 11
484.5
 21
-172.6
 31
0.0
  0
LINE
  8
DETAIL
  6
CONTINUOUS
 62
     5
 10
482.5
 20
-169.6
 30
0.0
 11
482.5
 21
-172.6
 31
0.0
  0
LINE
  8
DETAIL
  6
CONTINUOUS
 62
     5
 10
482.5
 20
-172.6
 30
0.0
 11
484.5
 21
-172.6
 31
0.0
  0
LINE
  8
DETAIL
  6
CONTINUOUS
 62
     5
 10
486.8
 20
-167.6
 30
0.0
 11
486.8
 21
-181.0
 31
0.0
  0
LINE
  8
DETAIL
  6
CONTINUOUS
 62
     5
 10
486.5
 20
-167.6
 30
0.0
 11
486.8
 21
-167.6
 31
0.0
  0
ARC
  8
DETAIL
  6
CONTINUOUS
 62
     5
 10
488.8
 20
-181.0
 30
0.0
 40
2.0
 50
180.0
 51
270.0
  0
LINE
  8
DETAIL
  6
CONTINUOUS
 62
     5
 10
590.5
 20
-42.0
 30
0.0
 11
590.5
 21
-163.0
 31
0.0
  0
LINE
  8
DETAIL
  6
CONTINUOUS
 62
     5
 10
605.5
 20
-44.6
 30
0.0
 11
605.5
 21
-163.0
 31
0.0
  0
LINE
  8
DETAIL
  6
CONTINUOUS
 62
     5
 10
523.5
 20
-169.6
 30
0.0
 11
523.5
 21
-214.6
 31
0.0
  0
LINE
  8
DETAIL
  6
CONTINUOUS
 62
     5
 10
521.5
 20
-169.6
 30
0.0
 11
521.5
 21
-199.2
 31
0.0
  0
LINE
  8
DETAIL
  6
CONTINUOUS
 62
     5
 10
525.5
 20
-190.1
 30
0.0
 11
525.5
 21
-196.1
 31
0.0
  0
ARC
  8
DETAIL
  6
CONTINUOUS
 62
     5
 10
518.9
 20
-207.6
 30
0.0
 40
6.1
 50
318.94665
 51
41.05335
  0
LINE
  8
DETAIL
  6
CONTINUOUS
 62
     5
 10
520.5
 20
-214.6
 30
0.0
 11
523.5
 21
-214.6
 31
0.0
  0
LINE
  8
DETAIL
  6
CONTINUOUS
 62
     5
 10
520.5
 20
-200.2
 30
0.0
 11
520.5
 21
-214.6
 31
0.0
  0
LINE
  8
DETAIL
  6
CONTINUOUS
 62
     5
 10
522.5
 20
-201.2
 30
0.0
 11
522.5
 21
-214.6
 31
0.0
  0
ARC
  8
DETAIL
  6
CONTINUOUS
 62
     5
 10
522.5
 20
-200.2
 30
0.0
 40
1.0
 50
270.0
 51
0.0
  0
ARC
  8
DETAIL
  6
CONTINUOUS
 62
     5
 10
521.5
 20
-200.2
 30
0.0
 40
1.0
 50
90.0
 51
180.0
  0
ARC
  8
DETAIL
  6
CONTINUOUS
 62
     5
 10
523.5
 20
-196.1
 30
0.0
 40
2.0
 50
270.0
 51
0.0
  0
LINE
  8
DETAIL
  6
CONTINUOUS
 62
     5
 10
509.415079
 20
-174.515074
 30
0.0
 11
512.384921
 21
-177.484926
 31
0.0
  0
LINE
  8
DETAIL
  6
CONTINUOUS
 62
     5
 10
512.384926
 20
-174.515079
 30
0.0
 11
509.415074
 21
-177.484921
 31
0.0
  0
CIRCLE
  8
DETAIL
  6
CONTINUOUS
 62
     5
 10
510.9
 20
-176.0
 30
0.0
 40
4.7
  0
LINE
  8
DETAIL
  6
CONTINUOUS
 62
     5
 10
521.5
 20
-169.6
 30
0.0
 11
523.5
 21
-169.6
 31
0.0
  0
ARC
  8
DETAIL
  6
CONTINUOUS
 62
     5
 10
519.5
 20
-169.6
 30
0.0
 40
4.0
 50
0.0
 51
90.0
  0
ARC
  8
DETAIL
  6
CONTINUOUS
 62
     5
 10
519.5
 20
-169.6
 30
0.0
 40
2.0
 50
0.0
 51
90.0
  0
LINE
  8
DETAIL
  6
CONTINUOUS
 62
     5
 10
518.0
 20
-167.6
 30
0.0
 11
518.0
 21
-181.0
 31
0.0
  0
ARC
  8
DETAIL
  6
CONTINUOUS
 62
     5
 10
523.5
 20
-190.1
 30
0.0
 40
2.0
 50
0.0
 51
90.0
  0
LINE
  8
DETAIL
  6
CONTINUOUS
 62
     5
 10
518.0
 20
-167.6
 30
0.0
 11
519.5
 21
-167.6
 31
0.0
  0
ARC
  8
DETAIL
  6
CONTINUOUS
 62
     5
 10
516.0
 20
-181.0
 30
0.0
 40
2.0
 50
270.0
 51
0.0
  0
LINE
  8
DETAIL
  6
CONTINUOUS
 62
     5
 10
605.5
 20
-281.4
 30
0.0
 11
605.5
 21
-163.0
 31
0.0
  0
LINE
  8
DETAIL
  6
CONTINUOUS
 62
     5
 10
590.5
 20
-284.0
 30
0.0
 11
590.5
 21
-163.0
 31
0.0
  0
ARC
  8
DETAIL
  6
CONTINUOUS
 62
     5
 10
602.9
 20
-281.4
 30
0.0
 40
2.6
 50
270.0
 51
0.0
  0
LINE
  8
DETAIL
  6
CONTINUOUS
 62
     5
 10
602.9
 20
-284.0
 30
0.0
 11
590.5
 21
-284.0
 31
0.0
  0
ARC
  8
DETAIL
  6
CONTINUOUS
 62
     5
 10
516.9
 20
-145.99996
 30
0.0
 40
6.1
 50
309.601965
 51
50.398017
  0
LINE
  8
DETAIL
  6
CONTINUOUS
 62
     5
 10
520.5
 20
-150.69996
 30
0.0
 11
520.5
 21
-141.29996
 31
0.0
  0
LINE
  8
DETAIL
  6
CONTINUOUS
 62
     5
 10
520.5
 20
-141.29996
 30
0.0
 11
520.788445
 21
-141.29996
 31
0.0
  0
LINE
  8
DETAIL
  6
CONTINUOUS
 62
     5
 10
520.5
 20
-150.69996
 30
0.0
 11
520.788445
 21
-150.69996
 31
0.0
  0
LINE
  8
DETAIL
  6
CONTINUOUS
 62
     5
 10
520.788445
 20
-141.29996
 30
0.0
 11
520.788445
 21
-150.69996
 31
0.0
  0
LINE
  8
DETAIL
  6
CONTINUOUS
 62
     5
 10
602.9
 20
-42.0
 30
0.0
 11
590.5
 21
-42.0
 31
0.0
  0
ARC
  8
DETAIL
  6
CONTINUOUS
 62
     5
 10
602.9
 20
-44.6
 30
0.0
 40
2.6
 50
0.0
 51
90.0
  0
ARC
  8
DETAIL
  6
CONTINUOUS
 62
     5
 10
489.0
 20
-3.6
 30
0.0
 40
6.1
 50
39.601965
 51
140.398017
  0
LINE
  8
DETAIL
  6
CONTINUOUS
 62
     5
 10
493.7
 20
0.0
 30
0.0
 11
484.3
 21
0.0
 31
0.0
  0
LINE
  8
DETAIL
  6
CONTINUOUS
 62
     5
 10
484.3
 20
0.288445
 30
0.0
 11
493.7
 21
0.288445
 31
0.0
  0
ARC
  8
DETAIL
  6
CONTINUOUS
 62
     5
 10
270.3
 20
-3.6
 30
0.0
 40
6.1
 50
39.601965
 51
140.398017
  0
LINE
  8
DETAIL
  6
CONTINUOUS
 62
     5
 10
275.0
 20
0.0
 30
0.0
 11
265.6
 21
0.0
 31
0.0
  0
LINE
  8
DETAIL
  6
CONTINUOUS
 62
     5
 10
265.6
 20
0.0
 30
0.0
 11
265.6
 21
0.288445
 31
0.0
  0
LINE
  8
DETAIL
  6
CONTINUOUS
 62
     5
 10
275.0
 20
0.0
 30
0.0
 11
275.0
 21
0.288445
 31
0.0
  0
LINE
  8
DETAIL
  6
CONTINUOUS
 62
     5
 10
265.6
 20
0.288445
 30
0.0
 11
275.0
 21
0.288445
 31
0.0
  0
ARC
  8
DETAIL
  6
CONTINUOUS
 62
     5
 10
313.5
 20
-3.6
 30
0.0
 40
6.1
 50
39.601965
 51
140.398017
  0
LINE
  8
DETAIL
  6
CONTINUOUS
 62
     5
 10
318.2
 20
0.0
 30
0.0
 11
308.8
 21
0.0
 31
0.0
  0
LINE
  8
DETAIL
  6
CONTINUOUS
 62
     5
 10
308.8
 20
0.0
 30
0.0
 11
308.8
 21
0.288445
 31
0.0
  0
LINE
  8
DETAIL
  6
CONTINUOUS
 62
     5
 10
318.2
 20
0.0
 30
0.0
 11
318.2
 21
0.288445
 31
0.0
  0
LINE
  8
DETAIL
  6
CONTINUOUS
 62
     5
 10
308.8
 20
0.288445
 30
0.0
 11
318.2
 21
0.288445
 31
0.0
  0
LINE
  8
DETAIL
  6
CONTINUOUS
 62
     5
 10
484.3
 20
0.0
 30
0.0
 11
484.3
 21
0.288445
 31
0.0
  0
ARC
  8
DETAIL
  6
CONTINUOUS
 62
     5
 10
516.9
 20
-26.0
 30
0.0
 40
6.1
 50
309.601965
 51
50.398017
  0
LINE
  8
DETAIL
  6
CONTINUOUS
 62
     5
 10
520.5
 20
-30.7
 30
0.0
 11
520.5
 21
-21.3
 31
0.0
  0
LINE
  8
DETAIL
  6
CONTINUOUS
 62
     5
 10
520.5
 20
-21.3
 30
0.0
 11
520.788445
 21
-21.3
 31
0.0
  0
LINE
  8
DETAIL
  6
CONTINUOUS
 62
     5
 10
520.5
 20
-30.7
 30
0.0
 11
520.788445
 21
-30.7
 31
0.0
  0
LINE
  8
DETAIL
  6
CONTINUOUS
 62
     5
 10
520.788445
 20
-21.3
 30
0.0
 11
520.788445
 21
-30.7
 31
0.0
  0
ARC
  8
DETAIL
  6
CONTINUOUS
 62
     5
 10
522.3
 20
-32.0
 30
0.0
 40
2.0
 50
205.841933
 51
270.0
  0
ARC
  8
DETAIL
  6
CONTINUOUS
 62
     5
 10
502.2
 20
-3.6
 30
0.0
 40
6.1
 50
39.601965
 51
140.398017
  0
LINE
  8
DETAIL
  6
CONTINUOUS
 62
     5
 10
506.9
 20
0.0
 30
0.0
 11
497.5
 21
0.0
 31
0.0
  0
LINE
  8
DETAIL
  6
CONTINUOUS
 62
     5
 10
497.5
 20
0.0
 30
0.0
 11
497.5
 21
0.288445
 31
0.0
  0
LINE
  8
DETAIL
  6
CONTINUOUS
 62
     5
 10
506.9
 20
0.0
 30
0.0
 11
506.9
 21
0.288445
 31
0.0
  0
LINE
  8
DETAIL
  6
CONTINUOUS
 62
     5
 10
497.5
 20
0.288445
 30
0.0
 11
506.9
 21
0.288445
 31
0.0
  0
LINE
  8
DETAIL
  6
CONTINUOUS
 62
     5
 10
493.7
 20
0.0
 30
0.0
 11
493.7
 21
0.288445
 31
0.0
  0
ARC
  8
DETAIL
  6
CONTINUOUS
 62
     5
 10
510.7
 20
-3.6
 30
0.0
 40
6.1
 50
39.601965
 51
134.164539
  0
LINE
  8
DETAIL
  6
CONTINUOUS
 62
     5
 10
515.4
 20
0.0
 30
0.0
 11
506.9
 21
0.0
 31
0.0
  0
LINE
  8
DETAIL
  6
CONTINUOUS
 62
     5
 10
515.4
 20
0.0
 30
0.0
 11
515.4
 21
0.28845
 31
0.0
  0
LINE
  8
DETAIL
  6
CONTINUOUS
 62
     5
 10
506.9
 20
0.28845
 30
0.0
 11
515.4
 21
0.28845
 31
0.0
  0
LINE
  8
DETAIL
  6
CONTINUOUS
 62
     5
 10
519.7
 20
-1.2
 30
0.0
 11
518.9
 21
-1.2
 31
0.0
  0
ARC
  8
DETAIL
  6
CONTINUOUS
 62
     5
 10
518.5
 20
-1.2
 30
0.0
 40
1.2
 50
0.0
 51
70.528779
  0
LINE
  8
DETAIL
  6
CONTINUOUS
 62
     5
 10
519.7
 20
-1.6
 30
0.0
 11
519.7
 21
-1.2
 31
0.0
  0
LINE
  8
DETAIL
  6
CONTINUOUS
 62
     5
 10
518.9
 20
0.0
 30
0.0
 11
518.9
 21
-1.6
 31
0.0
  0
LINE
  8
DETAIL
  6
CONTINUOUS
 62
     5
 10
520.5
 20
-1.6
 30
0.0
 11
518.9
 21
-1.6
 31
0.0
  0
LINE
  8
SIZE
  6
CONTINUOUS
 62
    30
 10
-372.372801
 20
0.0
 30
0.0
 11
-916.51687
 21
0.0
 31
0.0
  0
LINE
  8
SIZE
  6
CONTINUOUS
 62
    30
 10
-363.438993
 20
-350.0
 30
0.0
 11
-916.51687
 21
-350.0
 31
0.0
  0
LINE
  8
SIZE
  6
CONTINUOUS
 62
    30
 10
-896.51687
 20
-12.0
 30
0.0
 11
-896.51687
 21
-338.0
 31
0.0
  0
CIRCLE
  8
SIZE
  6
CONTINUOUS
 62
    30
 10
-896.51687
 20
0.0
 30
0.0
 40
6.0
  0
LINE
  8
SIZE
  6
CONTINUOUS
 62
    30
 10
-896.51687
 20
0.0
 30
0.0
 11
-896.51687
 21
-12.0
 31
0.0
  0
CIRCLE
  8
SIZE
  6
CONTINUOUS
 62
    30
 10
-896.51687
 20
-350.0
 30
0.0
 40
6.0
  0
LINE
  8
SIZE
  6
CONTINUOUS
 62
    30
 10
-896.51687
 20
-350.0
 30
0.0
 11
-896.51687
 21
-338.0
 31
0.0
  0
TEXT
  8
SIZE
  6
CONTINUOUS
 62
    30
 10
-921.51687
 20
-255.928
 30
0.0
 40
64.0
  1
350
 50
90.0
 41
0.9
 51
0.0
  7
STANDARD
 71
     0
 72
     1
 11
-921.51687
 21
-175.0
 31
0.0
210
0.0
220
0.0
230
1.0
  0
POINT
  8
DEFPOINTS
  6
CONTINUOUS
 62
    30
 10
-352.372801
 20
0.0
 30
0.0
  0
POINT
  8
DEFPOINTS
  6
CONTINUOUS
 62
    30
 10
-343.438993
 20
-350.0
 30
0.0
  0
POINT
  8
DEFPOINTS
  6
CONTINUOUS
 62
    30
 10
-896.51687
 20
-350.0
 30
0.0
  0
LINE
  8
SIZE
  6
CONTINUOUS
 62
    30
 10
-520.5
 20
-279.13397
 30
0.0
 11
-520.5
 21
-633.19451
 31
0.0
  0
LINE
  8
SIZE
  6
CONTINUOUS
 62
    30
 10
520.5
 20
-279.13397
 30
0.0
 11
520.5
 21
-633.19451
 31
0.0
  0
LINE
  8
SIZE
  6
CONTINUOUS
 62
    30
 10
-508.5
 20
-613.19451
 30
0.0
 11
508.5
 21
-613.19451
 31
0.0
  0
CIRCLE
  8
SIZE
  6
CONTINUOUS
 62
    30
 10
-520.5
 20
-613.19451
 30
0.0
 40
6.0
  0
LINE
  8
SIZE
  6
CONTINUOUS
 62
    30
 10
-520.5
 20
-613.19451
 30
0.0
 11
-508.5
 21
-613.19451
 31
0.0
  0
CIRCLE
  8
SIZE
  6
CONTINUOUS
 62
    30
 10
520.5
 20
-613.19451
 30
0.0
 40
6.0
  0
LINE
  8
SIZE
  6
CONTINUOUS
 62
    30
 10
520.5
 20
-613.19451
 30
0.0
 11
508.5
 21
-613.19451
 31
0.0
  0
TEXT
  8
SIZE
  6
CONTINUOUS
 62
    30
 10
-73.468
 20
-588.19451
 30
0.0
 40
64.0
  1
1041
 50
0.0
 41
0.9
 51
0.0
  7
STANDARD
 71
     0
 72
     1
 11
23.3
 21
-588.19451
 31
0.0
210
0.0
220
0.0
230
1.0
  0
POINT
  8
DEFPOINTS
  6
CONTINUOUS
 62
    30
 10
-520.5
 20
-259.13397
 30
0.0
  0
POINT
  8
DEFPOINTS
  6
CONTINUOUS
 62
    30
 10
520.5
 20
-259.13397
 30
0.0
  0
POINT
  8
DEFPOINTS
  6
CONTINUOUS
 62
    30
 10
520.5
 20
-613.19451
 30
0.0
  0
LINE
  8
OUTLINE
  6
CONTINUOUS
 62
     3
 10
-520.5
 20
0.0
 30
0.0
 11
-520.5
 21
-350.0
 31
0.0
  0
LINE
  8
OUTLINE
  6
CONTINUOUS
 62
     3
 10
-520.5
 20
0.0
 30
0.0
 11
520.5
 21
0.0
 31
0.0
  0
LINE
  8
OUTLINE
  6
CONTINUOUS
 62
     3
 10
520.5
 20
-350.0
 30
0.0
 11
520.5
 21
0.0
 31
0.0
  0
LINE
  8
OUTLINE
  6
CONTINUOUS
 62
     3
 10
-520.5
 20
-350.0
 30
0.0
 11
520.5
 21
-350.0
 31
0.0
  0
LINE
  8
SIZE
  6
CONTINUOUS
 62
    30
 10
-520.5
 20
-370.0
 30
0.0
 11
-520.5
 21
-633.19451
 31
0.0
  0
LINE
  8
SIZE
  6
CONTINUOUS
 62
    30
 10
-605.5
 20
-292.575568
 30
0.0
 11
-605.5
 21
-633.19451
 31
0.0
  0
LINE
  8
SIZE
  6
CONTINUOUS
 62
    30
 10
-532.5
 20
-613.19451
 30
0.0
 11
-593.5
 21
-613.19451
 31
0.0
  0
LINE
  8
SIZE
  6
CONTINUOUS
 62
    30
 10
-605.5
 20
-613.19451
 30
0.0
 11
-760.757143
 21
-613.19451
 31
0.0
  0
CIRCLE
  8
SIZE
  6
CONTINUOUS
 62
    30
 10
-520.5
 20
-613.19451
 30
0.0
 40
6.0
  0
LINE
  8
SIZE
  6
CONTINUOUS
 62
    30
 10
-520.5
 20
-613.19451
 30
0.0
 11
-532.5
 21
-613.19451
 31
0.0
  0
CIRCLE
  8
SIZE
  6
CONTINUOUS
 62
    30
 10
-605.5
 20
-613.19451
 30
0.0
 40
6.0
  0
LINE
  8
SIZE
  6
CONTINUOUS
 62
    30
 10
-605.5
 20
-613.19451
 30
0.0
 11
-593.5
 21
-613.19451
 31
0.0
  0
TEXT
  8
SIZE
  6
CONTINUOUS
 62
    30
 10
-742.696571
 20
-588.19451
 30
0.0
 40
64.0
  1
85
 50
0.0
 41
0.9
 51
0.0
  7
STANDARD
 71
     0
 72
     1
 11
-689.128571
 21
-588.19451
 31
0.0
210
0.0
220
0.0
230
1.0
  0
POINT
  8
DEFPOINTS
  6
CONTINUOUS
 62
    30
 10
-520.5
 20
-350.0
 30
0.0
  0
POINT
  8
DEFPOINTS
  6
CONTINUOUS
 62
    30
 10
-605.5
 20
-272.575568
 30
0.0
  0
POINT
  8
DEFPOINTS
  6
CONTINUOUS
 62
    30
 10
-605.5
 20
-613.19451
 30
0.0
  0
LINE
  8
SIZE
  6
CONTINUOUS
 62
    30
 10
520.5
 20
-370.0
 30
0.0
 11
520.5
 21
-633.19451
 31
0.0
  0
LINE
  8
SIZE
  6
CONTINUOUS
 62
    30
 10
605.5
 20
-299.106232
 30
0.0
 11
605.5
 21
-633.19451
 31
0.0
  0
LINE
  8
SIZE
  6
CONTINUOUS
 62
    30
 10
532.5
 20
-613.19451
 30
0.0
 11
593.5
 21
-613.19451
 31
0.0
  0
LINE
  8
SIZE
  6
CONTINUOUS
 62
    30
 10
605.5
 20
-613.19451
 30
0.0
 11
761.057143
 21
-613.19451
 31
0.0
  0
CIRCLE
  8
SIZE
  6
CONTINUOUS
 62
    30
 10
520.5
 20
-613.19451
 30
0.0
 40
6.0
  0
LINE
  8
SIZE
  6
CONTINUOUS
 62
    30
 10
520.5
 20
-613.19451
 30
0.0
 11
532.5
 21
-613.19451
 31
0.0
  0
CIRCLE
  8
SIZE
  6
CONTINUOUS
 62
    30
 10
605.5
 20
-613.19451
 30
0.0
 40
6.0
  0
LINE
  8
SIZE
  6
CONTINUOUS
 62
    30
 10
605.5
 20
-613.19451
 30
0.0
 11
593.5
 21
-613.19451
 31
0.0
  0
TEXT
  8
SIZE
  6
CONTINUOUS
 62
    30
 10
635.860571
 20
-588.19451
 30
0.0
 40
64.0
  1
85
 50
0.0
 41
0.9
 51
0.0
  7
STANDARD
 71
     0
 72
     1
 11
689.428571
 21
-588.19451
 31
0.0
210
0.0
220
0.0
230
1.0
  0
POINT
  8
DEFPOINTS
  6
CONTINUOUS
 62
    30
 10
520.5
 20
-350.0
 30
0.0
  0
POINT
  8
DEFPOINTS
  6
CONTINUOUS
 62
    30
 10
605.5
 20
-279.106232
 30
0.0
  0
POINT
  8
DEFPOINTS
  6
CONTINUOUS
 62
    30
 10
605.5
 20
-613.19451
 30
0.0
  0
LINE
  8
SIZE
  6
CONTINUOUS
 62
    30
 10
-616.7
 20
-42.0
 30
0.0
 11
-676.516871
 21
-42.0
 31
0.0
  0
LINE
  8
SIZE
  6
CONTINUOUS
 62
    30
 10
-616.7
 20
-284.0
 30
0.0
 11
-676.516871
 21
-284.0
 31
0.0
  0
LINE
  8
SIZE
  6
CONTINUOUS
 62
    30
 10
-656.516871
 20
-30.0
 30
0.0
 11
-656.516871
 21
-18.0
 31
0.0
  0
LINE
  8
SIZE
  6
CONTINUOUS
 62
    30
 10
-656.516871
 20
-296.0
 30
0.0
 11
-656.516871
 21
-308.0
 31
0.0
  0
LINE
  8
SIZE
  6
CONTINUOUS
 62
    30
 10
-656.516871
 20
-42.0
 30
0.0
 11
-656.516871
 21
-284.0
 31
0.0
  0
CIRCLE
  8
SIZE
  6
CONTINUOUS
 62
    30
 10
-656.516871
 20
-42.0
 30
0.0
 40
6.0
  0
LINE
  8
SIZE
  6
CONTINUOUS
 62
    30
 10
-656.516871
 20
-42.0
 30
0.0
 11
-656.516871
 21
-30.0
 31
0.0
  0
CIRCLE
  8
SIZE
  6
CONTINUOUS
 62
    30
 10
-656.516871
 20
-284.0
 30
0.0
 40
6.0
  0
LINE
  8
SIZE
  6
CONTINUOUS
 62
    30
 10
-656.516871
 20
-284.0
 30
0.0
 11
-656.516871
 21
-296.0
 31
0.0
  0
TEXT
  8
SIZE
  6
CONTINUOUS
 62
    30
 10
-681.516871
 20
-278.488
 30
0.0
 40
64.0
  1
φ242
 50
90.0
 41
0.9
 51
0.0
  7
STANDARD
 71
     0
 72
     1
 11
-681.516871
 21
-163.0
 31
0.0
210
0.0
220
0.0
230
1.0
  0
POINT
  8
DEFPOINTS
  6
CONTINUOUS
 62
    30
 10
-596.7
 20
-42.0
 30
0.0
  0
POINT
  8
DEFPOINTS
  6
CONTINUOUS
 62
    30
 10
-596.7
 20
-284.0
 30
0.0
  0
POINT
  8
DEFPOINTS
  6
CONTINUOUS
 62
    30
 10
-656.516871
 20
-284.0
 30
0.0
  0
LINE
  8
SIZE
  6
CONTINUOUS
 62
    30
 10
-542.291839
 20
-33.999983
 30
0.0
 11
-796.51687
 21
-33.999983
 31
0.0
  0
LINE
  8
SIZE
  6
CONTINUOUS
 62
    30
 10
-542.3
 20
-292.0
 30
0.0
 11
-796.51687
 21
-292.0
 31
0.0
  0
LINE
  8
SIZE
  6
CONTINUOUS
 62
    30
 10
-776.51687
 20
-45.999983
 30
0.0
 11
-776.51687
 21
-280.0
 31
0.0
  0
CIRCLE
  8
SIZE
  6
CONTINUOUS
 62
    30
 10
-776.51687
 20
-33.999983
 30
0.0
 40
6.0
  0
LINE
  8
SIZE
  6
CONTINUOUS
 62
    30
 10
-776.51687
 20
-33.999983
 30
0.0
 11
-776.51687
 21
-45.999983
 31
0.0
  0
CIRCLE
  8
SIZE
  6
CONTINUOUS
 62
    30
 10
-776.51687
 20
-292.0
 30
0.0
 40
6.0
  0
LINE
  8
SIZE
  6
CONTINUOUS
 62
    30
 10
-776.51687
 20
-292.0
 30
0.0
 11
-776.51687
 21
-280.0
 31
0.0
  0
TEXT
  8
SIZE
  6
CONTINUOUS
 62
    30
 10
-801.51687
 20
-277.911992
 30
0.0
 40
64.0
  1
φ258
 50
90.0
 41
0.9
 51
0.0
  7
STANDARD
 71
     0
 72
     1
 11
-801.51687
 21
-162.999992
 31
0.0
210
0.0
220
0.0
230
1.0
  0
POINT
  8
DEFPOINTS
  6
CONTINUOUS
 62
    30
 10
-522.291839
 20
-33.999983
 30
0.0
  0
POINT
  8
DEFPOINTS
  6
CONTINUOUS
 62
    30
 10
-522.3
 20
-292.0
 30
0.0
  0
POINT
  8
DEFPOINTS
  6
CONTINUOUS
 62
    30
 10
-776.51687
 20
-292.0
 30
0.0
  0
LINE
  8
SIZE
  6
CONTINUOUS
 62
    30
 10
179.5
 20
-357.568303
 30
0.0
 11
179.5
 21
-513.19451
 31
0.0
  0
LINE
  8
SIZE
  6
CONTINUOUS
 62
    30
 10
-209.5
 20
-355.794402
 30
0.0
 11
-209.5
 21
-513.19451
 31
0.0
  0
LINE
  8
SIZE
  6
CONTINUOUS
 62
    30
 10
167.5
 20
-493.19451
 30
0.0
 11
-197.5
 21
-493.19451
 31
0.0
  0
CIRCLE
  8
SIZE
  6
CONTINUOUS
 62
    30
 10
179.5
 20
-493.19451
 30
0.0
 40
6.0
  0
LINE
  8
SIZE
  6
CONTINUOUS
 62
    30
 10
179.5
 20
-493.19451
 30
0.0
 11
167.5
 21
-493.19451
 31
0.0
  0
CIRCLE
  8
SIZE
  6
CONTINUOUS
 62
    30
 10
-209.5
 20
-493.19451
 30
0.0
 40
6.0
  0
LINE
  8
SIZE
  6
CONTINUOUS
 62
    30
 10
-209.5
 20
-493.19451
 30
0.0
 11
-197.5
 21
-493.19451
 31
0.0
  0
TEXT
  8
SIZE
  6
CONTINUOUS
 62
    30
 10
-95.352
 20
-468.19451
 30
0.0
 40
64.0
  1
389
 50
0.0
 41
0.9
 51
0.0
  7
STANDARD
 71
     0
 72
     1
 11
-15.0
 21
-468.19451
 31
0.0
210
0.0
220
0.0
230
1.0
  0
POINT
  8
DEFPOINTS
  6
CONTINUOUS
 62
    30
 10
179.5
 20
-337.568303
 30
0.0
  0
POINT
  8
DEFPOINTS
  6
CONTINUOUS
 62
    30
 10
-209.5
 20
-335.794402
 30
0.0
  0
POINT
  8
DEFPOINTS
  6
CONTINUOUS
 62
    30
 10
-209.5
 20
-493.19451
 30
0.0
  0
LINE
  8
SIZE
  6
CONTINUOUS
 62
    30
 10
520.5
 20
-360.253602
 30
0.0
 11
520.5
 21
-513.19451
 31
0.0
  0
LINE
  8
SIZE
  6
CONTINUOUS
 62
    30
 10
179.5
 20
-336.480067
 30
0.0
 11
179.5
 21
-513.19451
 31
0.0
  0
LINE
  8
SIZE
  6
CONTINUOUS
 62
    30
 10
508.5
 20
-493.19451
 30
0.0
 11
191.5
 21
-493.19451
 31
0.0
  0
CIRCLE
  8
SIZE
  6
CONTINUOUS
 62
    30
 10
520.5
 20
-493.19451
 30
0.0
 40
6.0
  0
LINE
  8
SIZE
  6
CONTINUOUS
 62
    30
 10
520.5
 20
-493.19451
 30
0.0
 11
508.5
 21
-493.19451
 31
0.0
  0
CIRCLE
  8
SIZE
  6
CONTINUOUS
 62
    30
 10
179.5
 20
-493.19451
 30
0.0
 40
6.0
  0
LINE
  8
SIZE
  6
CONTINUOUS
 62
    30
 10
179.5
 20
-493.19451
 30
0.0
 11
191.5
 21
-493.19451
 31
0.0
  0
TEXT
  8
SIZE
  6
CONTINUOUS
 62
    30
 10
247.832
 20
-468.19451
 30
0.0
 40
64.0
  1
341
 50
0.0
 41
0.9
 51
0.0
  7
STANDARD
 71
     0
 72
     1
 11
323.0
 21
-468.19451
 31
0.0
210
0.0
220
0.0
230
1.0
  0
POINT
  8
DEFPOINTS
  6
CONTINUOUS
 62
    30
 10
520.5
 20
-340.253602
 30
0.0
  0
POINT
  8
DEFPOINTS
  6
CONTINUOUS
 62
    30
 10
179.5
 20
-316.480067
 30
0.0
  0
POINT
  8
DEFPOINTS
  6
CONTINUOUS
 62
    30
 10
179.5
 20
-493.19451
 30
0.0
  0
LINE
  8
NOTE
  6
CONTINUOUS
 62
     4
 10
502.8
 20
-151.718936
 30
0.0
 11
502.8
 21
-181.219285
 31
0.0
  0
LINE
  8
NOTE
  6
CONTINUOUS
 62
     4
 39
50.0
 10
486.9
 20
-165.6
 30
0.0
 11
517.368444
 21
-165.6
 31
0.0
  0
LINE
  8
NOTE
  6
CONTINUOUS
 62
     4
 39
50.0
 10
502.8
 20
-165.6
 30
0.0
 11
367.420836
 21
110.73009
 31
0.0
  0
LINE
  8
NOTE
  6
CONTINUOUS
 62
     4
 39
50.0
 10
367.420836
 20
110.73009
 30
0.0
 11
168.232311
 21
110.73009
 31
0.0
  0
LINE
  8
NOTE
  6
CONTINUOUS
 62
     4
 39
50.0
 10
502.8
 20
-165.6
 30
0.0
 11
498.99601
 21
-147.842014
 31
0.0
  0
LINE
  8
NOTE
  6
CONTINUOUS
 62
     4
 39
50.0
 10
502.8
 20
-165.6
 30
0.0
 11
491.511999
 21
-154.152867
 31
0.0
  0
TEXT
  8
NOTE
  6
CONTINUOUS
 62
     4
 10
191.572065
 20
134.219873
 30
0.0
 40
40.0
  1
AH-4
 41
0.9
  0
LINE
  8
NOTE
  6
CONTINUOUS
 62
     4
 10
-502.2
 20
-151.718936
 30
0.0
 11
-502.2
 21
-181.219285
 31
0.0
  0
LINE
  8
NOTE
  6
CONTINUOUS
 62
     4
 39
50.0
 10
-518.1
 20
-165.6
 30
0.0
 11
-487.631556
 21
-165.6
 31
0.0
  0
LINE
  8
NOTE
  6
CONTINUOUS
 62
     4
 39
50.0
 10
-10.5
 20
-52.5
 30
0.0
 11
-177.769062
 21
180.293004
 31
0.0
  0
LINE
  8
NOTE
  6
CONTINUOUS
 62
     4
 39
50.0
 10
-10.5
 20
-52.5
 30
0.0
 11
-16.212211
 21
-32.011965
 31
0.0
  0
LINE
  8
NOTE
  6
CONTINUOUS
 62
     4
 39
50.0
 10
-10.5
 20
-52.5
 30
0.0
 11
-28.701022
 21
-40.36166
 31
0.0
  0
LINE
  8
NOTE
  6
CONTINUOUS
 62
     4
 39
50.0
 10
-177.769062
 20
180.293004
 30
0.0
 11
-415.137635
 21
180.293004
 31
0.0
  0
TEXT
  8
NOTE
  6
CONTINUOUS
 62
     4
 10
-400.001949
 20
197.820527
 30
0.0
 40
40.0
  1
端子カバー
 41
0.9
  0
LINE
  8
NOTE
  6
CONTINUOUS
 62
     4
 39
50.0
 10
58.0
 20
-210.7
 30
0.0
 11
213.71092
 21
-756.697797
 31
0.0
  0
LINE
  8
NOTE
  6
CONTINUOUS
 62
     4
 39
50.0
 10
213.71092
 20
-756.697797
 30
0.0
 11
546.243676
 21
-756.697797
 31
0.0
  0
TEXT
  8
NOTE
  6
CONTINUOUS
 62
     4
 10
248.417364
 20
-743.102441
 30
0.0
 40
40.0
  1
M4アースネジ
 41
0.9
  0
LINE
  8
NOTE
  6
CONTINUOUS
 62
     4
 39
50.0
 10
58.0
 20
-210.7
 30
0.0
 11
56.178527
 21
-227.985984
 31
0.0
  0
LINE
  8
NOTE
  6
CONTINUOUS
 62
     4
 39
50.0
 10
58.0
 20
-210.7
 30
0.0
 11
68.831866
 21
-224.162531
 31
0.0
  0
LINE
  8
NOTE
  6
CONTINUOUS
 62
     4
 39
50.0
 10
-3.85
 20
-101.0
 30
0.0
 11
-174.20396
 21
68.848264
 31
0.0
  0
LINE
  8
NOTE
  6
CONTINUOUS
 62
     4
 39
50.0
 10
-174.20396
 20
68.848264
 30
0.0
 11
-252.85223
 21
68.848264
 31
0.0
  0
LINE
  8
NOTE
  6
CONTINUOUS
 62
     4
 39
50.0
 10
-3.85
 20
-101.0
 30
0.0
 11
-17.265315
 21
-96.512586
 31
0.0
  0
LINE
  8
NOTE
  6
CONTINUOUS
 62
     4
 39
50.0
 10
-3.85
 20
-101.0
 30
0.0
 11
-8.1624
 21
-86.01464
 31
0.0
  0
TEXT
  8
NOTE
  6
CONTINUOUS
 62
     4
 10
-239.137701
 20
81.048604
 30
0.0
 40
40.0
  1
EL
 41
0.9
  0
LINE
  8
SIZE
  6
CONTINUOUS
 62
    30
 10
502.8
 20
-133.614103
 30
0.0
 11
502.8
 21
309.547181
 31
0.0
  0
LINE
  8
SIZE
  6
CONTINUOUS
 62
    30
 10
-502.2
 20
-133.614103
 30
0.0
 11
-502.2
 21
309.547181
 31
0.0
  0
LINE
  8
SIZE
  6
CONTINUOUS
 62
    30
 10
490.8
 20
289.547181
 30
0.0
 11
-490.2
 21
289.547181
 31
0.0
  0
CIRCLE
  8
SIZE
  6
CONTINUOUS
 62
    30
 10
502.8
 20
289.547181
 30
0.0
 40
6.0
  0
LINE
  8
SIZE
  6
CONTINUOUS
 62
    30
 10
502.8
 20
289.547181
 30
0.0
 11
490.8
 21
289.547181
 31
0.0
  0
CIRCLE
  8
SIZE
  6
CONTINUOUS
 62
    30
 10
-502.2
 20
289.547181
 30
0.0
 40
6.0
  0
LINE
  8
SIZE
  6
CONTINUOUS
 62
    30
 10
-502.2
 20
289.547181
 30
0.0
 11
-490.2
 21
289.547181
 31
0.0
  0
TEXT
  8
SIZE
  6
CONTINUOUS
 62
    30
 10
-102.228
 20
314.547181
 30
0.0
 40
64.0
  1
1005
 50
0.0
 41
0.9
 51
0.0
  7
STANDARD
 71
     0
 72
     1
 11
0.3
 21
314.547181
 31
0.0
210
0.0
220
0.0
230
1.0
  0
POINT
  8
DEFPOINTS
  6
CONTINUOUS
 62
    30
 10
502.8
 20
-153.614103
 30
0.0
  0
POINT
  8
DEFPOINTS
  6
CONTINUOUS
 62
    30
 10
-502.2
 20
-153.614103
 30
0.0
  0
POINT
  8
DEFPOINTS
  6
CONTINUOUS
 62
    30
 10
-502.2
 20
289.547181
 30
0.0
  0
LINE
  8
SIZE
  6
CONTINUOUS
 62
    30
 10
-523.5
 20
-153.129229
 30
0.0
 11
-523.5
 21
429.547181
 31
0.0
  0
LINE
  8
SIZE
  6
CONTINUOUS
 62
    30
 10
523.5
 20
-153.129229
 30
0.0
 11
523.5
 21
429.547181
 31
0.0
  0
LINE
  8
SIZE
  6
CONTINUOUS
 62
    30
 10
-511.5
 20
409.547181
 30
0.0
 11
511.5
 21
409.547181
 31
0.0
  0
CIRCLE
  8
SIZE
  6
CONTINUOUS
 62
    30
 10
-523.5
 20
409.547181
 30
0.0
 40
6.0
  0
LINE
  8
SIZE
  6
CONTINUOUS
 62
    30
 10
-523.5
 20
409.547181
 30
0.0
 11
-511.5
 21
409.547181
 31
0.0
  0
CIRCLE
  8
SIZE
  6
CONTINUOUS
 62
    30
 10
523.5
 20
409.547181
 30
0.0
 40
6.0
  0
LINE
  8
SIZE
  6
CONTINUOUS
 62
    30
 10
523.5
 20
409.547181
 30
0.0
 11
511.5
 21
409.547181
 31
0.0
  0
TEXT
  8
SIZE
  6
CONTINUOUS
 62
    30
 10
-102.528
 20
434.547181
 30
0.0
 40
64.0
  1
1047
 50
0.0
 41
0.9
 51
0.0
  7
STANDARD
 71
     0
 72
     1
 11
0.0
 21
434.547181
 31
0.0
210
0.0
220
0.0
230
1.0
  0
POINT
  8
DEFPOINTS
  6
CONTINUOUS
 62
    30
 10
-523.5
 20
-173.129229
 30
0.0
  0
POINT
  8
DEFPOINTS
  6
CONTINUOUS
 62
    30
 10
523.5
 20
-173.129229
 30
0.0
  0
POINT
  8
DEFPOINTS
  6
CONTINUOUS
 62
    30
 10
523.5
 20
409.547181
 30
0.0
  0
CIRCLE
  8
FIX
  6
CONTINUOUS
 62
    11
 39
50.0
 10
502.8
 20
-165.6
 30
0.0
 40
5.5
  0
CIRCLE
  8
FIX
  6
CONTINUOUS
 62
    11
 39
50.0
 10
-502.2
 20
-165.6
 30
0.0
 40
5.5
  0
ENDSEC
  0
EOF
