  0
SECTION
  2
HEADER
  9
$ACADVER
  1
AC1009
  9
$INSBASE
 10
0.0
 20
0.0
 30
0.0
  9
$EXTMIN
 10
-1093.558
 20
-839.64919299999985
 30
0.0
  9
$EXTMAX
 10
1342.324232282846
 20
911.69659183786644
 30
0.0
  9
$LIMMIN
 10
-2970.0
 20
-2100.0
  9
$LIMMAX
 10
2970.0
 20
2100.0
  9
$ORTHOMODE
 70
     0
  9
$REGENMODE
 70
     0
  9
$FILLMODE
 70
     1
  9
$QTEXTMODE
 70
     0
  9
$MIRRTEXT
 70
     0
  9
$DRAGMODE
 70
     2
  9
$LTSCALE
 40
20.0
  9
$OSMODE
 70
    37
  9
$ATTMODE
 70
     1
  9
$TEXTSIZE
 40
64.0
  9
$TRACEWID
 40
0.05
  9
$TEXTSTYLE
  7
STANDARD
  9
$CLAYER
  8
0
  9
$CELTYPE
  6
CONTINUOUS
  9
$CECOLOR
 62
     1
  9
$DIMSCALE
 40
1.0
  9
$DIMASZ
 40
2.0
  9
$DIMEXO
 40
20.0
  9
$DIMDLI
 40
200.0
  9
$DIMRND
 40
0.0
  9
$DIMDLE
 40
0.0
  9
$DIMEXE
 40
30.0
  9
$DIMTP
 40
0.0
  9
$DIMTM
 40
0.0
  9
$DIMTXT
 40
64.0
  9
$DIMCEN
 40
0.09
  9
$DIMTSZ
 40
0.0
  9
$DIMTOL
 70
     0
  9
$DIMLIM
 70
     0
  9
$DIMTIH
 70
     0
  9
$DIMTOH
 70
     0
  9
$DIMSE1
 70
     0
  9
$DIMSE2
 70
     0
  9
$DIMTAD
 70
     1
  9
$DIMZIN
 70
     8
  9
$DIMBLK
  1

  9
$DIMASO
 70
     1
  9
$DIMSHO
 70
     0
  9
$DIMPOST
  1

  9
$DIMAPOST
  1

  9
$DIMALT
 70
     0
  9
$DIMALTD
 70
     2
  9
$DIMALTF
 40
25.399999999999999
  9
$DIMLFAC
 40
1.0
  9
$DIMTOFL
 70
     1
  9
$DIMTVP
 40
0.0
  9
$DIMTIX
 70
     1
  9
$DIMSOXD
 70
     0
  9
$DIMSAH
 70
     0
  9
$DIMBLK1
  1

  9
$DIMBLK2
  1

  9
$DIMSTYLE
  2
STANDARD
  9
$DIMCLRD
 70
     0
  9
$DIMCLRE
 70
     0
  9
$DIMCLRT
 70
     0
  9
$DIMTFAC
 40
1.0
  9
$DIMGAP
 40
0.09
  9
$LUNITS
 70
     2
  9
$LUPREC
 70
     4
  9
$SKETCHINC
 40
0.1
  9
$FILLETRAD
 40
5.0
  9
$AUNITS
 70
     1
  9
$AUPREC
 70
     3
  9
$MENU
  1
ACAD
  9
$ELEVATION
 40
0.0
  9
$PELEVATION
 40
0.0
  9
$THICKNESS
 40
0.0
  9
$LIMCHECK
 70
     1
  9
$BLIPMODE
 70
     0
  9
$CHAMFERA
 40
0.0
  9
$CHAMFERB
 40
0.0
  9
$SKPOLY
 70
     0
  9
$TDCREATE
 40
2450667.5757175931
  9
$TDUPDATE
 40
2454922.4679632639
  9
$TDINDWG
 40
0.0395007755
  9
$TDUSRTIMER
 40
0.0394984259
  9
$USRTIMER
 70
     1
  9
$ANGBASE
 50
0.0
  9
$ANGDIR
 70
     0
  9
$PDMODE
 70
     3
  9
$PDSIZE
 40
-2.0
  9
$PLINEWID
 40
0.0
  9
$COORDS
 70
     0
  9
$SPLFRAME
 70
     0
  9
$SPLINETYPE
 70
     6
  9
$SPLINESEGS
 70
     8
  9
$ATTDIA
 70
     0
  9
$ATTREQ
 70
     1
  9
$HANDLING
 70
     1
  9
$HANDSEED
  5
1A7
  9
$SURFTAB1
 70
     6
  9
$SURFTAB2
 70
     6
  9
$SURFTYPE
 70
     6
  9
$SURFU
 70
     6
  9
$SURFV
 70
     6
  9
$UCSNAME
  2

  9
$UCSORG
 10
0.0
 20
0.0
 30
0.0
  9
$UCSXDIR
 10
1.0
 20
0.0
 30
0.0
  9
$UCSYDIR
 10
0.0
 20
1.0
 30
0.0
  9
$PUCSNAME
  2

  9
$PUCSORG
 10
0.0
 20
0.0
 30
0.0
  9
$PUCSXDIR
 10
1.0
 20
0.0
 30
0.0
  9
$PUCSYDIR
 10
0.0
 20
1.0
 30
0.0
  9
$USERI1
 70
     0
  9
$USERI2
 70
     0
  9
$USERI3
 70
     0
  9
$USERI4
 70
     0
  9
$USERI5
 70
     0
  9
$USERR1
 40
20.0
  9
$USERR2
 40
0.0
  9
$USERR3
 40
0.0
  9
$USERR4
 40
0.0
  9
$USERR5
 40
0.0
  9
$WORLDVIEW
 70
     1
  9
$SHADEDGE
 70
     3
  9
$SHADEDIF
 70
    70
  9
$TILEMODE
 70
     1
  9
$MAXACTVP
 70
    64
  9
$PLIMCHECK
 70
     0
  9
$PEXTMIN
 10
1.0000000000000000E+020
 20
1.0000000000000000E+020
 30
1.0000000000000000E+020
  9
$PEXTMAX
 10
-1.0000000000000000E+020
 20
-1.0000000000000000E+020
 30
-1.0000000000000000E+020
  9
$PLIMMIN
 10
0.0
 20
0.0
  9
$PLIMMAX
 10
12.0
 20
9.0
  9
$UNITMODE
 70
     0
  9
$VISRETAIN
 70
     1
  9
$PLINEGEN
 70
     0
  9
$PSLTSCALE
 70
     1
  0
ENDSEC
  0
SECTION
  2
TABLES
  0
TABLE
  2
VPORT
 70
     1
  0
VPORT
  2
*ACTIVE
 70
     0
 10
0.0
 20
0.0
 11
1.0
 21
1.0
 12
336.07093120743252
 22
138.20538589404231
 13
0.0
 23
0.0
 14
400.0
 24
400.0
 15
400.0
 25
400.0
 16
0.0
 26
0.0
 36
1.0
 17
0.0
 27
0.0
 37
0.0
 40
2284.4638064070691
 41
1.3426470588235291
 42
50.0
 43
0.0
 44
0.0
 50
0.0
 51
0.0
 71
     0
 72
  1000
 73
     1
 74
     0
 75
     0
 76
     0
 77
     0
 78
     1
  0
ENDTAB
  0
TABLE
  2
LTYPE
 70
     8
  0
LTYPE
  2
CONTINUOUS
 70
     0
  3
実線
 72
    65
 73
     0
 40
0.0
  0
LTYPE
  2
DASHDOT
 70
     0
  3
____ _ ____ _ ____ _ ____ _ ____ _ ____ _ ____
 72
    65
 73
     4
 40
5.5
 49
4.0
 49
-0.6
 49
0.3
 49
-0.6
  0
LTYPE
  2
DASHED
 70
     0
  3
_ _ _ _ _ _ _ _ _ _ _ _ _ _ _ _ _ _ _ _ _ _ _
 72
    65
 73
     2
 40
2.0
 49
1.1999999999999991
 49
-0.8
  0
LTYPE
  2
DOT
 70
     0
  3
...............................................
 72
    65
 73
     2
 40
0.8
 49
0.5
 49
-0.3
  0
LTYPE
  2
DASHDOT1
 70
     0
  3
____ _ ____ _ ____ _ ____ _ ____ _ ____ _ ____
 72
    65
 73
     4
 40
2.0
 49
1.5
 49
-0.2
 49
0.1
 49
-0.2
  0
LTYPE
  2
DIVIDE
 70
     0
  3
_____ _ _ _____ _ _ _____ _ _ _____ _ _ ____
 72
    65
 73
     6
 40
6.4000000000000004
 49
4.0
 49
-0.6
 49
0.3
 49
-0.6
 49
0.3
 49
-0.6
  0
LTYPE
  2
DIVIDE1
 70
     0
  3
_____ _ _ _____ _ _ _____ _ _ _____ _ _ ____
 72
    65
 73
     6
 40
3.2000000000000002
 49
2.0
 49
-0.3
 49
0.15
 49
-0.3
 49
0.15
 49
-0.3
  0
ENDTAB
  0
TABLE
  2
LAYER
 70
    12
  0
LAYER
  2
0
 70
     0
 62
     7
  6
CONTINUOUS
  0
LAYER
  2
OUTLINE
 70
     0
 62
     3
  6
CONTINUOUS
  0
LAYER
  2
DETAIL
 70
     0
 62
     5
  6
CONTINUOUS
  0
LAYER
  2
BASIS
 70
     0
 62
     6
  6
DASHDOT
  0
LAYER
  2
SIZE
 70
     0
 62
    30
  6
CONTINUOUS
  0
LAYER
  2
NOTE
 70
     0
 62
     4
  6
CONTINUOUS
  0
LAYER
  2
DEFPOINTS
 70
     0
 62
     7
  6
CONTINUOUS
  0
LAYER
  2
ETC
 70
     0
 62
    61
  6
CONTINUOUS
  0
LAYER
  2
FIX
 70
     0
 62
    11
  6
CONTINUOUS
  0
LAYER
  2
ARRANGE
 70
     0
 62
     1
  6
CONTINUOUS
  0
LAYER
  2
SERVICESPACE
 70
     0
 62
     2
  6
DASHDOT
  0
LAYER
  2
SYMBOLLINE
 70
     0
 62
    15
  6
CONTINUOUS
  0
ENDTAB
  0
TABLE
  2
STYLE
 70
     2
  0
STYLE
  2
STANDARD
 70
     0
 40
0.0
 41
0.9
 50
0.0
 71
     0
 42
64.0
  3
SIMPLEX
  4
BIGFONT
  0
STYLE
  2
ANNOTATIVE
 70
     0
 40
0.0
 41
1.0
 50
0.0
 71
     0
 42
0.2
  3
txt
  4

  0
ENDTAB
  0
TABLE
  2
VIEW
 70
     1
  0
VIEW
  2
ALL
 70
     0
 40
4508.0208510000002
 10
0.0
 20
41.309903999999989
 41
6252.631578999999
 11
0.0
 21
0.0
 31
1.0
 12
0.0
 22
0.0
 32
0.0
 42
50.0
 43
0.0
 44
0.0
 50
0.0
 71
     0
  0
ENDTAB
  0
TABLE
  2
UCS
 70
     0
  0
ENDTAB
  0
TABLE
  2
APPID
 70
     4
  0
APPID
  2
ACAD
 70
     0
  0
APPID
  2
ACADANNOTATIVE
 70
     0
  0
APPID
  2
ACAD_MLEADERVER
 70
     0
  0
APPID
  2
ACAD_EXEMPT_FROM_CAD_STANDARDS
 70
     0
  0
ENDTAB
  0
TABLE
  2
DIMSTYLE
 70
     2
  0
DIMSTYLE
  2
STANDARD
 70
     0
  3

  4

  5

  6

  7

 40
1.0
 41
0.18
 42
0.0625
 43
0.38
 44
0.18
 45
0.0
 46
0.0
 47
0.0
 48
0.0
140
0.18
141
0.09
142
0.0
143
25.399999999999999
144
1.0
145
0.0
146
1.0
147
0.09
 71
     0
 72
     0
 73
     1
 74
     1
 75
     0
 76
     0
 77
     0
 78
     0
170
     0
171
     2
172
     0
173
     0
174
     0
175
     0
176
     0
177
     0
178
     0
  0
DIMSTYLE
  2
ANNOTATIVE
 70
     0
  3

  4

  5

  6

  7

 40
1.0
 41
0.18
 42
0.0625
 43
0.38
 44
0.18
 45
0.0
 46
0.0
 47
0.0
 48
0.0
140
0.18
141
0.09
142
0.0
143
25.399999999999999
144
1.0
145
0.0
146
1.0
147
0.09
 71
     0
 72
     0
 73
     1
 74
     1
 75
     0
 76
     0
 77
     0
 78
     0
170
     0
171
     2
172
     0
173
     0
174
     0
175
     0
176
     0
177
     0
178
     0
  0
ENDTAB
  0
ENDSEC
  0
SECTION
  2
BLOCKS
  0
BLOCK
  8
0
  2
$MODEL_SPACE
 70
     0
 10
0.0
 20
0.0
 30
0.0
  3
$MODEL_SPACE
  1

  0
ENDBLK
  5
76
  8
0
  0
BLOCK
 67
     1
  8
0
  2
$PAPER_SPACE
 70
     0
 10
0.0
 20
0.0
 30
0.0
  3
$PAPER_SPACE
  1

  0
ENDBLK
  5
72
 67
     1
  8
0
  0
ENDSEC
  0
SECTION
  2
ENTITIES
  0
TEXT
  5
8E
  8
ETC
  6
CONTINUOUS
 62
    61
 10
735.42490599999985
 20
581.40631799999994
 30
0.0
 40
64.0
  1
BFS-150SSU3
 41
0.9
  0
LINE
  5
8F
  8
BASIS
  6
DASHDOT
 62
     6
 10
0.0
 20
-543.44729199999995
 30
0.0
 11
0.0
 21
511.43237800000003
 31
0.0
  0
LINE
  5
90
  8
BASIS
  6
DASHDOT
 62
     6
 10
-294.207402
 20
0.0
 30
0.0
 11
290.58994899999999
 21
0.0
 31
0.0
  0
POINT
  5
91
  8
ARRANGE
  6
CONTINUOUS
 62
     1
 10
0.0
 20
0.0
 30
0.0
  0
TEXT
  5
92
  8
ETC
  6
CONTINUOUS
 62
    61
 10
739.89140199999986
 20
715.40530599999988
 30
0.0
 40
64.0
  1
産業扇
 41
0.9
  0
CIRCLE
  5
93
  8
ARRANGE
  6
CONTINUOUS
 62
     1
 10
0.0
 20
0.0
 30
0.0
 40
40.0
  0
LINE
  5
94
  8
NOTE
  6
CONTINUOUS
 62
     4
 10
-620.53887399999996
 20
489.47117100000003
 30
0.0
 11
-438.0341249999999
 21
489.47117100000003
 31
0.0
  0
TEXT
  5
95
  8
NOTE
  6
CONTINUOUS
 62
     4
 10
-592.59243700000002
 20
504.58249000000001
 30
0.0
 40
64.0
  1
AH
 41
0.9
  0
LINE
  5
96
  8
NOTE
  6
CONTINUOUS
 62
     4
 10
-383.42706600000008
 20
-505.63660499999997
 30
0.0
 11
-562.52091299999995
 21
-505.63660499999997
 31
0.0
  0
TEXT
  5
97
  8
NOTE
  6
CONTINUOUS
 62
     4
 10
-535.37859299999991
 20
-484.96363699999989
 30
0.0
 40
64.0
  1
AH
 41
0.9
  0
LINE
  5
98
  8
DETAIL
  6
CONTINUOUS
 62
     5
 10
-218.0
 20
387.5
 30
0.0
 11
218.0
 21
387.5
 31
0.0
  0
LINE
  5
99
  8
DETAIL
  6
CONTINUOUS
 62
     5
 10
218.0
 20
387.5
 30
0.0
 11
218.0
 21
-387.5
 31
0.0
  0
LINE
  5
9A
  8
DETAIL
  6
CONTINUOUS
 62
     5
 10
218.0
 20
-387.5
 30
0.0
 11
-218.0
 21
-387.5
 31
0.0
  0
LINE
  5
9B
  8
DETAIL
  6
CONTINUOUS
 62
     5
 10
-218.0
 20
-387.5
 30
0.0
 11
-218.0
 21
387.5
 31
0.0
  0
LINE
  5
9C
  8
DETAIL
  6
CONTINUOUS
 62
     5
 10
-184.40000000000001
 20
-389.80000000000001
 30
0.0
 11
-270.0
 21
-389.80000000000001
 31
0.0
  0
LINE
  5
9D
  8
DETAIL
  6
CONTINUOUS
 62
     5
 10
-184.40000000000001
 20
-389.80000000000001
 30
0.0
 11
-184.40000000000001
 21
-387.5
 31
0.0
  0
LINE
  5
9E
  8
DETAIL
  6
CONTINUOUS
 62
     5
 10
-270.0
 20
-389.80000000000001
 30
0.0
 11
-270.0
 21
-342.5
 31
0.0
  0
LINE
  5
9F
  8
DETAIL
  6
CONTINUOUS
 62
     5
 10
-270.0
 20
-342.5
 30
0.0
 11
-254.5
 21
-342.5
 31
0.0
  0
LINE
  5
A0
  8
DETAIL
  6
CONTINUOUS
 62
     5
 10
-254.5
 20
-342.5
 30
0.0
 11
-254.5
 21
-367.5
 31
0.0
  0
LINE
  5
A1
  8
DETAIL
  6
CONTINUOUS
 62
     5
 10
-240.5
 20
-367.5
 30
0.0
 11
-240.5
 21
-342.5
 31
0.0
  0
LINE
  5
A2
  8
DETAIL
  6
CONTINUOUS
 62
     5
 10
-240.5
 20
-342.5
 30
0.0
 11
-218.0
 21
-342.5
 31
0.0
  0
ARC
  5
A3
  8
DETAIL
  6
CONTINUOUS
 62
     5
 10
-247.5
 20
-367.5
 30
0.0
 40
7.0
 50
180.00000700000001
 51
0.0
  0
ARC
  5
A4
  8
DETAIL
  6
CONTINUOUS
 62
     5
 10
-247.5
 20
367.5
 30
0.0
 40
7.0
 50
0.0
 51
179.99999299999999
  0
LINE
  5
A5
  8
DETAIL
  6
CONTINUOUS
 62
     5
 10
-240.5
 20
342.5
 30
0.0
 11
-218.0
 21
342.5
 31
0.0
  0
LINE
  5
A6
  8
DETAIL
  6
CONTINUOUS
 62
     5
 10
-240.5
 20
367.5
 30
0.0
 11
-240.5
 21
342.5
 31
0.0
  0
LINE
  5
A7
  8
DETAIL
  6
CONTINUOUS
 62
     5
 10
-254.5
 20
342.5
 30
0.0
 11
-254.5
 21
367.5
 31
0.0
  0
LINE
  5
A8
  8
DETAIL
  6
CONTINUOUS
 62
     5
 10
-270.0
 20
342.5
 30
0.0
 11
-254.5
 21
342.5
 31
0.0
  0
LINE
  5
A9
  8
DETAIL
  6
CONTINUOUS
 62
     5
 10
-270.0
 20
389.80000000000001
 30
0.0
 11
-270.0
 21
342.5
 31
0.0
  0
LINE
  5
AA
  8
DETAIL
  6
CONTINUOUS
 62
     5
 10
-184.40000000000001
 20
389.80000000000001
 30
0.0
 11
-184.40000000000001
 21
387.5
 31
0.0
  0
LINE
  5
AB
  8
DETAIL
  6
CONTINUOUS
 62
     5
 10
-184.40000000000001
 20
389.80000000000001
 30
0.0
 11
-270.0
 21
389.80000000000001
 31
0.0
  0
ARC
  5
AC
  8
DETAIL
  6
CONTINUOUS
 62
     5
 10
247.5
 20
-367.5
 30
0.0
 40
7.0
 50
180.0
 51
359.99999300000002
  0
LINE
  5
AD
  8
DETAIL
  6
CONTINUOUS
 62
     5
 10
240.5
 20
-342.5
 30
0.0
 11
218.0
 21
-342.5
 31
0.0
  0
LINE
  5
AE
  8
DETAIL
  6
CONTINUOUS
 62
     5
 10
240.5
 20
-367.5
 30
0.0
 11
240.5
 21
-342.5
 31
0.0
  0
LINE
  5
AF
  8
DETAIL
  6
CONTINUOUS
 62
     5
 10
254.5
 20
-342.5
 30
0.0
 11
254.5
 21
-367.5
 31
0.0
  0
LINE
  5
B0
  8
DETAIL
  6
CONTINUOUS
 62
     5
 10
270.0
 20
-342.5
 30
0.0
 11
254.5
 21
-342.5
 31
0.0
  0
LINE
  5
B1
  8
DETAIL
  6
CONTINUOUS
 62
     5
 10
270.0
 20
-389.80000000000001
 30
0.0
 11
270.0
 21
-342.5
 31
0.0
  0
LINE
  5
B2
  8
DETAIL
  6
CONTINUOUS
 62
     5
 10
184.40000000000001
 20
-389.80000000000001
 30
0.0
 11
184.40000000000001
 21
-387.5
 31
0.0
  0
LINE
  5
B3
  8
DETAIL
  6
CONTINUOUS
 62
     5
 10
184.40000000000001
 20
-389.80000000000001
 30
0.0
 11
270.0
 21
-389.80000000000001
 31
0.0
  0
LINE
  5
B4
  8
DETAIL
  6
CONTINUOUS
 62
     5
 10
184.40000000000001
 20
389.80000000000001
 30
0.0
 11
270.0
 21
389.80000000000001
 31
0.0
  0
LINE
  5
B5
  8
DETAIL
  6
CONTINUOUS
 62
     5
 10
184.40000000000001
 20
389.80000000000001
 30
0.0
 11
184.40000000000001
 21
387.5
 31
0.0
  0
LINE
  5
B6
  8
DETAIL
  6
CONTINUOUS
 62
     5
 10
270.0
 20
389.80000000000001
 30
0.0
 11
270.0
 21
342.5
 31
0.0
  0
LINE
  5
B7
  8
DETAIL
  6
CONTINUOUS
 62
     5
 10
270.0
 20
342.5
 30
0.0
 11
254.5
 21
342.5
 31
0.0
  0
LINE
  5
B8
  8
DETAIL
  6
CONTINUOUS
 62
     5
 10
254.5
 20
342.5
 30
0.0
 11
254.5
 21
367.5
 31
0.0
  0
LINE
  5
B9
  8
DETAIL
  6
CONTINUOUS
 62
     5
 10
240.5
 20
367.5
 30
0.0
 11
240.5
 21
342.5
 31
0.0
  0
LINE
  5
BA
  8
DETAIL
  6
CONTINUOUS
 62
     5
 10
240.5
 20
342.5
 30
0.0
 11
218.0
 21
342.5
 31
0.0
  0
ARC
  5
BB
  8
DETAIL
  6
CONTINUOUS
 62
     5
 10
247.5
 20
367.5
 30
0.0
 40
7.0
 50
0.000007
 51
180.0
  0
CIRCLE
  5
BC
  8
FIX
  6
CONTINUOUS
 62
    11
 10
247.5
 20
367.5
 30
0.0
 40
7.0
  0
CIRCLE
  5
BD
  8
FIX
  6
CONTINUOUS
 62
    11
 10
-247.5
 20
367.5
 30
0.0
 40
7.0
  0
CIRCLE
  5
BE
  8
FIX
  6
CONTINUOUS
 62
    11
 10
-247.5
 20
-367.5
 30
0.0
 40
7.0
  0
CIRCLE
  5
BF
  8
FIX
  6
CONTINUOUS
 62
    11
 10
247.5
 20
-367.5
 30
0.0
 40
7.0
  0
LINE
  5
C0
  8
DETAIL
  6
CONTINUOUS
 62
     5
 10
-245.0
 20
-82.5
 30
0.0
 11
-245.0
 21
37.5
 31
0.0
  0
LINE
  5
C1
  8
DETAIL
  6
CONTINUOUS
 62
     5
 10
218.0
 20
385.0
 30
0.0
 11
-218.0
 21
385.0
 31
0.0
  0
LINE
  5
C2
  8
DETAIL
  6
CONTINUOUS
 62
     5
 10
218.0
 20
-385.0
 30
0.0
 11
-218.0
 21
-385.0
 31
0.0
  0
LINE
  5
C3
  8
NOTE
  6
CONTINUOUS
 62
     4
 10
376.69682799999998
 20
-632.52383999999995
 30
0.0
 11
868.13974499999995
 21
-632.52383999999995
 31
0.0
  0
LINE
  5
C4
  8
NOTE
  6
CONTINUOUS
 62
     4
 10
329.872612
 20
519.1358909999999
 30
0.0
 11
505.24048800000003
 21
519.1358909999999
 31
0.0
  0
TEXT
  5
C5
  8
NOTE
  6
CONTINUOUS
 62
     4
 10
374.30019600000003
 20
536.44996100000003
 30
0.0
 40
64.0
  1
AH
 41
0.9
  0
TEXT
  5
C6
  8
NOTE
  6
CONTINUOUS
 62
     4
 10
405.19842099999988
 20
-612.93195900000001
 30
0.0
 40
64.0
  1
AH 4-φ14
 41
0.9
  0
LINE
  5
C7
  8
DETAIL
  6
CONTINUOUS
 62
     5
 10
-121.0
 20
470.0
 30
0.0
 11
121.0
 21
470.0
 31
0.0
  0
LINE
  5
C8
  8
DETAIL
  6
CONTINUOUS
 62
     5
 10
-121.0
 20
462.5
 30
0.0
 11
121.0
 21
462.5
 31
0.0
  0
LINE
  5
C9
  8
DETAIL
  6
CONTINUOUS
 62
     5
 10
121.0
 20
-470.0
 30
0.0
 11
-121.0
 21
-470.0
 31
0.0
  0
LINE
  5
CA
  8
DETAIL
  6
CONTINUOUS
 62
     5
 10
121.0
 20
-462.5
 30
0.0
 11
-121.0
 21
-462.5
 31
0.0
  0
LINE
  5
CB
  8
NOTE
  6
CONTINUOUS
 62
     4
 10
247.5
 20
367.5
 30
0.0
 11
329.872612
 21
519.1358909999999
 31
0.0
  0
LINE
  5
CC
  8
NOTE
  6
CONTINUOUS
 62
     4
 10
247.5
 20
-367.5
 30
0.0
 11
376.69682799999998
 21
-632.52383999999995
 31
0.0
  0
LINE
  5
CD
  8
SIZE
  6
CONTINUOUS
 62
    30
 10
-218.0
 20
122.88308499999999
 30
0.0
 11
-93.466937000000016
 21
122.88308499999999
 31
0.0
  0
LINE
  5
CE
  8
NOTE
  6
CONTINUOUS
 62
     4
 10
-247.5
 20
-367.5
 30
0.0
 11
-383.42706600000008
 21
-505.63660499999997
 31
0.0
  0
LINE
  5
CF
  8
NOTE
  6
CONTINUOUS
 62
     4
 10
-247.5
 20
367.5
 30
0.0
 11
-438.0341249999999
 21
489.47117100000003
 31
0.0
  0
LINE
  5
D0
  8
DETAIL
  6
CONTINUOUS
 62
     5
 10
-121.0
 20
-470.0
 30
0.0
 11
-121.0
 21
-462.5
 31
0.0
  0
LINE
  5
D1
  8
DETAIL
  6
CONTINUOUS
 62
     5
 10
-121.0
 20
-462.5
 30
0.0
 11
-129.0
 21
-387.5
 31
0.0
  0
LINE
  5
D2
  8
DETAIL
  6
CONTINUOUS
 62
     5
 10
121.0
 20
-470.0
 30
0.0
 11
121.0
 21
-462.5
 31
0.0
  0
LINE
  5
D3
  8
DETAIL
  6
CONTINUOUS
 62
     5
 10
121.0
 20
-462.5
 30
0.0
 11
129.0
 21
-387.5
 31
0.0
  0
LINE
  5
D4
  8
DETAIL
  6
CONTINUOUS
 62
     5
 10
-121.0
 20
470.0
 30
0.0
 11
-121.0
 21
462.5
 31
0.0
  0
LINE
  5
D5
  8
DETAIL
  6
CONTINUOUS
 62
     5
 10
-121.0
 20
462.5
 30
0.0
 11
-129.0
 21
387.5
 31
0.0
  0
LINE
  5
D6
  8
DETAIL
  6
CONTINUOUS
 62
     5
 10
121.0
 20
470.0
 30
0.0
 11
121.0
 21
462.5
 31
0.0
  0
LINE
  5
D7
  8
DETAIL
  6
CONTINUOUS
 62
     5
 10
121.0
 20
462.5
 30
0.0
 11
129.0
 21
387.5
 31
0.0
  0
LINE
  5
D8
  8
OUTLINE
  6
CONTINUOUS
 62
     3
 10
-218.0
 20
-387.5
 30
0.0
 11
-218.0
 21
387.5
 31
0.0
  0
LINE
  5
D9
  8
OUTLINE
  6
CONTINUOUS
 62
     3
 10
218.0
 20
-387.5
 30
0.0
 11
-218.0
 21
-387.5
 31
0.0
  0
LINE
  5
DA
  8
OUTLINE
  6
CONTINUOUS
 62
     3
 10
218.0
 20
387.5
 30
0.0
 11
218.0
 21
-387.5
 31
0.0
  0
LINE
  5
DB
  8
OUTLINE
  6
CONTINUOUS
 62
     3
 10
-218.0
 20
387.5
 30
0.0
 11
218.0
 21
387.5
 31
0.0
  0
LINE
  5
DC
  8
DETAIL
  6
CONTINUOUS
 62
     5
 10
-218.0
 20
-87.5
 30
0.0
 11
-240.0
 21
-87.5
 31
0.0
  0
LINE
  5
DD
  8
DETAIL
  6
CONTINUOUS
 62
     5
 10
-218.0
 20
42.5
 30
0.0
 11
-240.0
 21
42.5
 31
0.0
  0
ARC
  5
DE
  8
DETAIL
  6
CONTINUOUS
 62
     5
 10
-240.0
 20
-82.5
 30
0.0
 40
5.0
 50
180.0
 51
270.0
  0
ARC
  5
DF
  8
DETAIL
  6
CONTINUOUS
 62
     5
 10
-240.0
 20
37.5
 30
0.0
 40
5.0
 50
90.0
 51
180.0
  0
LINE
  5
E0
  8
NOTE
  6
CONTINUOUS
 62
     4
 10
-245.0
 20
-22.5
 30
0.0
 11
-588.82876999999985
 21
-296.04328600000002
 31
0.0
  0
LINE
  5
E1
  8
NOTE
  6
CONTINUOUS
 62
     4
 10
-588.82876999999985
 20
-296.04328600000002
 30
0.0
 11
-1093.558
 21
-296.04328600000002
 31
0.0
  0
TEXT
  5
E2
  8
NOTE
  6
CONTINUOUS
 62
     4
 10
-1087.8109999999999
 20
-261.81302099999999
 30
0.0
 40
64.0
  1
端子カバー(EL)
 41
0.9
  0
LINE
  5
E3
  8
SIZE
  6
BYBLOCK
 62
    30
 10
-218.0
 20
62.5
 30
0.0
 11
-218.0
 21
152.88308499999999
 31
0.0
  0
LINE
  5
E4
  8
SIZE
  6
BYBLOCK
 62
    30
 10
-245.0
 20
57.5
 30
0.0
 11
-245.0
 21
152.88308499999999
 31
0.0
  0
LINE
  5
E5
  8
SIZE
  6
BYBLOCK
 62
    30
 10
-247.0
 20
122.88308499999999
 30
0.0
 11
-249.0
 21
122.88308499999999
 31
0.0
  0
LINE
  5
E6
  8
SIZE
  6
BYBLOCK
 62
    30
 10
-216.0
 20
122.88308499999999
 30
0.0
 11
-214.0
 21
122.88308499999999
 31
0.0
  0
LINE
  5
E7
  8
SIZE
  6
BYBLOCK
 62
    30
 10
-245.0
 20
122.88308499999999
 30
0.0
 11
-218.0
 21
122.88308499999999
 31
0.0
  0
TEXT
  5
E8
  8
SIZE
  6
BYBLOCK
 62
    30
 10
-197.618706
 20
154.88308499999999
 30
0.0
 40
64.0
  1
27
 41
0.9
  0
LINE
  5
E9
  8
SIZE
  6
BYBLOCK
 62
    30
 10
129.0
 20
-407.5
 30
0.0
 11
129.0
 21
-839.64919299999985
 31
0.0
  0
LINE
  5
EA
  8
SIZE
  6
BYBLOCK
 62
    30
 10
-129.0
 20
-407.5
 30
0.0
 11
-129.0
 21
-839.64919299999985
 31
0.0
  0
LINE
  5
EB
  8
SIZE
  6
BYBLOCK
 62
    30
 10
127.0
 20
-809.64919299999985
 30
0.0
 11
-127.0
 21
-809.64919299999985
 31
0.0
  0
TEXT
  5
EC
  8
SIZE
  6
BYBLOCK
 62
    30
 10
-102.85714299999999
 20
-777.64919299999985
 30
0.0
 40
64.0
  1
φ258
 41
0.9
  0
LINE
  5
ED
  8
SIZE
  6
BYBLOCK
 62
    30
 10
-121.0
 20
-482.5
 30
0.0
 11
-121.0
 21
-704.93766300000004
 31
0.0
  0
LINE
  5
EE
  8
SIZE
  6
BYBLOCK
 62
    30
 10
121.0
 20
-490.0
 30
0.0
 11
121.0
 21
-704.93766300000004
 31
0.0
  0
LINE
  5
EF
  8
SIZE
  6
BYBLOCK
 62
    30
 10
-119.0
 20
-674.93766300000004
 30
0.0
 11
119.0
 21
-674.93766300000004
 31
0.0
  0
TEXT
  5
F0
  8
SIZE
  6
BYBLOCK
 62
    30
 10
-102.85714299999999
 20
-642.93766300000004
 30
0.0
 40
64.0
  1
φ242
 41
0.9
  0
LINE
  5
F1
  8
SIZE
  6
BYBLOCK
 62
    30
 10
238.0
 20
-385.0
 30
0.0
 11
447.31604800000002
 21
-385.0
 31
0.0
  0
LINE
  5
F2
  8
SIZE
  6
BYBLOCK
 62
    30
 10
141.0
 20
-470.0
 30
0.0
 11
447.31604800000002
 21
-470.0
 31
0.0
  0
LINE
  5
F3
  8
SIZE
  6
BYBLOCK
 62
    30
 10
417.31604799999991
 20
-472.0
 30
0.0
 11
417.31604799999991
 21
-474.0
 31
0.0
  0
LINE
  5
F4
  8
SIZE
  6
BYBLOCK
 62
    30
 10
417.31604799999991
 20
-383.0
 30
0.0
 11
417.31604799999991
 21
-381.0
 31
0.0
  0
LINE
  5
F5
  8
SIZE
  6
BYBLOCK
 62
    30
 10
417.31604799999991
 20
-470.0
 30
0.0
 11
417.31604799999991
 21
-385.0
 31
0.0
  0
TEXT
  5
F6
  8
SIZE
  6
BYBLOCK
 62
    30
 10
385.31604800000002
 20
-474.12857100000002
 30
0.0
 40
64.0
  1
85
 50
90.0
 41
0.9
  0
LINE
  5
F7
  8
SIZE
  6
BYBLOCK
 62
    30
 10
141.0
 20
470.0
 30
0.0
 11
447.31604800000002
 21
470.0
 31
0.0
  0
LINE
  5
F8
  8
SIZE
  6
BYBLOCK
 62
    30
 10
238.0
 20
385.0
 30
0.0
 11
447.31604800000002
 21
385.0
 31
0.0
  0
LINE
  5
F9
  8
SIZE
  6
BYBLOCK
 62
    30
 10
417.31604799999991
 20
383.0
 30
0.0
 11
417.31604799999991
 21
381.0
 31
0.0
  0
LINE
  5
FA
  8
SIZE
  6
BYBLOCK
 62
    30
 10
417.31604799999991
 20
472.0
 30
0.0
 11
417.31604799999991
 21
474.0
 31
0.0
  0
LINE
  5
FB
  8
SIZE
  6
BYBLOCK
 62
    30
 10
417.31604799999991
 20
385.0
 30
0.0
 11
417.31604799999991
 21
470.0
 31
0.0
  0
TEXT
  5
FC
  8
SIZE
  6
BYBLOCK
 62
    30
 10
385.31604800000002
 20
380.87142899999998
 30
0.0
 40
64.0
  1
85
 50
90.0
 41
0.9
  0
LINE
  5
FD
  8
SIZE
  6
BYBLOCK
 62
    30
 10
270.0
 20
409.7999999999999
 30
0.0
 11
270.0
 21
803.41095899999993
 31
0.0
  0
LINE
  5
FE
  8
SIZE
  6
BYBLOCK
 62
    30
 10
-270.0
 20
409.7999999999999
 30
0.0
 11
-270.0
 21
803.41095899999993
 31
0.0
  0
LINE
  5
FF
  8
SIZE
  6
BYBLOCK
 62
    30
 10
268.0
 20
773.41095899999993
 30
0.0
 11
-268.0
 21
773.41095899999993
 31
0.0
  0
TEXT
  5
100
  8
SIZE
  6
BYBLOCK
 62
    30
 10
-74.057143000000011
 20
805.41095899999993
 30
0.0
 40
64.0
  1
540
 41
0.9
  0
LINE
  5
101
  8
SIZE
  6
BYBLOCK
 62
    30
 10
247.5
 20
407.5
 30
0.0
 11
247.5
 21
686.42784299999994
 31
0.0
  0
LINE
  5
102
  8
SIZE
  6
BYBLOCK
 62
    30
 10
-247.5
 20
407.5
 30
0.0
 11
-247.5
 21
686.42784299999994
 31
0.0
  0
LINE
  5
103
  8
SIZE
  6
BYBLOCK
 62
    30
 10
245.5
 20
656.42784299999994
 30
0.0
 11
-245.5
 21
656.42784299999994
 31
0.0
  0
TEXT
  5
104
  8
SIZE
  6
BYBLOCK
 62
    30
 10
-74.057143000000011
 20
688.42784299999994
 30
0.0
 40
64.0
  1
495
 41
0.9
  0
LINE
  5
105
  8
SIZE
  6
BYBLOCK
 62
    30
 10
218.0
 20
407.5
 30
0.0
 11
218.0
 21
567.49500899999998
 31
0.0
  0
LINE
  5
106
  8
SIZE
  6
BYBLOCK
 62
    30
 10
-218.0
 20
407.5
 30
0.0
 11
-218.0
 21
567.49500899999998
 31
0.0
  0
LINE
  5
107
  8
SIZE
  6
BYBLOCK
 62
    30
 10
216.0
 20
537.49500899999987
 30
0.0
 11
-216.0
 21
537.49500899999987
 31
0.0
  0
TEXT
  5
108
  8
SIZE
  6
BYBLOCK
 62
    30
 10
-72.685714000000004
 20
569.49500899999987
 30
0.0
 40
64.0
  1
436
 41
0.9
  0
LINE
  5
109
  8
SIZE
  6
BYBLOCK
 62
    30
 10
-238.0
 20
387.5
 30
0.0
 11
-509.70247599999999
 21
387.5
 31
0.0
  0
LINE
  5
10A
  8
SIZE
  6
BYBLOCK
 62
    30
 10
-238.0
 20
-387.5
 30
0.0
 11
-509.70247599999999
 21
-387.5
 31
0.0
  0
LINE
  5
10B
  8
SIZE
  6
BYBLOCK
 62
    30
 10
-479.70247599999999
 20
385.5
 30
0.0
 11
-479.70247599999999
 21
0.0
 31
0.0
  0
LINE
  5
10C
  8
SIZE
  6
BYBLOCK
 62
    30
 10
-479.70247599999999
 20
-385.5
 30
0.0
 11
-479.70247599999999
 21
0.0
 31
0.0
  0
TEXT
  5
10D
  8
SIZE
  6
BYBLOCK
 62
    30
 10
-511.70247599999988
 20
-74.057143000000011
 30
0.0
 40
64.0
  1
775
 50
90.0
 41
0.9
  0
LINE
  5
10E
  8
SIZE
  6
BYBLOCK
 62
    30
 10
-287.5
 20
367.5
 30
0.0
 11
-388.81575800000002
 21
367.5
 31
0.0
  0
LINE
  5
10F
  8
SIZE
  6
BYBLOCK
 62
    30
 10
-287.5
 20
-367.5
 30
0.0
 11
-388.81575800000002
 21
-367.5
 31
0.0
  0
LINE
  5
110
  8
SIZE
  6
BYBLOCK
 62
    30
 10
-358.81575800000002
 20
365.5
 30
0.0
 11
-358.81575800000002
 21
-365.5
 31
0.0
  0
TEXT
  5
111
  8
SIZE
  6
BYBLOCK
 62
    30
 10
-390.81575800000002
 20
-74.057143000000011
 30
0.0
 40
64.0
  1
735
 50
90.0
 41
0.9
  0
LINE
  5
112
  8
SIZE
  6
BYBLOCK
 62
    30
 10
238.0
 20
385.0
 30
0.0
 11
447.31604800000002
 21
385.0
 31
0.0
  0
LINE
  5
113
  8
SIZE
  6
BYBLOCK
 62
    30
 10
238.0
 20
-385.0
 30
0.0
 11
447.31604800000002
 21
-385.0
 31
0.0
  0
LINE
  5
114
  8
SIZE
  6
BYBLOCK
 62
    30
 10
417.31604799999991
 20
383.0
 30
0.0
 11
417.31604799999991
 21
-383.0
 31
0.0
  0
TEXT
  5
115
  8
SIZE
  6
BYBLOCK
 62
    30
 10
385.31604800000002
 20
-74.057143000000011
 30
0.0
 40
64.0
  1
770
 50
90.0
 41
0.9
  0
CIRCLE
  5
116
  8
SIZE
  6
CONTINUOUS
 62
    30
 10
417.31604799999991
 20
-385.0
 30
0.0
 40
6.0
  0
CIRCLE
  5
117
  8
SIZE
  6
CONTINUOUS
 62
    30
 10
417.31604799999991
 20
385.0
 30
0.0
 40
6.0
  0
CIRCLE
  5
118
  8
SIZE
  6
CONTINUOUS
 62
    30
 10
-358.81575800000002
 20
-367.5
 30
0.0
 40
6.0
  0
CIRCLE
  5
119
  8
SIZE
  6
CONTINUOUS
 62
    30
 10
-358.81575800000002
 20
367.5
 30
0.0
 40
6.0
  0
CIRCLE
  5
11A
  8
SIZE
  6
CONTINUOUS
 62
    30
 10
-479.70247599999999
 20
-387.5
 30
0.0
 40
6.0
  0
CIRCLE
  5
11B
  8
SIZE
  6
CONTINUOUS
 62
    30
 10
-479.70247599999999
 20
387.5
 30
0.0
 40
6.0
  0
CIRCLE
  5
11C
  8
SIZE
  6
CONTINUOUS
 62
    30
 10
-218.0
 20
537.49500899999987
 30
0.0
 40
6.0
  0
CIRCLE
  5
11D
  8
SIZE
  6
CONTINUOUS
 62
    30
 10
218.0
 20
537.49500899999987
 30
0.0
 40
6.0
  0
CIRCLE
  5
11E
  8
SIZE
  6
CONTINUOUS
 62
    30
 10
-247.5
 20
656.42784299999994
 30
0.0
 40
6.0
  0
CIRCLE
  5
11F
  8
SIZE
  6
CONTINUOUS
 62
    30
 10
247.5
 20
656.42784299999994
 30
0.0
 40
6.0
  0
CIRCLE
  5
120
  8
SIZE
  6
CONTINUOUS
 62
    30
 10
-270.0
 20
773.41095899999993
 30
0.0
 40
6.0
  0
CIRCLE
  5
121
  8
SIZE
  6
CONTINUOUS
 62
    30
 10
270.0
 20
773.41095899999993
 30
0.0
 40
6.0
  0
CIRCLE
  5
122
  8
SIZE
  6
CONTINUOUS
 62
    30
 10
417.31604799999991
 20
470.0
 30
0.0
 40
6.0
  0
CIRCLE
  5
123
  8
SIZE
  6
CONTINUOUS
 62
    30
 10
417.31604799999991
 20
385.0
 30
0.0
 40
6.0
  0
CIRCLE
  5
124
  8
SIZE
  6
CONTINUOUS
 62
    30
 10
417.31604799999991
 20
-385.0
 30
0.0
 40
6.0
  0
CIRCLE
  5
125
  8
SIZE
  6
CONTINUOUS
 62
    30
 10
417.31604799999991
 20
-470.0
 30
0.0
 40
6.0
  0
CIRCLE
  5
126
  8
SIZE
  6
CONTINUOUS
 62
    30
 10
121.0
 20
-674.93766300000004
 30
0.0
 40
6.0
  0
CIRCLE
  5
127
  8
SIZE
  6
CONTINUOUS
 62
    30
 10
-121.0
 20
-674.93766300000004
 30
0.0
 40
6.0
  0
CIRCLE
  5
128
  8
SIZE
  6
CONTINUOUS
 62
    30
 10
-129.0
 20
-809.64919299999985
 30
0.0
 40
6.0
  0
CIRCLE
  5
129
  8
SIZE
  6
CONTINUOUS
 62
    30
 10
129.0
 20
-809.64919299999985
 30
0.0
 40
6.0
  0
CIRCLE
  5
12A
  8
SIZE
  6
CONTINUOUS
 62
    30
 10
-218.0
 20
122.88308499999999
 30
0.0
 40
6.0
  0
CIRCLE
  5
12B
  8
SIZE
  6
CONTINUOUS
 62
    30
 10
-245.0
 20
122.88308499999999
 30
0.0
 40
6.0
  0
POLYLINE
  5
12C
  8
NOTE
  6
CONTINUOUS
 62
     4
 66
     1
 10
0.0
 20
0.0
 30
0.0
  0
VERTEX
  5
193
  8
NOTE
  6
CONTINUOUS
 62
     4
 10
-269.11210799999998
 20
-54.415610999999998
 30
0.0
  0
VERTEX
  5
194
  8
NOTE
  6
CONTINUOUS
 62
     4
 10
-245.0
 20
-22.5
 30
0.0
  0
VERTEX
  5
195
  8
NOTE
  6
CONTINUOUS
 62
     4
 10
-281.83950399999998
 20
-38.083675999999997
 30
0.0
  0
SEQEND
  5
196
  8
NOTE
  6
CONTINUOUS
 62
     4
  0
POLYLINE
  5
131
  8
NOTE
  6
CONTINUOUS
 62
     4
 66
     1
 10
0.0
 20
0.0
 30
0.0
  0
VERTEX
  5
197
  8
NOTE
  6
CONTINUOUS
 62
     4
 10
-285.74959200000001
 20
379.20336200000003
 30
0.0
  0
VERTEX
  5
198
  8
NOTE
  6
CONTINUOUS
 62
     4
 10
-247.5
 20
367.5
 30
0.0
  0
VERTEX
  5
199
  8
NOTE
  6
CONTINUOUS
 62
     4
 10
-274.773438
 20
396.76020499999998
 30
0.0
  0
SEQEND
  5
19A
  8
NOTE
  6
CONTINUOUS
 62
     4
  0
POLYLINE
  5
136
  8
NOTE
  6
CONTINUOUS
 62
     4
 66
     1
 10
0.0
 20
0.0
 30
0.0
  0
VERTEX
  5
19B
  8
NOTE
  6
CONTINUOUS
 62
     4
 10
-266.9786049999999
 20
-402.43685699999997
 30
0.0
  0
VERTEX
  5
19C
  8
NOTE
  6
CONTINUOUS
 62
     4
 10
-247.5
 20
-367.5
 30
0.0
  0
VERTEX
  5
19D
  8
NOTE
  6
CONTINUOUS
 62
     4
 10
-281.83739500000001
 20
-388.01690300000001
 30
0.0
  0
SEQEND
  5
19E
  8
NOTE
  6
CONTINUOUS
 62
     4
  0
POLYLINE
  5
13B
  8
NOTE
  6
CONTINUOUS
 62
     4
 66
     1
 10
0.0
 20
0.0
 30
0.0
  0
VERTEX
  5
19F
  8
NOTE
  6
CONTINUOUS
 62
     4
 10
258.37673599999999
 20
405.99281200000001
 30
0.0
  0
VERTEX
  5
1A0
  8
NOTE
  6
CONTINUOUS
 62
     4
 10
247.5
 20
367.5
 30
0.0
  0
VERTEX
  5
1A1
  8
NOTE
  6
CONTINUOUS
 62
     4
 10
276.16593599999999
 20
395.39738499999999
 30
0.0
  0
SEQEND
  5
1A2
  8
NOTE
  6
CONTINUOUS
 62
     4
  0
POLYLINE
  5
140
  8
NOTE
  6
CONTINUOUS
 62
     4
 66
     1
 10
0.0
 20
0.0
 30
0.0
  0
VERTEX
  5
1A3
  8
NOTE
  6
CONTINUOUS
 62
     4
 10
273.74549500000001
 20
-397.68565899999999
 30
0.0
  0
VERTEX
  5
1A4
  8
NOTE
  6
CONTINUOUS
 62
     4
 10
247.5
 20
-367.5
 30
0.0
  0
VERTEX
  5
1A5
  8
NOTE
  6
CONTINUOUS
 62
     4
 10
255.136436
 20
-406.76429499999989
 30
0.0
  0
SEQEND
  5
1A6
  8
NOTE
  6
CONTINUOUS
 62
     4
  0
LINE
  5
145
  8
NOTE
  6
CONTINUOUS
 62
     4
 10
267.5
 20
-367.5
 30
0.0
 11
227.5
 21
-367.5
 31
0.0
  0
LINE
  5
146
  8
NOTE
  6
CONTINUOUS
 62
     4
 10
247.5
 20
-387.5
 30
0.0
 11
247.5
 21
-347.5
 31
0.0
  0
LINE
  5
147
  8
NOTE
  6
CONTINUOUS
 62
     4
 10
-227.5
 20
-367.5
 30
0.0
 11
-267.5
 21
-367.5
 31
0.0
  0
LINE
  5
148
  8
NOTE
  6
CONTINUOUS
 62
     4
 10
-247.5
 20
-387.5
 30
0.0
 11
-247.5
 21
-347.5
 31
0.0
  0
LINE
  5
149
  8
NOTE
  6
CONTINUOUS
 62
     4
 10
-247.5
 20
387.5
 30
0.0
 11
-247.5
 21
347.5
 31
0.0
  0
LINE
  5
14A
  8
NOTE
  6
CONTINUOUS
 62
     4
 10
-227.5
 20
367.5
 30
0.0
 11
-267.5
 21
367.5
 31
0.0
  0
LINE
  5
14B
  8
NOTE
  6
CONTINUOUS
 62
     4
 10
227.5
 20
367.5
 30
0.0
 11
267.5
 21
367.5
 31
0.0
  0
LINE
  5
14C
  8
NOTE
  6
CONTINUOUS
 62
     4
 10
247.5
 20
387.5
 30
0.0
 11
247.5
 21
347.5
 31
0.0
  0
TEXT
  5
14D
  8
ETC
  6
CONTINUOUS
 62
    61
 10
651.12423228284536
 20
847.69659183786507
 30
0.0
 40
64.0
  1
BFS-150SSU3_1
 41
0.9
  0
ENDSEC
  0
EOF
