  0
SECTION
  2
HEADER
  9
$ACADVER
  1
AC1009
  9
$INSBASE
 10
0.0
 20
0.0
 30
0.0
  9
$EXTMIN
 10
-888.24461265262835
 20
-696.30430987605905
 30
-0.0015258207003583
  9
$EXTMAX
 10
1496.4203002006029
 20
968.03284537516629
 30
0.0000000349246037
  9
$LIMMIN
 10
-2970.0
 20
-2100.0
  9
$LIMMAX
 10
2970.0
 20
2100.0
  9
$ORTHOMODE
 70
     0
  9
$REGENMODE
 70
     0
  9
$FILLMODE
 70
     1
  9
$QTEXTMODE
 70
     0
  9
$MIRRTEXT
 70
     0
  9
$DRAGMODE
 70
     2
  9
$LTSCALE
 40
20.0
  9
$OSMODE
 70
    37
  9
$ATTMODE
 70
     1
  9
$TEXTSIZE
 40
64.0
  9
$TRACEWID
 40
0.05
  9
$TEXTSTYLE
  7
STANDARD
  9
$CLAYER
  8
0
  9
$CELTYPE
  6
CONTINUOUS
  9
$CECOLOR
 62
     1
  9
$DIMSCALE
 40
1.0
  9
$DIMASZ
 40
2.0
  9
$DIMEXO
 40
20.0
  9
$DIMDLI
 40
200.0
  9
$DIMRND
 40
0.0
  9
$DIMDLE
 40
0.0
  9
$DIMEXE
 40
30.0
  9
$DIMTP
 40
0.0
  9
$DIMTM
 40
0.0
  9
$DIMTXT
 40
64.0
  9
$DIMCEN
 40
0.09
  9
$DIMTSZ
 40
0.0
  9
$DIMTOL
 70
     0
  9
$DIMLIM
 70
     0
  9
$DIMTIH
 70
     0
  9
$DIMTOH
 70
     0
  9
$DIMSE1
 70
     0
  9
$DIMSE2
 70
     0
  9
$DIMTAD
 70
     1
  9
$DIMZIN
 70
     8
  9
$DIMBLK
  1

  9
$DIMASO
 70
     1
  9
$DIMSHO
 70
     0
  9
$DIMPOST
  1

  9
$DIMAPOST
  1

  9
$DIMALT
 70
     0
  9
$DIMALTD
 70
     2
  9
$DIMALTF
 40
25.399999999999999
  9
$DIMLFAC
 40
1.0
  9
$DIMTOFL
 70
     1
  9
$DIMTVP
 40
0.0
  9
$DIMTIX
 70
     1
  9
$DIMSOXD
 70
     0
  9
$DIMSAH
 70
     0
  9
$DIMBLK1
  1

  9
$DIMBLK2
  1

  9
$DIMSTYLE
  2
STANDARD
  9
$DIMCLRD
 70
     0
  9
$DIMCLRE
 70
     0
  9
$DIMCLRT
 70
     0
  9
$DIMTFAC
 40
1.0
  9
$DIMGAP
 40
0.09
  9
$LUNITS
 70
     2
  9
$LUPREC
 70
     4
  9
$SKETCHINC
 40
0.1
  9
$FILLETRAD
 40
5.0
  9
$AUNITS
 70
     1
  9
$AUPREC
 70
     3
  9
$MENU
  1
ACAD
  9
$ELEVATION
 40
0.0
  9
$PELEVATION
 40
0.0
  9
$THICKNESS
 40
0.0
  9
$LIMCHECK
 70
     1
  9
$BLIPMODE
 70
     0
  9
$CHAMFERA
 40
0.0
  9
$CHAMFERB
 40
0.0
  9
$SKPOLY
 70
     0
  9
$TDCREATE
 40
2450667.6408449081
  9
$TDUPDATE
 40
2454922.4895436
  9
$TDINDWG
 40
0.0360698727
  9
$TDUSRTIMER
 40
0.0360696875
  9
$USRTIMER
 70
     1
  9
$ANGBASE
 50
0.0
  9
$ANGDIR
 70
     0
  9
$PDMODE
 70
     3
  9
$PDSIZE
 40
-2.0
  9
$PLINEWID
 40
0.0
  9
$COORDS
 70
     0
  9
$SPLFRAME
 70
     0
  9
$SPLINETYPE
 70
     6
  9
$SPLINESEGS
 70
     8
  9
$ATTDIA
 70
     0
  9
$ATTREQ
 70
     1
  9
$HANDLING
 70
     1
  9
$HANDSEED
  5
18B
  9
$SURFTAB1
 70
     6
  9
$SURFTAB2
 70
     6
  9
$SURFTYPE
 70
     6
  9
$SURFU
 70
     6
  9
$SURFV
 70
     6
  9
$UCSNAME
  2

  9
$UCSORG
 10
0.0
 20
0.0
 30
0.0
  9
$UCSXDIR
 10
1.0
 20
0.0
 30
0.0
  9
$UCSYDIR
 10
0.0
 20
1.0
 30
0.0
  9
$PUCSNAME
  2

  9
$PUCSORG
 10
0.0
 20
0.0
 30
0.0
  9
$PUCSXDIR
 10
1.0
 20
0.0
 30
0.0
  9
$PUCSYDIR
 10
0.0
 20
1.0
 30
0.0
  9
$USERI1
 70
     0
  9
$USERI2
 70
     0
  9
$USERI3
 70
     0
  9
$USERI4
 70
     0
  9
$USERI5
 70
     0
  9
$USERR1
 40
20.0
  9
$USERR2
 40
0.0
  9
$USERR3
 40
0.0
  9
$USERR4
 40
0.0
  9
$USERR5
 40
0.0
  9
$WORLDVIEW
 70
     1
  9
$SHADEDGE
 70
     3
  9
$SHADEDIF
 70
    70
  9
$TILEMODE
 70
     1
  9
$MAXACTVP
 70
    64
  9
$PLIMCHECK
 70
     0
  9
$PEXTMIN
 10
1.0000000000000000E+020
 20
1.0000000000000000E+020
 30
1.0000000000000000E+020
  9
$PEXTMAX
 10
-1.0000000000000000E+020
 20
-1.0000000000000000E+020
 30
-1.0000000000000000E+020
  9
$PLIMMIN
 10
0.0
 20
0.0
  9
$PLIMMAX
 10
12.0
 20
9.0
  9
$UNITMODE
 70
     0
  9
$VISRETAIN
 70
     1
  9
$PLINEGEN
 70
     0
  9
$PSLTSCALE
 70
     1
  0
ENDSEC
  0
SECTION
  2
TABLES
  0
TABLE
  2
VPORT
 70
     1
  0
VPORT
  2
*ACTIVE
 70
     0
 10
0.0
 20
0.0
 11
1.0
 21
1.0
 12
331.80456005863931
 22
84.773402015911984
 13
0.0
 23
0.0
 14
400.0
 24
400.0
 15
400.0
 25
400.0
 16
0.0
 26
0.0
 36
1.0
 17
0.0
 27
0.0
 37
0.0
 40
2011.920953906772
 41
1.3387096774193541
 42
50.0
 43
0.0
 44
0.0
 50
0.0
 51
0.0
 71
     0
 72
  1000
 73
     1
 74
     0
 75
     0
 76
     0
 77
     0
 78
     0
  0
ENDTAB
  0
TABLE
  2
LTYPE
 70
     8
  0
LTYPE
  2
CONTINUOUS
 70
     0
  3
実線
 72
    65
 73
     0
 40
0.0
  0
LTYPE
  2
DASHDOT
 70
     0
  3
____ _ ____ _ ____ _ ____ _ ____ _ ____ _ ____
 72
    65
 73
     4
 40
5.5
 49
4.0
 49
-0.6
 49
0.3
 49
-0.6
  0
LTYPE
  2
DASHED
 70
     0
  3
_ _ _ _ _ _ _ _ _ _ _ _ _ _ _ _ _ _ _ _ _ _ _
 72
    65
 73
     2
 40
2.0
 49
1.1999999999999991
 49
-0.8
  0
LTYPE
  2
DOT
 70
     0
  3
...............................................
 72
    65
 73
     2
 40
0.8
 49
0.5
 49
-0.3
  0
LTYPE
  2
DASHDOT1
 70
     0
  3
____ _ ____ _ ____ _ ____ _ ____ _ ____ _ ____
 72
    65
 73
     4
 40
2.0
 49
1.5
 49
-0.2
 49
0.1
 49
-0.2
  0
LTYPE
  2
DIVIDE
 70
     0
  3
_____ _ _ _____ _ _ _____ _ _ _____ _ _ ____
 72
    65
 73
     6
 40
6.4000000000000004
 49
4.0
 49
-0.6
 49
0.3
 49
-0.6
 49
0.3
 49
-0.6
  0
LTYPE
  2
DIVIDE1
 70
     0
  3
_____ _ _ _____ _ _ _____ _ _ _____ _ _ ____
 72
    65
 73
     6
 40
3.2000000000000002
 49
2.0
 49
-0.3
 49
0.15
 49
-0.3
 49
0.15
 49
-0.3
  0
ENDTAB
  0
TABLE
  2
LAYER
 70
    12
  0
LAYER
  2
0
 70
     0
 62
     7
  6
CONTINUOUS
  0
LAYER
  2
OUTLINE
 70
     0
 62
     3
  6
CONTINUOUS
  0
LAYER
  2
DETAIL
 70
     0
 62
     5
  6
CONTINUOUS
  0
LAYER
  2
BASIS
 70
     0
 62
     6
  6
DASHDOT
  0
LAYER
  2
SIZE
 70
     0
 62
    30
  6
CONTINUOUS
  0
LAYER
  2
NOTE
 70
     0
 62
     4
  6
CONTINUOUS
  0
LAYER
  2
DEFPOINTS
 70
     0
 62
     7
  6
CONTINUOUS
  0
LAYER
  2
ETC
 70
     0
 62
    61
  6
CONTINUOUS
  0
LAYER
  2
FIX
 70
     0
 62
    11
  6
CONTINUOUS
  0
LAYER
  2
ARRANGE
 70
     0
 62
     1
  6
CONTINUOUS
  0
LAYER
  2
SERVICESPACE
 70
     0
 62
     2
  6
DASHDOT
  0
LAYER
  2
SYMBOLLINE
 70
     0
 62
    15
  6
CONTINUOUS
  0
ENDTAB
  0
TABLE
  2
STYLE
 70
     2
  0
STYLE
  2
STANDARD
 70
     0
 40
0.0
 41
0.9
 50
0.0
 71
     0
 42
64.0
  3
SIMPLEX
  4
BIGFONT
  0
STYLE
  2
ANNOTATIVE
 70
     0
 40
0.0
 41
1.0
 50
0.0
 71
     0
 42
0.2
  3
txt
  4

  0
ENDTAB
  0
TABLE
  2
VIEW
 70
     1
  0
VIEW
  2
ALL
 70
     0
 40
4508.0208510000002
 10
0.0
 20
41.309903999999989
 41
6252.631578999999
 11
0.0
 21
0.0
 31
1.0
 12
0.0
 22
0.0
 32
0.0
 42
50.0
 43
0.0
 44
0.0
 50
0.0
 71
     0
  0
ENDTAB
  0
TABLE
  2
UCS
 70
     0
  0
ENDTAB
  0
TABLE
  2
APPID
 70
     4
  0
APPID
  2
ACAD
 70
     0
  0
APPID
  2
ACADANNOTATIVE
 70
     0
  0
APPID
  2
ACAD_MLEADERVER
 70
     0
  0
APPID
  2
ACAD_EXEMPT_FROM_CAD_STANDARDS
 70
     0
  0
ENDTAB
  0
TABLE
  2
DIMSTYLE
 70
     2
  0
DIMSTYLE
  2
STANDARD
 70
     0
  3

  4

  5

  6

  7

 40
1.0
 41
0.18
 42
0.0625
 43
0.38
 44
0.18
 45
0.0
 46
0.0
 47
0.0
 48
0.0
140
0.18
141
0.09
142
0.0
143
25.399999999999999
144
1.0
145
0.0
146
1.0
147
0.09
 71
     0
 72
     0
 73
     1
 74
     1
 75
     0
 76
     0
 77
     0
 78
     0
170
     0
171
     2
172
     0
173
     0
174
     0
175
     0
176
     0
177
     0
178
     0
  0
DIMSTYLE
  2
ANNOTATIVE
 70
     0
  3

  4

  5

  6

  7

 40
1.0
 41
0.18
 42
0.0625
 43
0.38
 44
0.18
 45
0.0
 46
0.0
 47
0.0
 48
0.0
140
0.18
141
0.09
142
0.0
143
25.399999999999999
144
1.0
145
0.0
146
1.0
147
0.09
 71
     0
 72
     0
 73
     1
 74
     1
 75
     0
 76
     0
 77
     0
 78
     0
170
     0
171
     2
172
     0
173
     0
174
     0
175
     0
176
     0
177
     0
178
     0
  0
ENDTAB
  0
ENDSEC
  0
SECTION
  2
BLOCKS
  0
BLOCK
  8
0
  2
$MODEL_SPACE
 70
     0
 10
0.0
 20
0.0
 30
0.0
  3
$MODEL_SPACE
  1

  0
ENDBLK
  5
76
  8
0
  0
BLOCK
 67
     1
  8
0
  2
$PAPER_SPACE
 70
     0
 10
0.0
 20
0.0
 30
0.0
  3
$PAPER_SPACE
  1

  0
ENDBLK
  5
72
 67
     1
  8
0
  0
ENDSEC
  0
SECTION
  2
ENTITIES
  0
LINE
  5
8F
  8
BASIS
  6
DASHDOT
 62
     6
 10
0.0
 20
-426.69952399999988
 30
0.0
 11
0.0
 21
36.524867
 31
0.0
  0
LINE
  5
90
  8
BASIS
  6
DASHDOT
 62
     6
 10
-535.96303499999988
 20
-190.5
 30
0.0
 11
576.29699600000004
 21
-190.5
 31
0.0
  0
CIRCLE
  5
92
  8
ARRANGE
  6
CONTINUOUS
 62
     1
 10
0.0
 20
0.0
 30
0.0
 40
40.0
  0
LINE
  5
93
  8
DETAIL
  6
CONTINUOUS
 62
     5
 10
-387.5
 20
-378.5
 30
0.0
 11
-387.5
 21
-238.5
 31
0.0
  0
LINE
  5
94
  8
DETAIL
  6
CONTINUOUS
 62
     5
 10
-385.0
 20
-2.5
 30
0.0
 11
-385.0
 21
0.0
 31
0.0
  0
LINE
  5
95
  8
DETAIL
  6
CONTINUOUS
 62
     5
 10
385.0
 20
-378.5
 30
0.0
 11
385.0
 21
-381.0
 31
0.0
  0
LINE
  5
96
  8
NOTE
  6
CONTINUOUS
 62
     4
 10
444.21508499999987
 20
-3.8406120000000001
 30
0.0
 11
933.02350100000001
 21
-3.8406120000000001
 31
0.0
  0
TEXT
  5
97
  8
NOTE
  6
CONTINUOUS
 62
     4
 10
459.75705900000003
 20
15.75127
 30
0.0
 40
64.0
  1
AH 4-φ14
 41
0.9
  0
LINE
  5
98
  8
DETAIL
  6
CONTINUOUS
 62
     5
 10
-385.0
 20
0.0
 30
0.0
 11
385.0
 21
0.0
 31
0.0
  0
LINE
  5
99
  8
DETAIL
  6
CONTINUOUS
 62
     5
 10
385.0
 20
-381.0
 30
0.0
 11
-385.0
 21
-381.0
 31
0.0
  0
LINE
  5
9A
  8
DETAIL
  6
CONTINUOUS
 62
     5
 10
82.5
 20
-258.0
 30
0.0
 11
-37.5
 21
-258.0
 31
0.0
  0
LINE
  5
9B
  8
DETAIL
  6
CONTINUOUS
 62
     5
 10
82.5
 20
-159.0
 30
0.0
 11
-37.5
 21
-159.0
 31
0.0
  0
LINE
  5
9C
  8
SERVICESPACE
  6
DASHDOT
 62
     2
 10
-282.0
 20
-2.5
 30
0.0
 11
107.0
 21
-2.5
 31
0.0
  0
LINE
  5
9D
  8
SERVICESPACE
  6
DASHDOT
 62
     2
 10
107.0
 20
-2.5
 30
0.0
 11
107.0
 21
-378.5
 31
0.0
  0
LINE
  5
9E
  8
SERVICESPACE
  6
DASHDOT
 62
     2
 10
107.0
 20
-378.5
 30
0.0
 11
-282.0
 21
-378.5
 31
0.0
  0
LINE
  5
9F
  8
SERVICESPACE
  6
DASHDOT
 62
     2
 10
-282.0
 20
-2.5
 30
0.0
 11
-282.0
 21
-378.5
 31
0.0
  0
LINE
  5
A0
  8
DETAIL
  6
CONTINUOUS
 62
     5
 10
387.5
 20
-2.5
 30
0.0
 11
385.0
 21
-2.5
 31
0.0
  0
LINE
  5
A1
  8
DETAIL
  6
CONTINUOUS
 62
     5
 10
387.5
 20
-378.5
 30
0.0
 11
385.0
 21
-378.5
 31
0.0
  0
LINE
  5
A2
  8
DETAIL
  6
CONTINUOUS
 62
     5
 10
389.80000000000001
 20
-187.5
 30
0.0
 11
389.80000000000001
 21
-238.5
 31
0.0
  0
LINE
  5
A3
  8
DETAIL
  6
CONTINUOUS
 62
     5
 10
-385.0
 20
-2.5
 30
0.0
 11
-387.5
 21
-2.5
 31
0.0
  0
LINE
  5
A4
  8
DETAIL
  6
CONTINUOUS
 62
     5
 10
107.0
 20
-378.5
 30
0.0
 11
-282.0
 21
-378.5
 31
0.0
  0
LINE
  5
A5
  8
DETAIL
  6
CONTINUOUS
 62
     5
 10
107.0
 20
-2.5
 30
0.0
 11
-282.0
 21
-2.5
 31
0.0
  0
LINE
  5
A6
  8
DETAIL
  6
CONTINUOUS
 62
     5
 10
385.0
 20
0.0
 30
0.0
 11
385.0
 21
-2.5
 31
0.0
  0
LINE
  5
A7
  8
DETAIL
  6
CONTINUOUS
 62
     5
 10
-387.5
 20
-378.5
 30
0.0
 11
-385.11674500000009
 21
-378.5
 31
0.0
  0
LINE
  5
A8
  8
DETAIL
  6
CONTINUOUS
 62
     5
 10
-385.11674500000009
 20
-378.5
 30
0.0
 11
-385.0
 21
-378.5
 31
0.0
  0
LINE
  5
A9
  8
DETAIL
  6
CONTINUOUS
 62
     5
 10
-385.0
 20
-381.0
 30
0.0
 11
-385.0
 21
-378.5
 31
0.0
  0
LINE
  5
AA
  8
DETAIL
  6
CONTINUOUS
 62
     5
 10
384.5
 20
-193.5
 30
0.0
 11
384.5
 21
-238.5
 31
0.0
  0
LINE
  5
AB
  8
DETAIL
  6
CONTINUOUS
 62
     5
 10
342.5
 20
-187.5
 30
0.0
 11
389.80000000000001
 21
-187.5
 31
0.0
  0
LINE
  5
AC
  8
DETAIL
  6
CONTINUOUS
 62
     5
 10
342.5
 20
-193.5
 30
0.0
 11
384.5
 21
-193.5
 31
0.0
  0
LINE
  5
AD
  8
DETAIL
  6
CONTINUOUS
 62
     5
 10
387.5
 20
-2.5
 30
0.0
 11
387.5
 21
-187.5
 31
0.0
  0
LINE
  5
AE
  8
DETAIL
  6
CONTINUOUS
 62
     5
 10
387.5
 20
-238.5
 30
0.0
 11
387.5
 21
-378.5
 31
0.0
  0
LINE
  5
AF
  8
DETAIL
  6
CONTINUOUS
 62
     5
 10
-342.5
 20
-193.5
 30
0.0
 11
-384.5
 21
-193.5
 31
0.0
  0
LINE
  5
B0
  8
DETAIL
  6
CONTINUOUS
 62
     5
 10
-342.5
 20
-187.5
 30
0.0
 11
-389.80000000000001
 21
-187.5
 31
0.0
  0
LINE
  5
B1
  8
DETAIL
  6
CONTINUOUS
 62
     5
 10
-342.5
 20
-187.5
 30
0.0
 11
-342.5
 21
-193.5
 31
0.0
  0
LINE
  5
B2
  8
DETAIL
  6
CONTINUOUS
 62
     5
 10
-342.5
 20
-193.5
 30
0.0
 11
-342.5
 21
-187.5
 31
0.0
  0
LINE
  5
B3
  8
DETAIL
  6
CONTINUOUS
 62
     5
 10
-384.5
 20
-238.5
 30
0.0
 11
-384.5
 21
-193.5
 31
0.0
  0
LINE
  5
B4
  8
DETAIL
  6
CONTINUOUS
 62
     5
 10
-387.5
 20
-187.5
 30
0.0
 11
-387.5
 21
-2.5
 31
0.0
  0
LINE
  5
B5
  8
DETAIL
  6
CONTINUOUS
 62
     5
 10
342.5
 20
-187.5
 30
0.0
 11
342.5
 21
-193.5
 31
0.0
  0
TEXT
  5
B6
  8
NOTE
  6
CONTINUOUS
 62
     4
 10
-211.67517799999999
 20
-148.03691499999999
 30
0.0
 40
64.0
  1
点検口
 41
0.9
  0
CIRCLE
  5
B7
  8
FIX
  6
CONTINUOUS
 62
    11
 10
-367.5
 20
-190.5
 30
0.0
 40
7.0
  0
CIRCLE
  5
B8
  8
FIX
  6
CONTINUOUS
 62
    11
 10
367.5
 20
-190.5
 30
0.0
 40
7.0
  0
LINE
  5
B9
  8
DETAIL
  6
CONTINUOUS
 62
     5
 10
-389.80000000000001
 20
-238.5
 30
0.0
 11
-389.80000000000001
 21
-187.5
 31
0.0
  0
LINE
  5
BA
  8
NOTE
  6
CONTINUOUS
 62
     4
 10
367.5
 20
-190.5
 30
0.0
 11
444.21508499999987
 21
-3.8406120000000001
 31
0.0
  0
LINE
  5
BB
  8
NOTE
  6
CONTINUOUS
 62
     4
 10
-583.13591699999995
 20
61.085326000000002
 30
0.0
 11
-793.02469000000008
 21
61.085326000000002
 31
0.0
  0
TEXT
  5
BC
  8
NOTE
  6
CONTINUOUS
 62
     4
 10
-744.07839899999988
 20
79.074379000000008
 30
0.0
 40
64.0
  1
AH
 41
0.9
  0
LINE
  5
BD
  8
DETAIL
  6
CONTINUOUS
 62
     5
 10
-384.5
 20
-238.5
 30
0.0
 11
-389.80000000000001
 21
-238.5
 31
0.0
  0
LINE
  5
BE
  8
DETAIL
  6
CONTINUOUS
 62
     5
 10
384.5
 20
-238.5
 30
0.0
 11
389.80000000000001
 21
-238.5
 31
0.0
  0
LINE
  5
BF
  8
DETAIL
  6
CONTINUOUS
 62
     5
 10
470.0
 20
-69.5
 30
0.0
 11
470.0
 21
-311.5
 31
0.0
  0
LINE
  5
C0
  8
DETAIL
  6
CONTINUOUS
 62
     5
 10
462.5
 20
-69.5
 30
0.0
 11
462.5
 21
-311.5
 31
0.0
  0
LINE
  5
C1
  8
DETAIL
  6
CONTINUOUS
 62
     5
 10
-470.0
 20
-311.5
 30
0.0
 11
-470.0
 21
-69.5
 31
0.0
  0
LINE
  5
C2
  8
DETAIL
  6
CONTINUOUS
 62
     5
 10
-462.5
 20
-311.5
 30
0.0
 11
-462.5
 21
-69.5
 31
0.0
  0
LINE
  5
C3
  8
DETAIL
  6
CONTINUOUS
 62
     5
 10
107.0
 20
-2.5
 30
0.0
 11
107.0
 21
-378.5
 31
0.0
  0
LINE
  5
C4
  8
DETAIL
  6
CONTINUOUS
 62
     5
 10
-282.0
 20
-2.5
 30
0.0
 11
-282.0
 21
-378.5
 31
0.0
  0
LINE
  5
C5
  8
DETAIL
  6
CONTINUOUS
 62
     5
 10
87.5
 20
-164.0
 30
0.0
 11
87.5
 21
-253.0
 31
0.0
  0
LINE
  5
C6
  8
DETAIL
  6
CONTINUOUS
 62
     5
 10
-42.5
 20
-164.0
 30
0.0
 11
-42.5
 21
-253.0
 31
0.0
  0
ARC
  5
C7
  8
DETAIL
  6
CONTINUOUS
 62
     5
 10
-37.5
 20
-164.0
 30
0.0
 40
5.0
 50
90.0
 51
180.0
  0
ARC
  5
C8
  8
DETAIL
  6
CONTINUOUS
 62
     5
 10
-37.5
 20
-253.0
 30
0.0
 40
5.0
 50
180.0
 51
270.0
  0
ARC
  5
C9
  8
DETAIL
  6
CONTINUOUS
 62
     5
 10
82.5
 20
-253.0
 30
0.0
 40
5.0
 50
270.0
 51
0.0
  0
ARC
  5
CA
  8
DETAIL
  6
CONTINUOUS
 62
     5
 10
82.5
 20
-164.0
 30
0.0
 40
5.0
 50
0.0
 51
90.0
  0
LINE
  5
CB
  8
NOTE
  6
CONTINUOUS
 62
     4
 10
-367.5
 20
-190.5
 30
0.0
 11
-583.13591699999995
 21
61.085326000000002
 31
0.0
  0
LINE
  5
CC
  8
DETAIL
  6
CONTINUOUS
 62
     5
 10
-470.0
 20
-69.5
 30
0.0
 11
-462.5
 21
-69.5
 31
0.0
  0
LINE
  5
CD
  8
DETAIL
  6
CONTINUOUS
 62
     5
 10
-462.5
 20
-69.5
 30
0.0
 11
-387.5
 21
-61.5
 31
0.0
  0
LINE
  5
CE
  8
DETAIL
  6
CONTINUOUS
 62
     5
 10
-470.0
 20
-311.5
 30
0.0
 11
-462.5
 21
-311.5
 31
0.0
  0
LINE
  5
CF
  8
DETAIL
  6
CONTINUOUS
 62
     5
 10
-462.5
 20
-311.5
 30
0.0
 11
-387.5
 21
-319.5
 31
0.0
  0
LINE
  5
D0
  8
DETAIL
  6
CONTINUOUS
 62
     5
 10
470.0
 20
-69.5
 30
0.0
 11
462.5
 21
-69.5
 31
0.0
  0
LINE
  5
D1
  8
DETAIL
  6
CONTINUOUS
 62
     5
 10
462.5
 20
-69.5
 30
0.0
 11
387.5
 21
-61.5
 31
0.0
  0
LINE
  5
D2
  8
DETAIL
  6
CONTINUOUS
 62
     5
 10
470.0
 20
-311.5
 30
0.0
 11
462.5
 21
-311.5
 31
0.0
  0
LINE
  5
D3
  8
DETAIL
  6
CONTINUOUS
 62
     5
 10
462.5
 20
-311.5
 30
0.0
 11
387.5
 21
-319.5
 31
0.0
  0
LINE
  5
D4
  8
OUTLINE
  6
CONTINUOUS
 62
     3
 10
-387.5
 20
-247.831098
 30
0.0
 11
-387.5
 21
-2.5
 31
0.0
  0
LINE
  5
D5
  8
OUTLINE
  6
CONTINUOUS
 62
     3
 10
387.5
 20
-238.5
 30
0.0
 11
387.5
 21
-378.5
 31
0.0
  0
LINE
  5
D6
  8
OUTLINE
  6
CONTINUOUS
 62
     3
 10
387.5
 20
-2.5
 30
0.0
 11
387.5
 21
-247.831098
 31
0.0
  0
LINE
  5
D7
  8
OUTLINE
  6
CONTINUOUS
 62
     3
 10
-385.0
 20
-381.0
 30
0.0
 11
-385.0
 21
-378.5
 31
0.0
  0
LINE
  5
D8
  8
OUTLINE
  6
CONTINUOUS
 62
     3
 10
-385.11674500000009
 20
-378.5
 30
0.0
 11
-385.0
 21
-378.5
 31
0.0
  0
LINE
  5
D9
  8
OUTLINE
  6
CONTINUOUS
 62
     3
 10
-387.5
 20
-378.5
 30
0.0
 11
-385.11674500000009
 21
-378.5
 31
0.0
  0
LINE
  5
DA
  8
OUTLINE
  6
CONTINUOUS
 62
     3
 10
385.0
 20
0.0
 30
0.0
 11
385.0
 21
-2.5
 31
0.0
  0
LINE
  5
DB
  8
OUTLINE
  6
CONTINUOUS
 62
     3
 10
-385.0
 20
-2.5
 30
0.0
 11
-387.5
 21
-2.5
 31
0.0
  0
LINE
  5
DC
  8
OUTLINE
  6
CONTINUOUS
 62
     3
 10
387.5
 20
-378.5
 30
0.0
 11
385.0
 21
-378.5
 31
0.0
  0
LINE
  5
DD
  8
OUTLINE
  6
CONTINUOUS
 62
     3
 10
387.5
 20
-2.5
 30
0.0
 11
385.0
 21
-2.5
 31
0.0
  0
LINE
  5
DE
  8
OUTLINE
  6
CONTINUOUS
 62
     3
 10
385.0
 20
-381.0
 30
0.0
 11
-385.0
 21
-381.0
 31
0.0
  0
LINE
  5
DF
  8
OUTLINE
  6
CONTINUOUS
 62
     3
 10
-385.0
 20
0.0
 30
0.0
 11
385.0
 21
0.0
 31
0.0
  0
LINE
  5
E0
  8
OUTLINE
  6
CONTINUOUS
 62
     3
 10
385.0
 20
-378.5
 30
0.0
 11
385.0
 21
-381.0
 31
0.0
  0
LINE
  5
E1
  8
OUTLINE
  6
CONTINUOUS
 62
     3
 10
-385.0
 20
-2.5
 30
0.0
 11
-385.0
 21
0.0
 31
0.0
  0
LINE
  5
E2
  8
OUTLINE
  6
CONTINUOUS
 62
     3
 10
-387.5
 20
-378.5
 30
0.0
 11
-387.5
 21
-238.5
 31
0.0
  0
LINE
  5
E3
  8
NOTE
  6
CONTINUOUS
 62
     4
 10
22.5
 20
-159.0
 30
0.0
 11
335.12095699999998
 21
300.26410800000002
 31
0.0
  0
LINE
  5
E4
  8
NOTE
  6
CONTINUOUS
 62
     4
 10
335.12095699999998
 20
300.26410800000002
 30
0.0
 11
883.15444799999989
 21
300.26410800000002
 31
0.0
  0
TEXT
  5
E5
  8
NOTE
  6
CONTINUOUS
 62
     4
 10
343.59778599999999
 20
337.45737500000001
 30
0.0
 40
64.0
  1
端子カバー(EL)
 41
0.9
  0
POINT
  5
E6
  8
ARRANGE
  6
CONTINUOUS
 62
     1
 10
0.0
 20
0.0
 30
0.0
  0
LINE
  5
E7
  8
SIZE
  6
BYBLOCK
 62
    30
 10
-407.5
 20
-2.5
 30
0.0
 11
-821.84533899999997
 21
-2.5
 31
0.0
  0
LINE
  5
E8
  8
SIZE
  6
BYBLOCK
 62
    30
 10
-407.5
 20
-378.5
 30
0.0
 11
-821.84533899999997
 21
-378.5
 31
0.0
  0
LINE
  5
E9
  8
SIZE
  6
BYBLOCK
 62
    30
 10
-791.84533899999985
 20
-4.5
 30
0.0
 11
-791.84533899999985
 21
-376.5
 31
0.0
  0
TEXT
  5
EA
  8
SIZE
  6
BYBLOCK
 62
    30
 10
-823.84533899999997
 20
-263.18571400000002
 30
0.0
 40
64.0
  1
376
 50
90.0
 41
0.9
  0
LINE
  5
EB
  8
SIZE
  6
BYBLOCK
 62
    30
 10
-407.5
 20
-61.5
 30
0.0
 11
-701.60655899999995
 21
-61.5
 31
0.0
  0
LINE
  5
EC
  8
SIZE
  6
BYBLOCK
 62
    30
 10
-407.5
 20
-319.5
 30
0.0
 11
-701.60655899999995
 21
-319.5
 31
0.0
  0
LINE
  5
ED
  8
SIZE
  6
BYBLOCK
 62
    30
 10
-671.60655899999995
 20
-63.5
 30
0.0
 11
-671.60655899999995
 21
-317.5
 31
0.0
  0
TEXT
  5
EE
  8
SIZE
  6
BYBLOCK
 62
    30
 10
-703.60655899999995
 20
-293.35714300000001
 30
0.0
 40
64.0
  1
φ258
 50
90.0
 41
0.9
  0
LINE
  5
EF
  8
SIZE
  6
BYBLOCK
 62
    30
 10
-490.0
 20
-69.5
 30
0.0
 11
-582.55826100000002
 21
-69.5
 31
0.0
  0
LINE
  5
F0
  8
SIZE
  6
BYBLOCK
 62
    30
 10
-482.5
 20
-311.5
 30
0.0
 11
-582.55826100000002
 21
-311.5
 31
0.0
  0
LINE
  5
F1
  8
SIZE
  6
BYBLOCK
 62
    30
 10
-552.5582609999999
 20
-71.5
 30
0.0
 11
-552.5582609999999
 21
-309.5
 31
0.0
  0
TEXT
  5
F2
  8
SIZE
  6
BYBLOCK
 62
    30
 10
-584.55826100000002
 20
-293.35714300000001
 30
0.0
 40
64.0
  1
φ242
 50
90.0
 41
0.9
  0
LINE
  5
F3
  8
SIZE
  6
BYBLOCK
 62
    30
 10
-385.0
 20
-401.0
 30
0.0
 11
-385.0
 21
-696.255538
 31
0.0
  0
LINE
  5
F4
  8
SIZE
  6
BYBLOCK
 62
    30
 10
-470.0
 20
-331.5
 30
0.0
 11
-470.0
 21
-696.255538
 31
0.0
  0
LINE
  5
F5
  8
SIZE
  6
BYBLOCK
 62
    30
 10
-472.0
 20
-666.255538
 30
0.0
 11
-474.0
 21
-666.255538
 31
0.0
  0
LINE
  5
F6
  8
SIZE
  6
BYBLOCK
 62
    30
 10
-383.0
 20
-666.255538
 30
0.0
 11
-381.0
 21
-666.255538
 31
0.0
  0
LINE
  5
F7
  8
SIZE
  6
BYBLOCK
 62
    30
 10
-470.0
 20
-666.255538
 30
0.0
 11
-385.0
 21
-666.255538
 31
0.0
  0
TEXT
  5
F8
  8
SIZE
  6
BYBLOCK
 62
    30
 10
-474.12857100000002
 20
-634.255538
 30
0.0
 40
64.0
  1
85
 41
0.9
  0
LINE
  5
F9
  8
SIZE
  6
BYBLOCK
 62
    30
 10
385.0
 20
-401.0
 30
0.0
 11
385.0
 21
-696.255538
 31
0.0
  0
LINE
  5
FA
  8
SIZE
  6
BYBLOCK
 62
    30
 10
-385.0
 20
-401.0
 30
0.0
 11
-385.0
 21
-696.255538
 31
0.0
  0
LINE
  5
FB
  8
SIZE
  6
BYBLOCK
 62
    30
 10
383.0
 20
-666.255538
 30
0.0
 11
0.0
 21
-666.255538
 31
0.0
  0
LINE
  5
FC
  8
SIZE
  6
BYBLOCK
 62
    30
 10
-383.0
 20
-666.255538
 30
0.0
 11
0.0
 21
-666.255538
 31
0.0
  0
TEXT
  5
FD
  8
SIZE
  6
BYBLOCK
 62
    30
 10
-74.057143000000011
 20
-634.255538
 30
0.0
 40
64.0
  1
770
 41
0.9
  0
LINE
  5
FE
  8
SIZE
  6
BYBLOCK
 62
    30
 10
470.0
 20
-306.5
 30
0.0
 11
470.0
 21
-696.255538
 31
0.0
  0
LINE
  5
FF
  8
SIZE
  6
BYBLOCK
 62
    30
 10
385.0
 20
-401.0
 30
0.0
 11
385.0
 21
-696.255538
 31
0.0
  0
LINE
  5
100
  8
SIZE
  6
BYBLOCK
 62
    30
 10
383.0
 20
-666.255538
 30
0.0
 11
381.0
 21
-666.255538
 31
0.0
  0
LINE
  5
101
  8
SIZE
  6
BYBLOCK
 62
    30
 10
472.0
 20
-666.255538
 30
0.0
 11
474.0
 21
-666.255538
 31
0.0
  0
LINE
  5
102
  8
SIZE
  6
BYBLOCK
 62
    30
 10
385.0
 20
-666.255538
 30
0.0
 11
470.0
 21
-666.255538
 31
0.0
  0
TEXT
  5
103
  8
SIZE
  6
BYBLOCK
 62
    30
 10
380.87142899999998
 20
-634.255538
 30
0.0
 40
64.0
  1
85
 41
0.9
  0
LINE
  5
104
  8
SIZE
  6
BYBLOCK
 62
    30
 10
107.0
 20
-398.5
 30
0.0
 11
107.0
 21
-572.11355000000003
 31
0.0
  0
LINE
  5
105
  8
SIZE
  6
BYBLOCK
 62
    30
 10
-282.0
 20
-398.5
 30
0.0
 11
-282.0
 21
-572.11355000000003
 31
0.0
  0
LINE
  5
106
  8
SIZE
  6
BYBLOCK
 62
    30
 10
105.0
 20
-542.11355000000003
 30
0.0
 11
-280.0
 21
-542.11355000000003
 31
0.0
  0
TEXT
  5
107
  8
SIZE
  6
BYBLOCK
 62
    30
 10
-160.18571399999999
 20
-510.11354999999992
 30
0.0
 40
64.0
  1
389
 41
0.9
  0
LINE
  5
108
  8
SIZE
  6
BYBLOCK
 62
    30
 10
385.0
 20
-401.0
 30
0.0
 11
385.0
 21
-572.11355000000003
 31
0.0
  0
LINE
  5
109
  8
SIZE
  6
BYBLOCK
 62
    30
 10
107.0
 20
-398.5
 30
0.0
 11
107.0
 21
-572.11355000000003
 31
0.0
  0
LINE
  5
10A
  8
SIZE
  6
BYBLOCK
 62
    30
 10
383.0
 20
-542.11355000000003
 30
0.0
 11
109.0
 21
-542.11355000000003
 31
0.0
  0
TEXT
  5
10B
  8
SIZE
  6
BYBLOCK
 62
    30
 10
171.942857
 20
-510.11354999999992
 30
0.0
 40
64.0
  1
278
 41
0.9
  0
LINE
  5
10C
  8
SIZE
  6
BYBLOCK
 62
    30
 10
387.5
 20
17.5
 30
0.0
 11
387.5
 21
239.36404899999999
 31
0.0
  0
LINE
  5
10D
  8
SIZE
  6
BYBLOCK
 62
    30
 10
-387.5
 20
17.5
 30
0.0
 11
-387.5
 21
239.36404899999999
 31
0.0
  0
LINE
  5
10E
  8
SIZE
  6
BYBLOCK
 62
    30
 10
385.5
 20
209.36404899999999
 30
0.0
 11
-385.5
 21
209.36404899999999
 31
0.0
  0
TEXT
  5
10F
  8
SIZE
  6
BYBLOCK
 62
    30
 10
-74.057143000000011
 20
241.36404899999999
 30
0.0
 40
64.0
  1
775
 41
0.9
  0
LINE
  5
110
  8
SIZE
  6
BYBLOCK
 62
    30
 10
367.5
 20
-150.5
 30
0.0
 11
367.5
 21
116.191299
 31
0.0
  0
LINE
  5
111
  8
SIZE
  6
BYBLOCK
 62
    30
 10
-367.5
 20
-150.5
 30
0.0
 11
-367.5
 21
116.191299
 31
0.0
  0
LINE
  5
112
  8
SIZE
  6
BYBLOCK
 62
    30
 10
365.5
 20
86.191299000000001
 30
0.0
 11
-365.5
 21
86.191299000000001
 31
0.0
  0
TEXT
  5
113
  8
SIZE
  6
BYBLOCK
 62
    30
 10
-74.057143000000011
 20
118.191299
 30
0.0
 40
64.0
  1
735
 41
0.9
  0
CIRCLE
  5
114
  8
SIZE
  6
CONTINUOUS
 62
    30
 10
-367.5
 20
86.191299000000001
 30
0.0
 40
6.0
  0
CIRCLE
  5
115
  8
SIZE
  6
CONTINUOUS
 62
    30
 10
367.5
 20
86.191299000000001
 30
0.0
 40
6.0
  0
CIRCLE
  5
116
  8
SIZE
  6
CONTINUOUS
 62
    30
 10
-387.5
 20
209.36404899999999
 30
0.0
 40
6.0
  0
CIRCLE
  5
117
  8
SIZE
  6
CONTINUOUS
 62
    30
 10
387.5
 20
209.36404899999999
 30
0.0
 40
6.0
  0
CIRCLE
  5
118
  8
SIZE
  6
CONTINUOUS
 62
    30
 10
107.0
 20
-542.11355000000003
 30
0.0
 40
6.0
  0
CIRCLE
  5
119
  8
SIZE
  6
CONTINUOUS
 62
    30
 10
385.0
 20
-542.11355000000003
 30
0.0
 40
6.0
  0
CIRCLE
  5
11A
  8
SIZE
  6
CONTINUOUS
 62
    30
 10
-282.0
 20
-542.11355000000003
 30
0.0
 40
6.0
  0
CIRCLE
  5
11B
  8
SIZE
  6
CONTINUOUS
 62
    30
 10
107.0
 20
-542.11355000000003
 30
0.0
 40
6.0
  0
CIRCLE
  5
11C
  8
SIZE
  6
CONTINUOUS
 62
    30
 10
470.0
 20
-666.255538
 30
0.0
 40
6.0
  0
CIRCLE
  5
11D
  8
SIZE
  6
CONTINUOUS
 62
    30
 10
385.0
 20
-666.255538
 30
0.0
 40
6.0
  0
CIRCLE
  5
11E
  8
SIZE
  6
CONTINUOUS
 62
    30
 10
-385.0
 20
-666.255538
 30
0.0
 40
6.0
  0
CIRCLE
  5
11F
  8
SIZE
  6
CONTINUOUS
 62
    30
 10
385.0
 20
-666.255538
 30
0.0
 40
6.0
  0
CIRCLE
  5
120
  8
SIZE
  6
CONTINUOUS
 62
    30
 10
-385.0
 20
-666.255538
 30
0.0
 40
6.0
  0
CIRCLE
  5
121
  8
SIZE
  6
CONTINUOUS
 62
    30
 10
-470.0
 20
-666.255538
 30
0.0
 40
6.0
  0
CIRCLE
  5
122
  8
SIZE
  6
CONTINUOUS
 62
    30
 10
-552.5582609999999
 20
-311.5
 30
0.0
 40
6.0
  0
CIRCLE
  5
123
  8
SIZE
  6
CONTINUOUS
 62
    30
 10
-552.5582609999999
 20
-69.5
 30
0.0
 40
6.0
  0
CIRCLE
  5
124
  8
SIZE
  6
CONTINUOUS
 62
    30
 10
-671.60655899999995
 20
-319.5
 30
0.0
 40
6.0
  0
CIRCLE
  5
125
  8
SIZE
  6
CONTINUOUS
 62
    30
 10
-671.60655899999995
 20
-61.5
 30
0.0
 40
6.0
  0
CIRCLE
  5
126
  8
SIZE
  6
CONTINUOUS
 62
    30
 10
-791.84533899999985
 20
-378.5
 30
0.0
 40
6.0
  0
CIRCLE
  5
127
  8
SIZE
  6
CONTINUOUS
 62
    30
 10
-791.84533899999985
 20
-2.5
 30
0.0
 40
6.0
  0
POLYLINE
  5
128
  8
NOTE
  6
CONTINUOUS
 62
     4
 66
     1
 10
0.0
 20
0.0
 30
0.0
  0
VERTEX
  5
17F
  8
NOTE
  6
CONTINUOUS
 62
     4
 10
36.556260999999999
 20
-121.551081
 30
0.0
  0
VERTEX
  5
180
  8
NOTE
  6
CONTINUOUS
 62
     4
 10
22.5
 20
-159.0
 30
0.0
  0
VERTEX
  5
181
  8
NOTE
  6
CONTINUOUS
 62
     4
 10
53.397539000000002
 20
-133.596416
 30
0.0
  0
SEQEND
  5
182
  8
NOTE
  6
CONTINUOUS
 62
     4
  0
POLYLINE
  5
12D
  8
NOTE
  6
CONTINUOUS
 62
     4
 66
     1
 10
0.0
 20
0.0
 30
0.0
  0
VERTEX
  5
183
  8
NOTE
  6
CONTINUOUS
 62
     4
 10
373.25066399999997
 20
-150.91553500000001
 30
0.0
  0
VERTEX
  5
184
  8
NOTE
  6
CONTINUOUS
 62
     4
 10
367.5
 20
-190.5
 30
0.0
  0
VERTEX
  5
185
  8
NOTE
  6
CONTINUOUS
 62
     4
 10
392.27245399999998
 20
-159.09417999999999
 30
0.0
  0
SEQEND
  5
186
  8
NOTE
  6
CONTINUOUS
 62
     4
  0
POLYLINE
  5
132
  8
NOTE
  6
CONTINUOUS
 62
     4
 66
     1
 10
0.0
 20
0.0
 30
0.0
  0
VERTEX
  5
187
  8
NOTE
  6
CONTINUOUS
 62
     4
 10
-400.04173700000001
 20
-167.239833
 30
0.0
  0
VERTEX
  5
188
  8
NOTE
  6
CONTINUOUS
 62
     4
 10
-367.5
 20
-190.5
 30
0.0
  0
VERTEX
  5
189
  8
NOTE
  6
CONTINUOUS
 62
     4
 10
-384.05188700000002
 20
-154.08523600000001
 30
0.0
  0
SEQEND
  5
18A
  8
NOTE
  6
CONTINUOUS
 62
     4
  0
LINE
  5
137
  8
NOTE
  6
CONTINUOUS
 62
     4
 10
367.5
 20
-210.5
 30
0.0
 11
367.5
 21
-170.5
 31
0.0
  0
LINE
  5
138
  8
NOTE
  6
CONTINUOUS
 62
     4
 10
347.5
 20
-190.5
 30
0.0
 11
387.5
 21
-190.5
 31
0.0
  0
LINE
  5
139
  8
NOTE
  6
CONTINUOUS
 62
     4
 10
-347.5
 20
-190.5
 30
0.0
 11
-387.5
 21
-190.5
 31
0.0
  0
LINE
  5
13A
  8
NOTE
  6
CONTINUOUS
 62
     4
 10
-367.5
 20
-210.5
 30
0.0
 11
-367.5
 21
-170.5
 31
0.0
  0
TEXT
  5
142
  8
ETC
  6
CONTINUOUS
 62
    61
 10
864.64790843980131
 20
637.55579614460532
 30
0.0
 40
64.0
  1
BFS-150SSU3
 41
0.9
  0
TEXT
  5
143
  8
ETC
  6
CONTINUOUS
 62
    61
 10
869.11440443980132
 20
771.55478414460538
 30
0.0
 40
64.0
  1
産業扇
 41
0.9
  0
TEXT
  5
144
  8
ETC
  6
CONTINUOUS
 62
    61
 10
780.34723472264682
 20
903.84606998247045
 30
0.0
 40
64.0
  1
BFS-150SSU3_5
 41
0.9
  0
ENDSEC
  0
EOF
