  0
SECTION
  2
HEADER
  9
$ACADVER
  1
AC1009
  9
$DWGCODEPAGE
  3
dos932
  9
$INSBASE
 10
0.0
 20
0.0
 30
0.0
  9
$EXTMIN
 10
-294.24121611565897
 20
-719.29497198960712
 30
0.0
  9
$EXTMAX
 10
1233.868419278569
 20
257.55886518197968
 30
0.0
  9
$LIMMIN
 10
-2970.0
 20
-2100.0
  9
$LIMMAX
 10
2970.0
 20
2100.0
  9
$ORTHOMODE
 70
     1
  9
$REGENMODE
 70
     1
  9
$FILLMODE
 70
     1
  9
$QTEXTMODE
 70
     0
  9
$MIRRTEXT
 70
     0
  9
$LTSCALE
 40
20.0
  9
$ATTMODE
 70
     1
  9
$TEXTSIZE
 40
64.0
  9
$TRACEWID
 40
0.05
  9
$TEXTSTYLE
  7
STANDARD
  9
$CLAYER
  8
SIZE
  9
$CELTYPE
  6
CONTINUOUS
  9
$CECOLOR
 62
     7
  9
$DIMSCALE
 40
1.0
  9
$DIMASZ
 40
12.0
  9
$DIMEXO
 40
20.0
  9
$DIMDLI
 40
200.0
  9
$DIMRND
 40
0.0
  9
$DIMDLE
 40
0.0
  9
$DIMEXE
 40
20.0
  9
$DIMTP
 40
0.0
  9
$DIMTM
 40
0.0
  9
$DIMTXT
 40
64.0
  9
$DIMCEN
 40
0.09
  9
$DIMTSZ
 40
0.0
  9
$DIMTOL
 70
     0
  9
$DIMLIM
 70
     0
  9
$DIMTIH
 70
     0
  9
$DIMTOH
 70
     0
  9
$DIMSE1
 70
     0
  9
$DIMSE2
 70
     0
  9
$DIMTAD
 70
     1
  9
$DIMZIN
 70
     8
  9
$DIMBLK
  1

  9
$DIMASO
 70
     1
  9
$DIMSHO
 70
     0
  9
$DIMPOST
  1

  9
$DIMAPOST
  1

  9
$DIMALT
 70
     0
  9
$DIMALTD
 70
     2
  9
$DIMALTF
 40
25.399999999999999
  9
$DIMLFAC
 40
1.0
  9
$DIMTOFL
 70
     1
  9
$DIMTVP
 40
0.0
  9
$DIMTIX
 70
     1
  9
$DIMSOXD
 70
     0
  9
$DIMSAH
 70
     0
  9
$DIMBLK1
  1

  9
$DIMBLK2
  1

  9
$DIMSTYLE
  2
STANDARD
  9
$DIMCLRD
 70
     7
  9
$DIMCLRE
 70
     7
  9
$DIMCLRT
 70
     7
  9
$DIMTFAC
 40
1.0
  9
$DIMGAP
 40
25.0
  9
$LUNITS
 70
     2
  9
$LUPREC
 70
     4
  9
$SKETCHINC
 40
0.1
  9
$FILLETRAD
 40
3.0
  9
$AUNITS
 70
     1
  9
$AUPREC
 70
     3
  9
$MENU
  1
ACAD
  9
$ELEVATION
 40
0.0
  9
$PELEVATION
 40
0.0
  9
$THICKNESS
 40
50.0
  9
$LIMCHECK
 70
     0
  9
$CHAMFERA
 40
0.0
  9
$CHAMFERB
 40
0.0
  9
$SKPOLY
 70
     0
  9
$TDCREATE
 40
2453019.623009259
  9
$TDUPDATE
 40
2459292.392309954
  9
$TDINDWG
 40
1.7247266319
  9
$TDUSRTIMER
 40
1.7247266319
  9
$USRTIMER
 70
     1
  9
$ANGBASE
 50
0.0
  9
$ANGDIR
 70
     0
  9
$PDMODE
 70
     3
  9
$PDSIZE
 40
-2.0
  9
$PLINEWID
 40
0.0
  9
$SPLFRAME
 70
     0
  9
$SPLINETYPE
 70
     6
  9
$SPLINESEGS
 70
     8
  9
$SURFTAB1
 70
     6
  9
$SURFTAB2
 70
     6
  9
$SURFTYPE
 70
     6
  9
$SURFU
 70
     6
  9
$SURFV
 70
     6
  9
$UCSNAME
  2

  9
$UCSORG
 10
0.0
 20
0.0
 30
0.0
  9
$UCSXDIR
 10
1.0
 20
0.0
 30
0.0
  9
$UCSYDIR
 10
0.0
 20
1.0
 30
0.0
  9
$PUCSNAME
  2

  9
$PUCSORG
 10
0.0
 20
0.0
 30
0.0
  9
$PUCSXDIR
 10
1.0
 20
0.0
 30
0.0
  9
$PUCSYDIR
 10
0.0
 20
1.0
 30
0.0
  9
$USERI1
 70
     0
  9
$USERI2
 70
     0
  9
$USERI3
 70
     0
  9
$USERI4
 70
     0
  9
$USERI5
 70
     0
  9
$USERR1
 40
20.0
  9
$USERR2
 40
0.0
  9
$USERR3
 40
0.0
  9
$USERR4
 40
0.0
  9
$USERR5
 40
0.0
  9
$WORLDVIEW
 70
     1
  9
$SHADEDGE
 70
     3
  9
$SHADEDIF
 70
    70
  9
$TILEMODE
 70
     1
  9
$MAXACTVP
 70
    48
  9
$PINSBASE
 10
0.0
 20
0.0
 30
0.0
  9
$PLIMCHECK
 70
     0
  9
$PEXTMIN
 10
-100000000000000000000.0
 20
-100000000000000000000.0
 30
-100000000000000000000.0
  9
$PEXTMAX
 10
100000000000000000000.0
 20
100000000000000000000.0
 30
100000000000000000000.0
  9
$PLIMMIN
 10
0.0
 20
0.0
  9
$PLIMMAX
 10
12.0
 20
9.0
  9
$UNITMODE
 70
     0
  9
$VISRETAIN
 70
     0
  9
$PLINEGEN
 70
     0
  9
$PSLTSCALE
 70
     0
  9
$TREEDEPTH
 70
  3020
  9
$ATTDIA
 70
     0
  9
$ATTREQ
 70
     1
  9
$BLIPMODE
 70
     1
  9
$COORDS
 70
     1
  9
$DRAGMODE
 70
     2
  9
$OSMODE
 70
     0
  9
$HANDLING
 70
     0
  9
$HANDSEED
  5
2A2
  0
ENDSEC
  0
SECTION
  2
TABLES
  0
TABLE
  2
LTYPE
 70
     2
  0
LTYPE
  2
CONTINUOUS
 70
     0
  3
実線
 72
    65
 73
     0
 40
0.0
  0
LTYPE
  2
DASHDOT
 70
     0
  3
____ _ ____ _ ____ _ ____ _ ____ _ ____ _ ____
 72
    65
 73
     4
 40
5.5
 49
4.0
 49
-0.6
 49
0.3
 49
-0.6
  0
ENDTAB
  0
TABLE
  2
LAYER
 70
    12
  0
LAYER
  2
SIZE
 70
     0
 62
    30
  6
CONTINUOUS
  0
LAYER
  2
BASIS
 70
     0
 62
     6
  6
DASHDOT
  0
LAYER
  2
OUTLINE
 70
     0
 62
     3
  6
CONTINUOUS
  0
LAYER
  2
DETAIL
 70
     0
 62
     5
  6
CONTINUOUS
  0
LAYER
  2
ARRANGE
 70
     0
 62
     1
  6
CONTINUOUS
  0
LAYER
  2
DEFPOINTS
 70
     0
 62
     7
  6
CONTINUOUS
  0
LAYER
  2
ETC
 70
     0
 62
    61
  6
CONTINUOUS
  0
LAYER
  2
FIX
 70
     0
 62
    11
  6
CONTINUOUS
  0
LAYER
  2
NOTE
 70
     0
 62
     4
  6
CONTINUOUS
  0
LAYER
  2
0
 70
    64
 62
     7
  6
CONTINUOUS
  0
LAYER
  2
SERVICESPACE
 70
    64
 62
     2
  6
DASHDOT
  0
LAYER
  2
SYMBOLLINE
 70
    64
 62
    15
  6
CONTINUOUS
  0
ENDTAB
  0
TABLE
  2
STYLE
 70
     1
  0
STYLE
  2
STANDARD
 70
     0
 40
64.0
 41
0.9
 50
0.0
 71
     0
 42
64.0
  3
SIMPLEX.shx
  4
BIGFONT.shx
  0
ENDTAB
  0
TABLE
  2
APPID
 70
    21
  0
APPID
  2
ACAD
 70
     0
  0
APPID
  2
ACADANNOTATIVE
 70
     0
  0
APPID
  2
AUTOCAD_POSTSCRIPT_FIGURE
 70
     0
  0
APPID
  2
ACAD_EXEMPT_FROM_CAD_STANDARDS
 70
     0
  0
APPID
  2
ACAD_PSEXT
 70
     0
  0
APPID
  2
ACAUTHENVIRON
 70
     0
  0
APPID
  2
GENIUS_GENOENT_13
 70
     0
  0
APPID
  2
GENIUS_GENCFG_13
 70
     0
  0
APPID
  2
GENIUS_GENCFG0_13
 70
     0
  0
APPID
  2
GENIUS_GENCFG1_13
 70
     0
  0
APPID
  2
GENIUS_GENCFG2_13
 70
     0
  0
APPID
  2
GENIUS_GENCFG3_13
 70
     0
  0
APPID
  2
GENIUS_GENCFG4_13
 70
     0
  0
APPID
  2
GENIUS_GEVCFG0_13
 70
     0
  0
APPID
  2
CONTENTBLOCKICON
 70
     0
  0
APPID
  2
CONTENTBLOCKDESCRIPTION
 70
     0
  0
APPID
  2
ACAD_NAV_VCDISPLAY
 70
     0
  0
APPID
  2
ACAD_MLEADERVER
 70
     0
  0
APPID
  2
ACDBDYNAMICBLOCKTRUENAME
 70
     0
  0
APPID
  2
ACDBDYNAMICBLOCKGUID
 70
     0
  0
APPID
  2
ACAD_DSTYLE_DIMRADIAL_EXTENSION
 70
     0
  0
ENDTAB
  0
TABLE
  2
DIMSTYLE
 70
     1
  0
DIMSTYLE
  2
STANDARD
 70
     0
  3

  4

  5

  6

  7

 40
1.0
 41
12.0
 42
20.0
 43
200.0
 44
20.0
 45
0.0
 46
0.0
 47
0.0
 48
0.0
140
64.0
141
0.09
142
0.0
143
25.399999999999999
144
1.0
145
0.0
146
1.0
147
25.0
 71
     0
 72
     0
 73
     0
 74
     0
 75
     0
 76
     0
 77
     1
 78
     8
170
     0
171
     2
172
     1
173
     0
174
     1
175
     0
176
     7
177
     7
178
     7
  0
ENDTAB
  0
TABLE
  2
VIEW
 70
     1
  0
VIEW
  2
ALL
 70
     0
 40
4282.6198079999986
 10
0.0
 20
41.309904000000003
 41
5940.0
 11
0.0
 21
0.0
 31
1.0
 12
0.0
 22
0.0
 32
0.0
 42
50.0
 43
0.0
 44
0.0
 50
0.0
 71
     0
  0
ENDTAB
  0
TABLE
  2
UCS
 70
     0
  0
ENDTAB
  0
TABLE
  2
VPORT
 70
     1
  0
VPORT
  2
*ACTIVE
 70
     0
 10
0.0
 20
0.0
 11
1.0
 21
1.0
 12
479.34097697045598
 22
-230.8730984000413
 13
0.0
 23
0.0
 14
1.0
 24
1.0
 15
0.0
 25
0.0
 16
0.0
 26
0.0
 36
1.0
 17
0.0
 27
0.0
 37
0.0
 40
983.48238235372037
 41
1.767337807606264
 42
50.0
 43
0.0
 44
0.0
 50
0.0
 51
0.0
 71
     0
 72
  1000
 73
     1
 74
     3
 75
     0
 76
     0
 77
     0
 78
     0
  0
ENDTAB
  0
ENDSEC
  0
SECTION
  2
BLOCKS
  0
ENDSEC
  0
SECTION
  2
ENTITIES
  0
LINE
  8
DETAIL
  6
CONTINUOUS
 62
     5
 10
190.5170242439153
 20
-0.597257914354941
 30
0.0
 11
191.71298249113721
 21
-1.793121141827442
 31
0.0
  0
LINE
  8
DETAIL
  6
CONTINUOUS
 62
     5
 10
174.50163946634979
 20
-212.96907011495151
 30
0.0
 11
221.21237091459531
 21
-212.96907011496239
 31
0.0
  0
ARC
  8
DETAIL
  6
CONTINUOUS
 62
     5
 10
221.21223517001539
 20
-205.992688609542
 30
0.0
 40
6.9763815067410047
 50
270.00111484610062
 51
314.99898616903931
  0
LINE
  8
DETAIL
  6
CONTINUOUS
 62
     5
 10
226.14519455208119
 20
-210.92582256905379
 30
0.0
 11
251.4567963520185
 21
-187.00832574959031
 31
0.0
  0
ARC
  8
DETAIL
  6
CONTINUOUS
 62
     5
 10
246.52395216274269
 20
-182.07548639462709
 30
0.0
 40
6.97609173517277
 50
315.00002807567239
 51
359.99987090981813
  0
LINE
  8
DETAIL
  6
CONTINUOUS
 62
     5
 10
253.50004389789771
 20
-182.07550211210099
 30
0.0
 11
253.50004389789589
 21
-163.71006212201081
 31
0.0
  0
LINE
  8
DETAIL
  6
CONTINUOUS
 62
     5
 10
192.672996645696
 20
-1.3945035852445931
 30
0.0
 11
194.303905063136
 21
-1.3946805174167589
 31
0.0
  0
ARC
  8
DETAIL
  6
CONTINUOUS
 62
     5
 10
194.3039101572858
 20
-0.1986454850780319
 30
0.0
 40
1.1960350323495761
 50
269.99975596596818
 51
56.993000198743196
  0
LINE
  8
DETAIL
  6
CONTINUOUS
 62
     5
 10
194.95544006407269
 20
0.8043543051356892
 30
0.0
 11
188.4361172845274
 21
5.0380135594833746
 31
0.0
  0
LINE
  8
DETAIL
  6
CONTINUOUS
 62
     5
 10
193.7990099485651
 20
-0.597257914354941
 30
0.0
 11
194.30389637884491
 21
-0.5975374653900191
 31
0.0
  0
ARC
  8
DETAIL
  6
CONTINUOUS
 62
     5
 10
194.30392480219331
 20
-0.1987364613254385
 30
0.0
 40
0.398801005077475
 50
269.99591641476837
 51
57.001905491349461
  0
LINE
  8
DETAIL
  6
CONTINUOUS
 62
     5
 10
194.521116273384
 20
0.1357334274431423
 30
0.0
 11
188.00193074423811
 21
4.3693926817835518
 31
0.0
  0
LINE
  8
DETAIL
  6
CONTINUOUS
 62
     5
 10
188.00193074423811
 20
4.3693926817835518
 30
0.0
 11
188.4361172845274
 21
5.0380135594833746
 31
0.0
  0
ARC
  8
DETAIL
  6
CONTINUOUS
 62
     5
 10
194.30400738244589
 20
-348.60404360766597
 30
0.0
 40
1.1959447901108911
 50
303.00425386776658
 51
89.99596390941899
  0
LINE
  8
DETAIL
  6
CONTINUOUS
 62
     5
 10
194.95544006407269
 20
-349.60699894181653
 30
0.0
 11
188.4361172845274
 21
-353.84065819615682
 31
0.0
  0
LINE
  8
DETAIL
  6
CONTINUOUS
 62
     5
 10
193.7990099485651
 20
-348.20537616459842
 30
0.0
 11
194.30409162846809
 21
-348.20537616459842
 31
0.0
  0
ARC
  8
DETAIL
  6
CONTINUOUS
 62
     5
 10
194.3040802045316
 20
-348.60398918239918
 30
0.0
 40
0.3986130179646267
 50
302.98900777278971
 51
89.99835794789108
  0
LINE
  8
DETAIL
  6
CONTINUOUS
 62
     5
 10
194.521116273384
 20
-348.9383358332102
 30
0.0
 11
188.00193074423811
 21
-353.17199508755431
 31
0.0
  0
LINE
  8
DETAIL
  6
CONTINUOUS
 62
     5
 10
188.00193074423811
 20
-353.17199508755431
 30
0.0
 11
188.4361172845274
 21
-353.84065819615682
 31
0.0
  0
ARC
  8
DETAIL
  6
CONTINUOUS
 62
     5
 10
200.53274487722319
 20
-23.31928688410812
 30
0.0
 40
0.7973359537124699
 50
180.00193526013379
 51
269.99351239624627
  0
LINE
  8
DETAIL
  6
CONTINUOUS
 62
     5
 10
199.7354089239652
 20
-23.31931381545451
 30
0.0
 11
199.7354089239652
 21
-14.948007279954821
 31
0.0
  0
LINE
  8
DETAIL
  6
CONTINUOUS
 62
     5
 10
199.7354089239652
 20
-14.948007279954821
 30
0.0
 11
197.7423105833341
 21
-14.948007279954821
 31
0.0
  0
LINE
  8
DETAIL
  6
CONTINUOUS
 62
     5
 10
197.7423105833341
 20
-14.948007279954821
 30
0.0
 11
197.7423105833341
 21
-4.9822199603961508
 31
0.0
  0
LINE
  8
DETAIL
  6
CONTINUOUS
 62
     5
 10
193.8688598731824
 20
-346.21220391986373
 30
0.0
 11
195.49995485595539
 21
-346.21220391986373
 31
0.0
  0
LINE
  8
DETAIL
  6
CONTINUOUS
 62
     5
 10
195.49995485595539
 20
-346.21220391986373
 30
0.0
 11
195.49995485595539
 21
-212.96907011495151
 31
0.0
  0
LINE
  8
DETAIL
  6
CONTINUOUS
 62
     5
 10
195.4999548559563
 20
-4.9822188793247051
 30
0.0
 11
195.49995485595539
 21
-2.590430159082302
 31
0.0
  0
LINE
  8
DETAIL
  6
CONTINUOUS
 62
     5
 10
195.49995485595539
 20
-2.590430159082302
 30
0.0
 11
192.67299664569691
 21
-2.590430159082302
 31
0.0
  0
ARC
  8
DETAIL
  6
CONTINUOUS
 62
     5
 10
85.60128472426004
 20
-168.0230766259441
 30
0.0
 40
89.693414711057585
 50
340.50375793694138
 51
355.86163155787409
  0
ARC
  8
DETAIL
  6
CONTINUOUS
 62
     5
 10
182.018710526364
 20
-174.99925731495239
 30
0.0
 40
6.9760587296861729
 50
89.999833210805477
 51
175.8616944654645
  0
LINE
  8
DETAIL
  6
CONTINUOUS
 62
     5
 10
182.01873083381361
 20
-168.0231985852956
 30
0.0
 11
253.50004389789771
 21
-168.0231985852956
 31
0.0
  0
LINE
  8
DETAIL
  6
CONTINUOUS
 62
     5
 10
194.30409162846809
 20
-348.20537616459842
 30
0.0
 11
193.8688598731824
 21
-212.96907011495151
 31
0.0
  0
LINE
  8
DETAIL
  6
CONTINUOUS
 62
     5
 10
193.8688598731824
 20
-347.00948126393951
 30
0.0
 11
192.672996645696
 21
-347.00948126393951
 31
0.0
  0
LINE
  8
DETAIL
  6
CONTINUOUS
 62
     5
 10
193.10822840101079
 20
-349.79992029501528
 30
0.0
 11
193.10822840101079
 21
-349.71692599974517
 31
0.0
  0
LINE
  8
DETAIL
  6
CONTINUOUS
 62
     5
 10
-194.30413474382479
 20
-349.00265350867068
 30
0.0
 11
193.10822840101079
 21
-349.00265350867068
 31
0.0
  0
LINE
  8
DETAIL
  6
CONTINUOUS
 62
     5
 10
193.10822840101079
 20
-349.00265350867068
 30
0.0
 11
193.10822840101079
 21
-347.00948126393951
 31
0.0
  0
LINE
  8
DETAIL
  6
CONTINUOUS
 62
     5
 10
193.10822840101079
 20
-1.793121141827442
 30
0.0
 11
193.10822840101079
 21
-1.3945035852445931
 31
0.0
  0
LINE
  8
DETAIL
  6
CONTINUOUS
 62
     5
 10
192.672996645696
 20
-1.793121141827442
 30
0.0
 11
192.672996645696
 21
-168.0231985852956
 31
0.0
  0
LINE
  8
DETAIL
  6
CONTINUOUS
 62
     5
 10
192.672996645696
 20
-212.96907011495151
 30
0.0
 11
192.672996645696
 21
-347.00948126393951
 31
0.0
  0
LINE
  8
DETAIL
  6
CONTINUOUS
 62
     5
 10
192.672996645696
 20
-349.79992029501528
 30
0.0
 11
192.672996645696
 21
-349.00265350867068
 31
0.0
  0
LINE
  8
DETAIL
  6
CONTINUOUS
 62
     5
 10
190.3177471390209
 20
-349.79992029501528
 30
0.0
 11
190.3177471390209
 21
-349.00265350867068
 31
0.0
  0
LINE
  8
DETAIL
  6
CONTINUOUS
 62
     5
 10
191.31436493455109
 20
-1.3945035852445931
 30
0.0
 11
192.67298312712961
 21
-1.3944332512337501
 31
0.0
  0
ARC
  8
DETAIL
  6
CONTINUOUS
 62
     5
 10
192.67300014136069
 20
-0.1985735176419894
 30
0.0
 40
1.1958597337127961
 50
269.99918481776677
 51
90.000167483563061
  0
ARC
  8
DETAIL
  6
CONTINUOUS
 62
     5
 10
192.6730549857939
 20
-348.60401294351652
 30
0.0
 40
1.1959073529218269
 50
269.99720493283411
 51
68.63491717055777
  0
LINE
  8
DETAIL
  6
CONTINUOUS
 62
     5
 10
185.46404458143479
 20
-349.00265350867068
 30
0.0
 11
185.46404458143479
 21
-349.79992029501528
 31
0.0
  0
LINE
  8
DETAIL
  6
CONTINUOUS
 62
     5
 10
182.47431788754599
 20
-349.00265350867068
 30
0.0
 11
182.47431788754599
 21
-349.79992029501528
 31
0.0
  0
ARC
  8
DETAIL
  6
CONTINUOUS
 62
     5
 10
-194.3040638910079
 20
-348.60398621617611
 30
0.0
 40
1.195934080937783
 50
90.003718274174275
 51
269.99660552578712
  0
LINE
  8
DETAIL
  6
CONTINUOUS
 62
     5
 10
-194.30413474382479
 20
-349.79992029501528
 30
0.0
 11
-185.96240175458479
 21
-349.79992029501528
 31
0.0
  0
LINE
  8
DETAIL
  6
CONTINUOUS
 62
     5
 10
-185.96240175458479
 20
-349.79992029501528
 30
0.0
 11
-185.96240175458479
 21
-349.00265350867068
 31
0.0
  0
LINE
  8
DETAIL
  6
CONTINUOUS
 62
     5
 10
-185.4641614820348
 20
-349.79992029501528
 30
0.0
 11
-0.0797692923297212
 21
-349.79992029501528
 31
0.0
  0
ARC
  8
DETAIL
  6
CONTINUOUS
 62
     5
 10
193.10806776360371
 20
-348.60670660132172
 30
0.0
 40
1.19321370450637
 50
270.00771349296491
 51
274.53606658339328
  0
LINE
  8
DETAIL
  6
CONTINUOUS
 62
     5
 10
193.10822840101079
 20
-349.79992029501528
 30
0.0
 11
-0.0797692923297212
 21
-349.79992029501528
 31
0.0
  0
LINE
  8
DETAIL
  6
CONTINUOUS
 62
     5
 10
-194.30413474382479
 20
-347.80675860801171
 30
0.0
 11
193.10822840101079
 21
-347.80675860801171
 31
0.0
  0
LINE
  8
DETAIL
  6
CONTINUOUS
 62
     5
 10
-195.49999797134109
 20
-212.96907011495151
 30
0.0
 11
-195.49999797134109
 21
-347.00948126393951
 31
0.0
  0
LINE
  8
DETAIL
  6
CONTINUOUS
 62
     5
 10
-195.49999797134109
 20
-347.00948126393951
 30
0.0
 11
-194.30413474382479
 21
-347.00948126393951
 31
0.0
  0
LINE
  8
DETAIL
  6
CONTINUOUS
 62
     5
 10
169.7442113545321
 20
-199.0853101487269
 30
0.0
 11
169.74923683280761
 21
-199.07183848853191
 31
0.0
  0
LINE
  8
DETAIL
  6
CONTINUOUS
 62
     5
 10
169.74923683280761
 20
-199.07183848853191
 30
0.0
 11
169.76779731760419
 21
-199.02058072189629
 31
0.0
  0
LINE
  8
DETAIL
  6
CONTINUOUS
 62
     5
 10
169.76779731760419
 20
-199.02058072189629
 30
0.0
 11
169.785840473809
 21
-198.96918570480281
 31
0.0
  0
LINE
  8
DETAIL
  6
CONTINUOUS
 62
     5
 10
169.785840473809
 20
-198.96918570480281
 30
0.0
 11
169.7989848444395
 21
-198.93126234789699
 31
0.0
  0
LINE
  8
DETAIL
  6
CONTINUOUS
 62
     5
 10
169.7989848444395
 20
-198.93126234789699
 30
0.0
 11
169.8165212296644
 21
-198.8796772917043
 31
0.0
  0
LINE
  8
DETAIL
  6
CONTINUOUS
 62
     5
 10
169.8165212296644
 20
-198.8796772917043
 30
0.0
 11
169.83365642127319
 21
-198.82796554279221
 31
0.0
  0
LINE
  8
DETAIL
  6
CONTINUOUS
 62
     5
 10
169.83365642127319
 20
-198.82796554279221
 30
0.0
 11
169.85053822742071
 21
-198.77612710114241
 31
0.0
  0
LINE
  8
DETAIL
  6
CONTINUOUS
 62
     5
 10
169.85053822742071
 20
-198.77612710114241
 30
0.0
 11
169.86703995537661
 21
-198.72422531313481
 31
0.0
  0
LINE
  8
DETAIL
  6
CONTINUOUS
 62
     5
 10
169.86703995537661
 20
-198.72422531313481
 30
0.0
 11
169.8834044329042
 21
-198.67221794784439
 31
0.0
  0
LINE
  8
DETAIL
  6
CONTINUOUS
 62
     5
 10
169.8834044329042
 20
-198.67221794784439
 30
0.0
 11
169.8993888322411
 21
-198.6201472361962
 31
0.0
  0
LINE
  8
DETAIL
  6
CONTINUOUS
 62
     5
 10
169.8993888322411
 20
-198.6201472361962
 30
0.0
 11
169.91523598106139
 21
-198.56799206272791
 31
0.0
  0
LINE
  8
DETAIL
  6
CONTINUOUS
 62
     5
 10
173.55283761831291
 20
-185.5551601470751
 30
0.0
 11
173.7915161621622
 21
-184.3365450170096
 31
0.0
  0
LINE
  8
DETAIL
  6
CONTINUOUS
 62
     5
 10
173.7915161621622
 20
-184.3365450170096
 30
0.0
 11
174.01422086443111
 21
-183.09979171122049
 31
0.0
  0
LINE
  8
DETAIL
  6
CONTINUOUS
 62
     5
 10
174.01422086443111
 20
-183.09979171122049
 30
0.0
 11
174.22081447460459
 21
-181.84458349790739
 31
0.0
  0
LINE
  8
DETAIL
  6
CONTINUOUS
 62
     5
 10
174.22081447460459
 20
-181.84458349790739
 30
0.0
 11
174.38254830099319
 21
-180.77057756035001
 31
0.0
  0
LINE
  8
DETAIL
  6
CONTINUOUS
 62
     5
 10
174.38254830099319
 20
-180.77057756035001
 30
0.0
 11
174.5589890416868
 21
-179.48046550016849
 31
0.0
  0
LINE
  8
DETAIL
  6
CONTINUOUS
 62
     5
 10
174.5589890416868
 20
-179.48046550016849
 30
0.0
 11
174.71660535442609
 21
-178.18585584810981
 31
0.0
  0
LINE
  8
DETAIL
  6
CONTINUOUS
 62
     5
 10
174.71660535442609
 20
-178.18585584810981
 30
0.0
 11
174.85540779685019
 21
-176.88720258644301
 31
0.0
  0
LINE
  8
DETAIL
  6
CONTINUOUS
 62
     5
 10
174.85540779685019
 20
-176.88720258644301
 30
0.0
 11
174.97539636898821
 21
-175.58499137063819
 31
0.0
  0
LINE
  8
DETAIL
  6
CONTINUOUS
 62
     5
 10
174.97539636898821
 20
-175.58499137063819
 30
0.0
 11
175.0608400570527
 21
-174.4958350942303
 31
0.0
  0
LINE
  8
DETAIL
  6
CONTINUOUS
 62
     5
 10
194.95544006407269
 20
-349.60699894181653
 30
0.0
 11
194.521116273384
 21
-348.9383358332102
 31
0.0
  0
LINE
  8
DETAIL
  6
CONTINUOUS
 62
     5
 10
192.18094320141969
 20
-350.45811013801989
 30
0.0
 11
192.6151297417091
 21
-351.12676268889891
 31
0.0
  0
ARC
  8
DETAIL
  6
CONTINUOUS
 62
     5
 10
85.590162681885914
 20
-168.01814160673729
 30
0.0
 40
89.705478479379934
 50
336.87227283855731
 51
339.73735565749388
  0
ARC
  8
DETAIL
  6
CONTINUOUS
 62
     5
 10
174.50163462448111
 20
-205.99293362960199
 30
0.0
 40
6.9761364853512697
 50
156.8724997926968
 51
270.00003976681091
  0
ARC
  8
DETAIL
  6
CONTINUOUS
 62
     5
 10
-222.40814445306299
 20
-205.9926702192206
 30
0.0
 40
6.9763998972038941
 50
225.00107638942981
 51
269.99882259564703
  0
LINE
  8
DETAIL
  6
CONTINUOUS
 62
     5
 10
-227.34111145265251
 20
-210.92582256905379
 30
0.0
 11
-251.45671325258991
 21
-187.00832574957579
 31
0.0
  0
ARC
  8
DETAIL
  6
CONTINUOUS
 62
     5
 10
-246.52386866123561
 20
-182.0755011589506
 30
0.0
 40
6.9760815795351476
 50
180.00000782838629
 51
224.99988384393311
  0
LINE
  8
DETAIL
  6
CONTINUOUS
 62
     5
 10
-253.49995024077089
 20
-182.07550211210099
 30
0.0
 11
-253.49995024077089
 21
-164.03686465356111
 31
0.0
  0
LINE
  8
DETAIL
  6
CONTINUOUS
 62
     5
 10
206.56198268703341
 20
-186.55963289182611
 30
0.0
 11
183.5705435756372
 21
-186.55940319943599
 31
0.0
  0
ARC
  8
DETAIL
  6
CONTINUOUS
 62
     5
 10
183.57059759830739
 20
-191.54242754193061
 30
0.0
 40
4.9830243427873979
 50
90.000621163162265
 51
269.9995492792184
  0
LINE
  8
DETAIL
  6
CONTINUOUS
 62
     5
 10
183.57055839904021
 20
-196.52545188456381
 30
0.0
 11
206.56198268703341
 21
-196.52545188456381
 31
0.0
  0
ARC
  8
DETAIL
  6
CONTINUOUS
 62
     5
 10
206.56211338466801
 20
-191.54254238819499
 30
0.0
 40
4.9829094980828934
 50
269.99849717865442
 51
90.00150282134571
  0
ARC
  8
DETAIL
  6
CONTINUOUS
 62
     5
 10
-26.08307989654713
 20
-37.43105401510595
 30
0.0
 40
1.993261871612579
 50
100.7352211454198
 51
193.9977269026451
  0
ARC
  8
DETAIL
  6
CONTINUOUS
 62
     5
 10
0.0000232143411346
 20
-174.99990955377419
 30
0.0
 40
142.0129686349016
 50
349.26410028616579
 51
100.7358559803549
  0
ARC
  8
DETAIL
  6
CONTINUOUS
 62
     5
 10
137.5689979748131
 20
-201.08318668063319
 30
0.0
 40
1.9931123214765321
 50
255.99894773014981
 51
349.2659392323369
  0
LINE
  8
DETAIL
  6
CONTINUOUS
 62
     5
 10
137.0867849466031
 20
-203.01708619235731
 30
0.0
 11
134.8897503847129
 21
-202.46928719301141
 31
0.0
  0
ARC
  8
DETAIL
  6
CONTINUOUS
 62
     5
 10
133.44317469045021
 20
-208.27117589589099
 30
0.0
 40
5.9795061468179824
 50
75.999977953489193
 51
255.9999718871851
  0
LINE
  8
DETAIL
  6
CONTINUOUS
 62
     5
 10
131.99659838189839
 20
-214.0730644456111
 30
0.0
 11
134.1937248049708
 21
-214.62083101749661
 31
0.0
  0
ARC
  8
DETAIL
  6
CONTINUOUS
 62
     5
 10
133.71163257540681
 20
-216.55452401279129
 30
0.0
 40
1.992882715529849
 50
342.73173215122779
 51
76.000881047432571
  0
ARC
  8
DETAIL
  6
CONTINUOUS
 62
     5
 10
-0.0003070884877082
 20
-175.0000787279277
 30
0.0
 40
142.01307672366551
 50
283.26427744378418
 51
342.73595565817669
  0
ARC
  8
DETAIL
  6
CONTINUOUS
 62
     5
 10
32.12625247922734
 20
-311.28457194844708
 30
0.0
 40
1.9931534199023471
 50
189.99996963029739
 51
283.26495972682932
  0
LINE
  8
DETAIL
  6
CONTINUOUS
 62
     5
 10
30.163379354909932
 20
-311.63067836720018
 30
0.0
 11
29.770167354760819
 21
-309.40079131592279
 31
0.0
  0
LINE
  8
DETAIL
  6
CONTINUOUS
 62
     5
 10
-136.4774359162484
 20
-157.00711187346269
 30
0.0
 11
-138.70741798707789
 21
-156.6139632196863
 31
0.0
  0
ARC
  8
DETAIL
  6
CONTINUOUS
 62
     5
 10
-139.05352452727951
 20
-158.57681789906169
 30
0.0
 40
1.9931352762710599
 50
79.999934858560977
 51
173.26492553503181
  0
ARC
  8
DETAIL
  6
CONTINUOUS
 62
     5
 10
-0.0000758585774669
 20
-175.00002345303579
 30
0.0
 40
142.0130740967079
 50
173.26417426710921
 51
276.73583724118652
  0
ARC
  8
DETAIL
  6
CONTINUOUS
 62
     5
 10
16.42318247354434
 20
-314.05342877410862
 30
0.0
 40
1.9931721348410401
 50
276.7342415980678
 51
9.999635203181688
  0
LINE
  8
DETAIL
  6
CONTINUOUS
 62
     5
 10
18.38607604863774
 20
-313.70733056266772
 30
0.0
 11
17.992864048517738
 21
-311.4774435113867
 31
0.0
  0
LINE
  8
DETAIL
  6
CONTINUOUS
 62
     5
 10
-28.01715250130837
 20
-37.913190975369979
 30
0.0
 11
-27.469290909856671
 21
-40.110180148002677
 31
0.0
  0
ARC
  8
DETAIL
  6
CONTINUOUS
 62
     5
 10
-33.271206885449821
 20
-41.556736549109608
 30
0.0
 40
5.9795279420223819
 50
193.99988497573679
 51
13.999779450231509
  0
LINE
  8
DETAIL
  6
CONTINUOUS
 62
     5
 10
-39.073120196812837
 20
-43.00330363599371
 30
0.0
 11
-39.620962359632351
 21
-40.806324346449422
 31
0.0
  0
ARC
  8
DETAIL
  6
CONTINUOUS
 62
     5
 10
-41.554893193111631
 20
-41.288445848526102
 30
0.0
 40
1.9931205712265689
 50
13.998281512797719
 51
107.2627092010749
  0
ARC
  8
DETAIL
  6
CONTINUOUS
 62
     5
 10
0.0000000000000079
 20
-175.00015335157099
 30
0.0
 40
142.01322581146579
 50
107.26416670128221
 51
166.7358281340382
  0
ARC
  8
DETAIL
  6
CONTINUOUS
 62
     5
 10
-136.2846590604386
 20
-142.87369555157841
 30
0.0
 40
1.993164444096754
 50
166.73862151411589
 51
260.00285069900241
  0
LINE
  8
DETAIL
  6
CONTINUOUS
 62
     5
 10
-136.6306707720332
 20
-144.8365965670784
 30
0.0
 11
-134.400815393964
 21
-145.22980856721631
 31
0.0
  0
ARC
  8
DETAIL
  6
CONTINUOUS
 62
     5
 10
-85.60097864480575
 20
-168.0229881274746
 30
0.0
 40
89.693842974782143
 50
184.13840532807771
 51
199.4962051771262
  0
ARC
  8
DETAIL
  6
CONTINUOUS
 62
     5
 10
-182.01882742692851
 20
-174.99925731494531
 30
0.0
 40
6.9760587296793144
 50
4.1383055344833277
 51
90.000166789246649
  0
LINE
  8
DETAIL
  6
CONTINUOUS
 62
     5
 10
-182.01884773438451
 20
-168.0231985852956
 30
0.0
 11
-196.59623848283539
 21
-168.0231985852956
 31
0.0
  0
LINE
  8
DETAIL
  6
CONTINUOUS
 62
     5
 10
-196.59623848283539
 20
-168.0231985852956
 30
0.0
 11
-196.59623848283539
 21
-164.03686465356111
 31
0.0
  0
LINE
  8
DETAIL
  6
CONTINUOUS
 62
     5
 10
-195.49999797134109
 20
-167.2258895680371
 30
0.0
 11
-253.49995024077089
 21
-167.2258895680371
 31
0.0
  0
LINE
  8
DETAIL
  6
CONTINUOUS
 62
     5
 10
-195.49999797134109
 20
-164.03686465356111
 30
0.0
 11
-253.49995024077089
 21
-164.03686465356111
 31
0.0
  0
LINE
  8
DETAIL
  6
CONTINUOUS
 62
     5
 10
-57.303633793559108
 20
-349.99923963103242
 30
0.0
 11
-57.303633793559108
 21
-349.79992029501528
 31
0.0
  0
LINE
  8
DETAIL
  6
CONTINUOUS
 62
     5
 10
-163.8383460924579
 20
-349.99923963103242
 30
0.0
 11
-163.8383460924579
 21
-349.79992029501528
 31
0.0
  0
LINE
  8
DETAIL
  6
CONTINUOUS
 62
     5
 10
-182.47443478811689
 20
-349.00265350867068
 30
0.0
 11
-182.47443478811689
 21
-349.79992029501528
 31
0.0
  0
LINE
  8
DETAIL
  6
CONTINUOUS
 62
     5
 10
-194.30413474382479
 20
-1.3945035852445931
 30
0.0
 11
-192.51028183512241
 21
-1.3945035852445931
 31
0.0
  0
LINE
  8
DETAIL
  6
CONTINUOUS
 62
     5
 10
193.10822840101079
 20
-1.793121141827442
 30
0.0
 11
191.71298249113619
 21
-1.793121141827442
 31
0.0
  0
LINE
  8
DETAIL
  6
CONTINUOUS
 62
     5
 10
-185.4641614820348
 20
0.2000511029035579
 30
0.0
 11
-194.3041505144092
 21
0.2000645199270821
 31
0.0
  0
ARC
  8
DETAIL
  6
CONTINUOUS
 62
     5
 10
-194.304101641138
 20
-0.1985966964032286
 30
0.0
 40
0.3986612193260832
 50
90.007024089760037
 51
269.99524246615221
  0
LINE
  8
DETAIL
  6
CONTINUOUS
 62
     5
 10
-194.30413474382479
 20
-0.597257914354941
 30
0.0
 11
-191.71303616425121
 21
-0.597257914354941
 31
0.0
  0
LINE
  8
DETAIL
  6
CONTINUOUS
 62
     5
 10
190.51699257094879
 20
-0.597257914354941
 30
0.0
 11
192.672996645696
 21
-0.597257914354941
 31
0.0
  0
ARC
  8
DETAIL
  6
CONTINUOUS
 62
     5
 10
192.67295565836409
 20
-0.1986034057256347
 30
0.0
 40
0.3986545107363455
 50
270.00589081789968
 51
89.99410918210036
  0
LINE
  8
DETAIL
  6
CONTINUOUS
 62
     5
 10
192.672996645696
 20
0.2000511029035579
 30
0.0
 11
-191.31428135720671
 21
-0.1986403577719784
 31
0.0
  0
ARC
  8
DETAIL
  6
CONTINUOUS
 62
     5
 10
193.10866279951281
 20
-0.1809288301282095
 30
0.0
 40
1.178215126273523
 50
85.435095254676853
 51
90.021124496536402
  0
LINE
  8
DETAIL
  6
CONTINUOUS
 62
     5
 10
193.10822840101079
 20
0.9972862160657314
 30
0.0
 11
-185.4641614820348
 21
0.9972862160657314
 31
0.0
  0
LINE
  8
DETAIL
  6
CONTINUOUS
 62
     5
 10
-185.96240175458479
 20
0.2000511029035579
 30
0.0
 11
-185.96240175458479
 21
0.9972862160657314
 31
0.0
  0
LINE
  8
DETAIL
  6
CONTINUOUS
 62
     5
 10
-185.96240175458479
 20
0.9972862160657314
 30
0.0
 11
-194.30413474382479
 21
0.9972862160657314
 31
0.0
  0
ARC
  8
DETAIL
  6
CONTINUOUS
 62
     5
 10
-194.30406389304329
 20
-0.1986086846330863
 30
0.0
 40
1.1958949027975949
 50
90.003394487865791
 51
269.99660551213418
  0
LINE
  8
DETAIL
  6
CONTINUOUS
 62
     5
 10
-185.4641614820348
 20
-349.00265350867068
 30
0.0
 11
-185.4641614820348
 21
-349.79992029501528
 31
0.0
  0
LINE
  8
DETAIL
  6
CONTINUOUS
 62
     5
 10
-191.51366403959219
 20
-349.00265350867068
 30
0.0
 11
-191.51366403959219
 21
-349.79992029501528
 31
0.0
  0
LINE
  8
DETAIL
  6
CONTINUOUS
 62
     5
 10
-191.51366403959219
 20
0.2000511029035579
 30
0.0
 11
-191.51366403959219
 21
0.9972862160657314
 31
0.0
  0
LINE
  8
DETAIL
  6
CONTINUOUS
 62
     5
 10
-194.30413474382479
 20
-349.79992029501528
 30
0.0
 11
-194.30413474382479
 21
-212.96907011495151
 31
0.0
  0
LINE
  8
DETAIL
  6
CONTINUOUS
 62
     5
 10
-194.30413474382479
 20
-168.0231985852956
 30
0.0
 11
-194.30413474382479
 21
-1.3945035852445931
 31
0.0
  0
ARC
  8
DETAIL
  6
CONTINUOUS
 62
     5
 10
193.1089144786483
 20
-348.60408137354881
 30
0.0
 40
1.1951700325710739
 50
331.47135469463632
 51
19.501745036482841
  0
CIRCLE
  8
DETAIL
  6
CONTINUOUS
 62
     5
 10
232.17425444300989
 20
-187.95492733336701
 30
0.0
 40
2.9898385719446412
  0
ARC
  8
DETAIL
  6
CONTINUOUS
 62
     5
 10
-57.303628514724537
 20
-347.33618865400757
 30
0.0
 40
2.663040419738659
 50
247.75622530914569
 51
292.24377469163568
  0
ARC
  8
DETAIL
  6
CONTINUOUS
 62
     5
 10
-163.83834081353601
 20
-347.33618864819778
 30
0.0
 40
2.6630404251054411
 50
247.75622535576909
 51
292.24377464361157
  0
ARC
  8
DETAIL
  6
CONTINUOUS
 62
     5
 10
-194.30411966756861
 20
-348.60401031805281
 30
0.0
 40
0.3986431908890973
 50
90.002814445336824
 51
269.99783312978082
  0
LINE
  8
DETAIL
  6
CONTINUOUS
 62
     5
 10
168.0861941668754
 20
-203.25290970258601
 30
0.0
 11
168.10178793026441
 21
-203.2163799656997
 31
0.0
  0
LINE
  8
DETAIL
  6
CONTINUOUS
 62
     5
 10
168.10178793026441
 20
-203.2163799656997
 30
0.0
 11
168.25219331512841
 21
-202.86047897427079
 31
0.0
  0
LINE
  8
DETAIL
  6
CONTINUOUS
 62
     5
 10
168.25219331512841
 20
-202.86047897427079
 30
0.0
 11
168.39962142085821
 21
-202.50332161327651
 31
0.0
  0
LINE
  8
DETAIL
  6
CONTINUOUS
 62
     5
 10
169.91523598106139
 20
-198.56799206272791
 30
0.0
 11
169.92606820939179
 21
-198.54236845827199
 31
0.0
  0
LINE
  8
DETAIL
  6
CONTINUOUS
 62
     5
 10
169.92606820939179
 20
-198.54236845827199
 30
0.0
 11
169.95144898614311
 21
-198.4819888151369
 31
0.0
  0
LINE
  8
DETAIL
  6
CONTINUOUS
 62
     5
 10
169.95144898614311
 20
-198.4819888151369
 30
0.0
 11
169.9763229919445
 21
-198.42145080609609
 31
0.0
  0
LINE
  8
DETAIL
  6
CONTINUOUS
 62
     5
 10
169.9763229919445
 20
-198.42145080609609
 30
0.0
 11
169.9903753271719
 21
-198.38658919014529
 31
0.0
  0
LINE
  8
DETAIL
  6
CONTINUOUS
 62
     5
 10
169.9903753271719
 20
-198.38658919014529
 30
0.0
 11
170.01460531156411
 21
-198.32575556473
 31
0.0
  0
LINE
  8
DETAIL
  6
CONTINUOUS
 62
     5
 10
170.01460531156411
 20
-198.32575556473
 30
0.0
 11
170.03844466012561
 21
-198.2648058043228
 31
0.0
  0
LINE
  8
DETAIL
  6
CONTINUOUS
 62
     5
 10
170.03844466012561
 20
-198.2648058043228
 30
0.0
 11
170.06190393043741
 21
-198.20364488935769
 31
0.0
  0
LINE
  8
DETAIL
  6
CONTINUOUS
 62
     5
 10
170.06190393043741
 20
-198.20364488935769
 30
0.0
 11
170.08497256486041
 21
-198.14239951257969
 31
0.0
  0
LINE
  8
DETAIL
  6
CONTINUOUS
 62
     5
 10
170.08497256486041
 20
-198.14239951257969
 30
0.0
 11
170.10765056336371
 21
-198.0809852121574
 31
0.0
  0
LINE
  8
DETAIL
  6
CONTINUOUS
 62
     5
 10
170.10765056336371
 20
-198.0809852121574
 30
0.0
 11
170.12994848370539
 21
-198.01944421901209
 31
0.0
  0
LINE
  8
DETAIL
  6
CONTINUOUS
 62
     5
 10
170.12994848370539
 20
-198.01944421901209
 30
0.0
 11
170.1519824608304
 21
-197.95780820631549
 31
0.0
  0
CIRCLE
  8
DETAIL
  6
CONTINUOUS
 62
     5
 10
-0.0000004806306528
 20
-175.00002899548659
 30
0.0
 40
129.0
  0
CIRCLE
  8
DETAIL
  6
CONTINUOUS
 62
     5
 10
-0.000113422692258
 20
-174.99997939985559
 30
0.0
 40
121.0
  0
ARC
  8
DETAIL
  6
CONTINUOUS
 62
     5
 10
23.881483847650099
 20
-310.43908032397138
 30
0.0
 40
5.9794683081050568
 50
9.9999275910240293
 51
190.00038347814981
  0
ARC
  8
DETAIL
  6
CONTINUOUS
 62
     5
 10
-135.43930957473549
 20
-151.11871691165851
 30
0.0
 40
5.9797752175810546
 50
259.99963815148573
 51
79.998860573617321
  0
LINE
  8
DETAIL
  6
CONTINUOUS
 62
     5
 10
155.46692265637651
 20
-35.17865066377648
 30
0.0
 11
158.45664935026531
 21
-38.16844070405557
 31
0.0
  0
LINE
  8
DETAIL
  6
CONTINUOUS
 62
     5
 10
158.45664935026531
 20
-38.16844070405557
 30
0.0
 11
158.45664935026531
 21
-191.04424932701409
 31
0.0
  0
LINE
  8
DETAIL
  6
CONTINUOUS
 62
     5
 10
158.45664935026531
 20
-191.04424932701409
 30
0.0
 11
153.4736870652587
 21
-196.02714826565531
 31
0.0
  0
LINE
  8
DETAIL
  6
CONTINUOUS
 62
     5
 10
153.4736870652587
 20
-196.02714826565531
 30
0.0
 11
148.49086203070959
 21
-196.02714826565531
 31
0.0
  0
LINE
  8
DETAIL
  6
CONTINUOUS
 62
     5
 10
148.49086203070959
 20
-196.02714826565531
 30
0.0
 11
148.49086203070959
 21
-225.9246369170618
 31
0.0
  0
LINE
  8
DETAIL
  6
CONTINUOUS
 62
     5
 10
148.49086203070959
 20
-225.9246369170618
 30
0.0
 11
153.4736870652587
 21
-225.9246369170618
 31
0.0
  0
LINE
  8
DETAIL
  6
CONTINUOUS
 62
     5
 10
153.4736870652587
 20
-225.9246369170618
 30
0.0
 11
158.45664935026531
 21
-230.90756752888569
 31
0.0
  0
LINE
  8
DETAIL
  6
CONTINUOUS
 62
     5
 10
158.45664935026531
 20
-230.90756752888569
 30
0.0
 11
158.45664935026531
 21
-340.01292543863809
 31
0.0
  0
LINE
  8
DETAIL
  6
CONTINUOUS
 62
     5
 10
158.45664935026531
 20
-340.01292543863809
 30
0.0
 11
155.46692265637651
 21
-343.00268380573112
 31
0.0
  0
ARC
  8
DETAIL
  6
CONTINUOUS
 62
     5
 10
-85.572168965158184
 20
-168.01099044236091
 30
0.0
 40
89.725004987577577
 50
199.49728737029639
 51
203.12740385789789
  0
ARC
  8
DETAIL
  6
CONTINUOUS
 62
     5
 10
-174.5017477131241
 20
-205.9929810653623
 30
0.0
 40
6.9760890495902252
 50
270.0000156372833
 51
23.12761782699387
  0
LINE
  8
DETAIL
  6
CONTINUOUS
 62
     5
 10
-183.57067529964019
 20
-196.52545188456381
 30
0.0
 11
-207.7578890298773
 21
-196.52545188456381
 31
0.0
  0
ARC
  8
DETAIL
  6
CONTINUOUS
 62
     5
 10
-207.7580204343603
 20
-191.54254238819499
 30
0.0
 40
4.9829094981014839
 50
89.998489050973092
 51
270.00151094902691
  0
LINE
  8
DETAIL
  6
CONTINUOUS
 62
     5
 10
-207.7578890298773
 20
-186.55963289182611
 30
0.0
 11
-183.57067529964019
 21
-186.55963289182611
 31
0.0
  0
ARC
  8
DETAIL
  6
CONTINUOUS
 62
     5
 10
-183.57072190959749
 20
-191.54254238819499
 30
0.0
 40
4.9829094965868412
 50
270.00053594270139
 51
89.99946405735065
  0
LINE
  8
DETAIL
  6
CONTINUOUS
 62
     5
 10
-171.7486494600125
 20
-192.70114739559619
 30
0.0
 11
-168.42255357042001
 21
-196.02714826565531
 31
0.0
  0
LINE
  8
DETAIL
  6
CONTINUOUS
 62
     5
 10
-168.42255357042001
 20
-196.02714826565531
 30
0.0
 11
-163.43971797814359
 21
-196.02714826565531
 31
0.0
  0
LINE
  8
DETAIL
  6
CONTINUOUS
 62
     5
 10
-163.43971797814359
 20
-196.02714826565531
 30
0.0
 11
-163.43971797814359
 21
-225.9246369170618
 31
0.0
  0
LINE
  8
DETAIL
  6
CONTINUOUS
 62
     5
 10
-163.43971797814359
 20
-225.9246369170618
 30
0.0
 11
-168.42255357042001
 21
-225.9246369170618
 31
0.0
  0
LINE
  8
DETAIL
  6
CONTINUOUS
 62
     5
 10
-168.42255357042001
 20
-225.9246369170618
 30
0.0
 11
-173.40550529767009
 21
-230.90756752888569
 31
0.0
  0
LINE
  8
DETAIL
  6
CONTINUOUS
 62
     5
 10
-173.40550529767009
 20
-230.90756752888569
 30
0.0
 11
-173.40550529767009
 21
-340.01292543863809
 31
0.0
  0
LINE
  8
DETAIL
  6
CONTINUOUS
 62
     5
 10
-173.40550529767009
 20
-340.01292543863809
 30
0.0
 11
-170.41578916150871
 21
-343.00268380573112
 31
0.0
  0
LINE
  8
DETAIL
  6
CONTINUOUS
 62
     5
 10
-170.41578916150871
 20
-343.00268380573112
 30
0.0
 11
155.4669226563764
 21
-343.00268380573112
 31
0.0
  0
LINE
  8
DETAIL
  6
CONTINUOUS
 62
     5
 10
-173.40550529767009
 20
-186.26160936212929
 30
0.0
 11
-173.40550529767009
 21
-38.16844070405557
 31
0.0
  0
LINE
  8
DETAIL
  6
CONTINUOUS
 62
     5
 10
-173.40550529767009
 20
-38.16844070405557
 30
0.0
 11
-170.41578916150871
 21
-35.17865066377648
 31
0.0
  0
LINE
  8
DETAIL
  6
CONTINUOUS
 62
     5
 10
-170.41578916150871
 20
-35.17865066377648
 30
0.0
 11
155.46692265637651
 21
-35.17865066377648
 31
0.0
  0
CIRCLE
  8
DETAIL
  6
CONTINUOUS
 62
     5
 10
-233.37016961109481
 20
-187.95482144593311
 30
0.0
 40
2.9897326845729419
  0
LINE
  8
DETAIL
  6
CONTINUOUS
 62
     5
 10
-195.49999797134109
 20
-168.0231985852956
 30
0.0
 11
-195.49999797134109
 21
-1.793121141827442
 31
0.0
  0
LINE
  8
DETAIL
  6
CONTINUOUS
 62
     5
 10
-195.49999797134109
 20
-1.793121141827442
 30
0.0
 11
-194.30413474382479
 21
-1.793121141827442
 31
0.0
  0
LINE
  8
DETAIL
  6
CONTINUOUS
 62
     5
 10
-222.40828781516669
 20
-212.96907011495151
 30
0.0
 11
-174.50174580919341
 21
-212.9690701149523
 31
0.0
  0
LINE
  8
DETAIL
  6
CONTINUOUS
 62
     5
 10
-185.4641614820348
 20
-0.1986403577719784
 30
0.0
 11
-185.4641614820348
 21
0.9972862160657314
 31
0.0
  0
LINE
  8
DETAIL
  6
CONTINUOUS
 62
     5
 10
-192.9088993917085
 20
-1.793121141827442
 30
0.0
 11
-191.31428135720671
 21
-0.1986403577719784
 31
0.0
  0
LINE
  8
DETAIL
  6
CONTINUOUS
 62
     5
 10
192.672996645696
 20
-164.04357535701999
 30
0.0
 11
253.5000438978968
 21
-163.7022384323557
 31
0.0
  0
LINE
  8
SIZE
  6
CONTINUOUS
 62
    30
 10
195.49995485595539
 20
17.409569840917701
 30
0.0
 11
195.49995485595539
 21
98.13700082359604
 31
0.0
  0
LINE
  8
SIZE
  6
CONTINUOUS
 62
    30
 10
-195.49999797134109
 20
18.206878858172558
 30
0.0
 11
-195.49999797134109
 21
98.13700082359604
 31
0.0
  0
LINE
  8
SIZE
  6
CONTINUOUS
 62
    30
 10
183.49995485595539
 20
78.137000823596054
 30
0.0
 11
-183.49999797134109
 21
78.137000823596054
 31
0.0
  0
CIRCLE
  8
SIZE
  6
CONTINUOUS
 62
    30
 10
195.49995485595539
 20
78.137000823596054
 30
0.0
 40
6.0
  0
LINE
  8
SIZE
  6
CONTINUOUS
 62
    30
 10
195.49995485595539
 20
78.137000823596054
 30
0.0
 11
183.49995485595539
 21
78.137000823596054
 31
0.0
  0
CIRCLE
  8
SIZE
  6
CONTINUOUS
 62
    30
 10
-195.49999797134109
 20
78.137000823596054
 30
0.0
 40
6.0
  0
LINE
  8
SIZE
  6
CONTINUOUS
 62
    30
 10
-195.49999797134109
 20
78.137000823596054
 30
0.0
 11
-183.49999797134109
 21
78.137000823596054
 31
0.0
  0
TEXT
  8
SIZE
  6
CONTINUOUS
 62
    30
 10
-61.714307271978583
 20
103.1370008235961
 30
0.0
 40
64.0
  1
391
 41
0.9
 72
     1
 11
-0.0000215576928753
 21
103.1370008235961
 31
0.0
  0
POINT
  8
DEFPOINTS
  6
CONTINUOUS
 62
    30
 10
195.49995485595539
 20
-2.590430159082302
 30
0.0
  0
POINT
  8
DEFPOINTS
  6
CONTINUOUS
 62
    30
 10
-195.49999797134109
 20
-1.793121141827442
 30
0.0
  0
POINT
  8
DEFPOINTS
  6
CONTINUOUS
 62
    30
 10
-195.49999797134109
 20
78.137000823596054
 30
0.0
  0
LINE
  8
DETAIL
  6
CONTINUOUS
 62
     5
 10
197.7423148005291
 20
-4.9822188793247051
 30
0.0
 11
195.4999548559563
 21
-4.9822188793247051
 31
0.0
  0
LINE
  8
SIZE
  6
CONTINUOUS
 62
    30
 10
214.3041505144094
 20
0.2000645199270854
 30
0.0
 11
491.70364202393051
 21
0.20006451992713
 31
0.0
  0
LINE
  8
SIZE
  6
CONTINUOUS
 62
    30
 10
214.3041347438249
 20
-349.79992029501511
 30
0.0
 11
491.70364202393051
 21
-349.79992029501511
 31
0.0
  0
LINE
  8
SIZE
  6
CONTINUOUS
 62
    30
 10
471.70364202393029
 20
-11.799935480072881
 30
0.0
 11
471.70364202393051
 21
-337.79992029501511
 31
0.0
  0
CIRCLE
  8
SIZE
  6
CONTINUOUS
 62
    30
 10
471.70364202393029
 20
0.2000645199271268
 30
0.0
 40
6.0
  0
LINE
  8
SIZE
  6
CONTINUOUS
 62
    30
 10
471.70364202393029
 20
0.2000645199271268
 30
0.0
 11
471.70364202393029
 21
-11.799935480072881
 31
0.0
  0
CIRCLE
  8
SIZE
  6
CONTINUOUS
 62
    30
 10
471.70364202393051
 20
-349.79992029501511
 30
0.0
 40
6.0
  0
LINE
  8
SIZE
  6
CONTINUOUS
 62
    30
 10
471.70364202393051
 20
-349.79992029501511
 30
0.0
 11
471.70364202393051
 21
-337.79992029501511
 31
0.0
  0
TEXT
  8
SIZE
  6
CONTINUOUS
 62
    30
 10
446.70364202393029
 20
-248.85707074468701
 30
0.0
 40
64.0
  1
350
 50
90.0
 41
0.9
 72
     1
 11
446.70364202393029
 21
-174.7999278875441
 31
0.0
  0
POINT
  8
DEFPOINTS
  6
CONTINUOUS
 62
    30
 10
194.3041505144094
 20
0.2000645199270822
 30
0.0
  0
POINT
  8
DEFPOINTS
  6
CONTINUOUS
 62
    30
 10
194.3041347438249
 20
-349.79992029501511
 30
0.0
  0
POINT
  8
DEFPOINTS
  6
CONTINUOUS
 62
    30
 10
471.70364202393051
 20
-349.79992029501511
 30
0.0
  0
LINE
  8
BASIS
  6
DASHDOT
 62
     6
 10
0.0000000000000079
 20
34.310171668693101
 30
0.0
 11
0.0000000000000079
 21
-395.28691670248492
 31
0.0
  0
LINE
  8
BASIS
  6
DASHDOT
 62
     6
 10
293.04541611565861
 20
-174.99997939985559
 30
0.0
 11
-294.24121611565897
 21
-174.99997939985559
 31
0.0
  0
LINE
  8
SIZE
  6
CONTINUOUS
 62
    30
 10
441.31507333969762
 20
140.43894392326951
 30
0.0
 11
108.2018488682491
 21
-97.660568705373521
 31
0.0
  0
LINE
  8
SIZE
  6
CONTINUOUS
 62
    30
 10
-108.2016220228664
 20
-252.3393900943384
 30
0.0
 11
-117.964184619458
 21
-259.31738203669772
 31
0.0
  0
TEXT
  8
SIZE
  6
CONTINUOUS
 62
    30
 10
231.94008489513951
 20
21.513511096540601
 30
0.0
 40
64.0
  1
φ242
 50
35.556066660711899
 41
0.9
 72
     1
 11
324.99125295865252
 21
88.023742867142033
 31
0.0
  0
LINE
  8
SIZE
  6
CONTINUOUS
 62
    30
 10
-98.439059426274795
 20
-245.3613981519791
 30
0.0
 11
98.439286271657522
 21
-104.6385606477328
 31
0.0
  0
CIRCLE
  8
SIZE
  6
CONTINUOUS
 62
    30
 10
-98.439059426274795
 20
-245.3613981519791
 30
0.0
 40
6.0
  0
LINE
  8
SIZE
  6
CONTINUOUS
 62
    30
 10
-98.439059426274795
 20
-245.3613981519791
 30
0.0
 11
-108.2016220228664
 21
-252.3393900943384
 31
0.0
  0
CIRCLE
  8
SIZE
  6
CONTINUOUS
 62
    30
 10
98.439286271657522
 20
-104.6385606477328
 30
0.0
 40
6.0
  0
LINE
  8
SIZE
  6
CONTINUOUS
 62
    30
 10
98.439286271657522
 20
-104.6385606477328
 30
0.0
 11
108.2018488682491
 21
-97.660568705373521
 31
0.0
  0
POINT
  8
DEFPOINTS
  6
CONTINUOUS
 62
    30
 10
98.439286271657522
 20
-104.6385606477328
 30
0.0
  0
POINT
  8
DEFPOINTS
  6
CONTINUOUS
 62
    30
 10
-98.439059426274795
 20
-245.3613981519791
 30
0.0
  0
LINE
  8
SIZE
  6
CONTINUOUS
 62
    30
 10
410.26219366193698
 20
-604.69896252091235
 30
0.0
 11
97.368881146783622
 21
-276.98189541212002
 31
0.0
  0
LINE
  8
SIZE
  6
CONTINUOUS
 62
    30
 10
-97.368880185526862
 20
-73.018162578852653
 30
0.0
 11
-105.65559343371029
 21
-64.338854798713641
 31
0.0
  0
TEXT
  8
SIZE
  6
CONTINUOUS
 62
    30
 10
262.96101870645771
 20
-414.21665831414617
 30
0.0
 40
64.0
  1
φ258
 50
313.67440950954062
 41
0.9
 72
     1
 11
341.94523412342869
 21
-496.94286046998548
 31
0.0
  0
LINE
  8
SIZE
  6
CONTINUOUS
 62
    30
 10
-89.082166937343487
 20
-81.697470358991652
 30
0.0
 11
89.08216789860019
 21
-268.30258763198088
 31
0.0
  0
CIRCLE
  8
SIZE
  6
CONTINUOUS
 62
    30
 10
-89.082166937343487
 20
-81.697470358991652
 30
0.0
 40
6.0
  0
LINE
  8
SIZE
  6
CONTINUOUS
 62
    30
 10
-89.082166937343487
 20
-81.697470358991652
 30
0.0
 11
-97.368880185526905
 21
-73.018162578852653
 31
0.0
  0
CIRCLE
  8
SIZE
  6
CONTINUOUS
 62
    30
 10
89.08216789860019
 20
-268.30258763198088
 30
0.0
 40
6.0
  0
LINE
  8
SIZE
  6
CONTINUOUS
 62
    30
 10
89.08216789860019
 20
-268.30258763198088
 30
0.0
 11
97.368881146783622
 21
-276.98189541211991
 31
0.0
  0
POINT
  8
DEFPOINTS
  6
CONTINUOUS
 62
    30
 10
89.08216789860019
 20
-268.30258763198088
 30
0.0
  0
POINT
  8
DEFPOINTS
  6
CONTINUOUS
 62
    30
 10
-89.082166937343487
 20
-81.697470358991652
 30
0.0
  0
LINE
  8
BASIS
  6
DASHDOT
 62
     6
 10
233.5
 20
-143.8144706347332
 30
0.0
 11
233.5
 21
-183.8144706347332
 31
0.0
  0
LINE
  8
BASIS
  6
DASHDOT
 62
     6
 10
253.5
 20
-163.8144706347332
 30
0.0
 11
213.5
 21
-163.8144706347332
 31
0.0
  0
LINE
  8
BASIS
  6
DASHDOT
 62
     6
 10
-233.5
 20
-144.03686465356111
 30
0.0
 11
-233.5
 21
-184.03686465356111
 31
0.0
  0
LINE
  8
BASIS
  6
DASHDOT
 62
     6
 10
-213.5
 20
-164.03686465356111
 30
0.0
 11
-253.5
 21
-164.03686465356111
 31
0.0
  0
CIRCLE
  8
FIX
  6
CONTINUOUS
 62
    11
 10
233.49999999999449
 20
-163.8144706347332
 30
0.0
 40
5.5
  0
CIRCLE
  8
FIX
  6
CONTINUOUS
 62
    11
 10
-233.4999999999927
 20
-163.8144706347332
 30
0.0
 40
5.5
  0
LINE
  8
SIZE
  6
CONTINUOUS
 62
    30
 10
-233.5
 20
-204.03686465356111
 30
0.0
 11
-233.5
 21
-577.54906742687967
 31
0.0
  0
LINE
  8
SIZE
  6
CONTINUOUS
 62
    30
 10
233.5
 20
-203.8144706347332
 30
0.0
 11
233.5
 21
-577.54906742687967
 31
0.0
  0
LINE
  8
SIZE
  6
CONTINUOUS
 62
    30
 10
-221.5
 20
-557.54906742687967
 30
0.0
 11
221.5
 21
-557.54906742687967
 31
0.0
  0
CIRCLE
  8
SIZE
  6
CONTINUOUS
 62
    30
 10
-233.5
 20
-557.54906742687967
 30
0.0
 40
6.0
  0
LINE
  8
SIZE
  6
CONTINUOUS
 62
    30
 10
-233.5
 20
-557.54906742687967
 30
0.0
 11
-221.5
 21
-557.54906742687967
 31
0.0
  0
CIRCLE
  8
SIZE
  6
CONTINUOUS
 62
    30
 10
233.5
 20
-557.54906742687967
 30
0.0
 40
6.0
  0
LINE
  8
SIZE
  6
CONTINUOUS
 62
    30
 10
233.5
 20
-557.54906742687967
 30
0.0
 11
221.5
 21
-557.54906742687967
 31
0.0
  0
TEXT
  8
SIZE
  6
CONTINUOUS
 62
    30
 10
-74.057142857142878
 20
-532.54906742687967
 30
0.0
 40
64.0
  1
467
 41
0.9
 72
     1
 11
-0.0000000000000284
 21
-532.54906742687967
 31
0.0
  0
POINT
  8
DEFPOINTS
  6
CONTINUOUS
 62
    30
 10
-233.5
 20
-184.03686465356111
 30
0.0
  0
POINT
  8
DEFPOINTS
  6
CONTINUOUS
 62
    30
 10
233.5
 20
-183.8144706347332
 30
0.0
  0
POINT
  8
DEFPOINTS
  6
CONTINUOUS
 62
    30
 10
233.5
 20
-557.54906742687967
 30
0.0
  0
LINE
  8
SIZE
  6
CONTINUOUS
 62
    30
 10
-253.49995024077089
 20
-202.07550211210099
 30
0.0
 11
-253.49995024077089
 21
-719.29497198960712
 31
0.0
  0
LINE
  8
SIZE
  6
CONTINUOUS
 62
    30
 10
253.50004389789771
 20
-202.07550211210099
 30
0.0
 11
253.50004389789771
 21
-719.29497198960712
 31
0.0
  0
LINE
  8
SIZE
  6
CONTINUOUS
 62
    30
 10
-241.49995024077089
 20
-699.29497198960712
 30
0.0
 11
241.50004389789771
 21
-699.29497198960712
 31
0.0
  0
CIRCLE
  8
SIZE
  6
CONTINUOUS
 62
    30
 10
-253.49995024077089
 20
-699.29497198960712
 30
0.0
 40
6.0
  0
LINE
  8
SIZE
  6
CONTINUOUS
 62
    30
 10
-253.49995024077089
 20
-699.29497198960712
 30
0.0
 11
-241.49995024077089
 21
-699.29497198960712
 31
0.0
  0
CIRCLE
  8
SIZE
  6
CONTINUOUS
 62
    30
 10
253.50004389789771
 20
-699.29497198960712
 30
0.0
 40
6.0
  0
LINE
  8
SIZE
  6
CONTINUOUS
 62
    30
 10
253.50004389789771
 20
-699.29497198960712
 30
0.0
 11
241.50004389789771
 21
-699.29497198960712
 31
0.0
  0
TEXT
  8
SIZE
  6
CONTINUOUS
 62
    30
 10
-74.057096028579451
 20
-674.29497198960712
 30
0.0
 40
64.0
  1
507
 41
0.9
 72
     1
 11
0.0000468285633985
 21
-674.29497198960712
 31
0.0
  0
POINT
  8
DEFPOINTS
  6
CONTINUOUS
 62
    30
 10
-253.49995024077089
 20
-182.07550211210099
 30
0.0
  0
POINT
  8
DEFPOINTS
  6
CONTINUOUS
 62
    30
 10
253.50004389789771
 20
-182.07550211210099
 30
0.0
  0
POINT
  8
DEFPOINTS
  6
CONTINUOUS
 62
    30
 10
253.50004389789771
 20
-699.29497198960712
 30
0.0
  0
LINE
  8
OUTLINE
  6
CONTINUOUS
 62
     3
 10
195.49995485595539
 20
-212.96907011495639
 30
0.0
 11
221.21237091459531
 21
-212.96907011496231
 31
0.0
  0
ARC
  8
OUTLINE
  6
CONTINUOUS
 62
     3
 10
221.21223517001539
 20
-205.992688609542
 30
0.0
 40
6.9763815067410047
 50
270.00111484610062
 51
314.99898616903931
  0
LINE
  8
OUTLINE
  6
CONTINUOUS
 62
     3
 10
226.14519455208119
 20
-210.92582256905391
 30
0.0
 11
251.4567963520185
 21
-187.00832574959011
 31
0.0
  0
ARC
  8
OUTLINE
  6
CONTINUOUS
 62
     3
 10
246.52395216274269
 20
-182.07548639462701
 30
0.0
 40
6.97609173517277
 50
315.00002807566318
 51
359.99987090983109
  0
LINE
  8
OUTLINE
  6
CONTINUOUS
 62
     3
 10
253.50004389789771
 20
-182.07550211210099
 30
0.0
 11
253.5000438978968
 21
-163.7022384323557
 31
0.0
  0
LINE
  8
OUTLINE
  6
CONTINUOUS
 62
     3
 10
193.10822840101079
 20
-1.3945508021813571
 30
0.0
 11
194.303905063136
 21
-1.3946805174166459
 31
0.0
  0
ARC
  8
OUTLINE
  6
CONTINUOUS
 62
     3
 10
194.3039101572858
 20
-0.1986454850778046
 30
0.0
 40
1.1960350323495761
 50
269.99975596596818
 51
56.993000198735537
  0
LINE
  8
OUTLINE
  6
CONTINUOUS
 62
     3
 10
194.95544006407269
 20
0.8043543051355755
 30
0.0
 11
188.4361172845274
 21
5.0380135594834883
 31
0.0
  0
LINE
  8
OUTLINE
  6
CONTINUOUS
 62
     3
 10
193.19990551008959
 20
0.9937479984280344
 30
0.0
 11
188.00193074423811
 21
4.3693926817834381
 31
0.0
  0
LINE
  8
OUTLINE
  6
CONTINUOUS
 62
     3
 10
188.00193074423811
 20
4.3693926817834381
 30
0.0
 11
188.4361172845274
 21
5.0380135594834883
 31
0.0
  0
ARC
  8
OUTLINE
  6
CONTINUOUS
 62
     3
 10
194.30400738244589
 20
-348.60404360766569
 30
0.0
 40
1.1959447901108911
 50
303.00425386776931
 51
90.118890857416645
  0
LINE
  8
OUTLINE
  6
CONTINUOUS
 62
     3
 10
194.95544006407269
 20
-349.60699894181681
 30
0.0
 11
188.4361172845274
 21
-353.84065819615682
 31
0.0
  0
LINE
  8
OUTLINE
  6
CONTINUOUS
 62
     3
 10
193.19985233874829
 20
-349.79638493448027
 30
0.0
 11
188.00193074423811
 21
-353.17199508755431
 31
0.0
  0
LINE
  8
OUTLINE
  6
CONTINUOUS
 62
     3
 10
188.00193074423811
 20
-353.17199508755431
 30
0.0
 11
188.4361172845274
 21
-353.84065819615682
 31
0.0
  0
ARC
  8
OUTLINE
  6
CONTINUOUS
 62
     3
 10
200.53274487722319
 20
-23.31928688410812
 30
0.0
 40
0.7973359537124699
 50
180.00193526014689
 51
269.99351239624627
  0
LINE
  8
OUTLINE
  6
CONTINUOUS
 62
     3
 10
199.7354089239652
 20
-23.31931381545451
 30
0.0
 11
199.7354089239652
 21
-14.94800727995494
 31
0.0
  0
LINE
  8
OUTLINE
  6
CONTINUOUS
 62
     3
 10
199.7354089239652
 20
-14.94800727995494
 30
0.0
 11
197.7423105833341
 21
-14.94800727995494
 31
0.0
  0
LINE
  8
OUTLINE
  6
CONTINUOUS
 62
     3
 10
197.7423105833341
 20
-14.94800727995494
 30
0.0
 11
197.7423105833341
 21
-4.9822199603961508
 31
0.0
  0
LINE
  8
OUTLINE
  6
CONTINUOUS
 62
     3
 10
194.29767699115649
 20
-346.21220391986282
 30
0.0
 11
195.49995485595539
 21
-346.21220391986373
 31
0.0
  0
LINE
  8
OUTLINE
  6
CONTINUOUS
 62
     3
 10
195.49995485595539
 20
-346.21220391986373
 30
0.0
 11
195.49995485595539
 21
-212.96907011495139
 31
0.0
  0
LINE
  8
OUTLINE
  6
CONTINUOUS
 62
     3
 10
195.4999548559563
 20
-4.9822188793248188
 30
0.0
 11
195.49995485595539
 21
-2.5904301590824161
 31
0.0
  0
LINE
  8
OUTLINE
  6
CONTINUOUS
 62
     3
 10
195.49995485595539
 20
-2.5904301590824161
 30
0.0
 11
192.67299664569691
 21
-2.5904301590824161
 31
0.0
  0
LINE
  8
OUTLINE
  6
CONTINUOUS
 62
     3
 10
194.3015257546385
 20
-347.40810139229029
 30
0.0
 11
194.29767699115749
 21
-346.21220391986321
 31
0.0
  0
LINE
  8
OUTLINE
  6
CONTINUOUS
 62
     3
 10
-185.96240175458391
 20
-349.00265350867068
 30
0.0
 11
-185.4641614820348
 21
-349.00265350867068
 31
0.0
  0
LINE
  8
OUTLINE
  6
CONTINUOUS
 62
     3
 10
193.10822840101079
 20
-1.793121141827442
 30
0.0
 11
193.10822840101079
 21
-1.3945035852445931
 31
0.0
  0
LINE
  8
OUTLINE
  6
CONTINUOUS
 62
     3
 10
192.672996645696
 20
-1.793121141827442
 30
0.0
 11
192.67299664569509
 21
-2.5904301590828709
 31
0.0
  0
ARC
  8
OUTLINE
  6
CONTINUOUS
 62
     3
 10
-194.3040638910079
 20
-348.60398621617622
 30
0.0
 40
1.195934080937783
 50
90.003718274174275
 51
269.99660552578712
  0
LINE
  8
OUTLINE
  6
CONTINUOUS
 62
     3
 10
-194.30413474382479
 20
-349.79992029501528
 30
0.0
 11
-185.96240175458479
 21
-349.79992029501528
 31
0.0
  0
LINE
  8
OUTLINE
  6
CONTINUOUS
 62
     3
 10
-185.96240175458479
 20
-349.79992029501528
 30
0.0
 11
-185.96240175458479
 21
-349.00265350867068
 31
0.0
  0
LINE
  8
OUTLINE
  6
CONTINUOUS
 62
     3
 10
-185.4641614820348
 20
-349.79992029501528
 30
0.0
 11
-0.0797692923297212
 21
-349.79992029501528
 31
0.0
  0
ARC
  8
OUTLINE
  6
CONTINUOUS
 62
     3
 10
193.10806776360371
 20
-348.60670660132172
 30
0.0
 40
1.19321370450637
 50
270.00771349296491
 51
274.53606658339328
  0
LINE
  8
OUTLINE
  6
CONTINUOUS
 62
     3
 10
193.10822840101079
 20
-349.79992029501528
 30
0.0
 11
-0.0797692923297212
 21
-349.79992029501528
 31
0.0
  0
LINE
  8
OUTLINE
  6
CONTINUOUS
 62
     3
 10
-195.49999797134109
 20
-212.96907011495139
 30
0.0
 11
-195.49999797134109
 21
-347.00948126393928
 31
0.0
  0
LINE
  8
OUTLINE
  6
CONTINUOUS
 62
     3
 10
-195.49999797134109
 20
-347.00948126393928
 30
0.0
 11
-194.30413474382479
 21
-347.00948126393928
 31
0.0
  0
ARC
  8
OUTLINE
  6
CONTINUOUS
 62
     3
 10
-222.40814445306299
 20
-205.9926702192208
 30
0.0
 40
6.9763998972038941
 50
225.0010763894758
 51
269.99882259564703
  0
LINE
  8
OUTLINE
  6
CONTINUOUS
 62
     3
 10
-227.34111145265251
 20
-210.92582256905391
 30
0.0
 11
-251.45671325258991
 21
-187.0083257495755
 31
0.0
  0
ARC
  8
OUTLINE
  6
CONTINUOUS
 62
     3
 10
-246.52386866123561
 20
-182.0755011589506
 30
0.0
 40
6.9760815795351476
 50
180.00000782838629
 51
224.99988384393311
  0
LINE
  8
OUTLINE
  6
CONTINUOUS
 62
     3
 10
-253.49995024077089
 20
-182.07550211210099
 30
0.0
 11
-253.49995024077089
 21
-164.036864653561
 31
0.0
  0
LINE
  8
OUTLINE
  6
CONTINUOUS
 62
     3
 10
-195.49999797134109
 20
-164.036864653561
 30
0.0
 11
-253.49995024077089
 21
-164.036864653561
 31
0.0
  0
LINE
  8
OUTLINE
  6
CONTINUOUS
 62
     3
 10
193.10822840101079
 20
-1.793121141827442
 30
0.0
 11
192.672996645696
 21
-1.793121141827442
 31
0.0
  0
LINE
  8
OUTLINE
  6
CONTINUOUS
 62
     3
 10
-185.4641614820348
 20
0.2000511029034442
 30
0.0
 11
-185.96240175458391
 21
0.2000518591150922
 31
0.0
  0
ARC
  8
OUTLINE
  6
CONTINUOUS
 62
     3
 10
193.10866279951281
 20
-0.1809288301280958
 30
0.0
 40
1.178215126273523
 50
85.435095254676853
 51
90.021124496536402
  0
LINE
  8
OUTLINE
  6
CONTINUOUS
 62
     3
 10
193.10822840101079
 20
0.9972862160655041
 30
0.0
 11
-185.4641614820348
 21
0.9972862160655041
 31
0.0
  0
LINE
  8
OUTLINE
  6
CONTINUOUS
 62
     3
 10
-185.96240175458479
 20
0.2000511029034442
 30
0.0
 11
-185.96240175458479
 21
0.9972862160655041
 31
0.0
  0
LINE
  8
OUTLINE
  6
CONTINUOUS
 62
     3
 10
-185.96240175458479
 20
0.9972862160655041
 30
0.0
 11
-194.30413474382479
 21
0.9972862160655041
 31
0.0
  0
ARC
  8
OUTLINE
  6
CONTINUOUS
 62
     3
 10
-194.30406389304329
 20
-0.1986086846329727
 30
0.0
 40
1.1958949027975949
 50
90.003394487865791
 51
269.99660551213418
  0
LINE
  8
OUTLINE
  6
CONTINUOUS
 62
     3
 10
-185.4641614820348
 20
-349.00265350867068
 30
0.0
 11
-185.4641614820348
 21
-349.79992029501528
 31
0.0
  0
LINE
  8
OUTLINE
  6
CONTINUOUS
 62
     3
 10
-194.30413474382479
 20
-1.793121141827442
 30
0.0
 11
-194.30413474382479
 21
-1.3945035852445931
 31
0.0
  0
LINE
  8
OUTLINE
  6
CONTINUOUS
 62
     3
 10
-195.49999797134021
 20
-164.03686465356151
 30
0.0
 11
-195.49999797134109
 21
-1.793121141827442
 31
0.0
  0
LINE
  8
OUTLINE
  6
CONTINUOUS
 62
     3
 10
-195.49999797134109
 20
-1.793121141827442
 30
0.0
 11
-194.30413474382479
 21
-1.793121141827442
 31
0.0
  0
LINE
  8
OUTLINE
  6
CONTINUOUS
 62
     3
 10
-222.40828781516669
 20
-212.96907011495139
 30
0.0
 11
-195.49999797134109
 21
-212.96907011495171
 31
0.0
  0
LINE
  8
OUTLINE
  6
CONTINUOUS
 62
     3
 10
-185.4641614820348
 20
0.2000511029029894
 30
0.0
 11
-185.4641614820348
 21
0.9972862160655041
 31
0.0
  0
LINE
  8
OUTLINE
  6
CONTINUOUS
 62
     3
 10
253.50004389789589
 20
-163.7022384323557
 30
0.0
 11
192.672996645696
 21
-164.04357535701999
 31
0.0
  0
LINE
  8
OUTLINE
  6
CONTINUOUS
 62
     3
 10
197.7423148005291
 20
-4.9822188793248188
 30
0.0
 11
195.4999548559563
 21
-4.9822188793248188
 31
0.0
  0
LINE
  8
OUTLINE
  6
CONTINUOUS
 62
     3
 10
-194.30413599811351
 20
-347.40804741888968
 30
0.0
 11
-194.30413474382479
 21
-347.00948126393928
 31
0.0
  0
POINT
  8
ARRANGE
  6
CONTINUOUS
 62
     1
 10
0.0000000000000079
 20
0.0
 30
0.0
 50
180.0
  0
CIRCLE
  8
ARRANGE
  6
CONTINUOUS
 62
     1
 10
0.0000000000000079
 20
0.0
 30
0.0
 40
40.0
  0
TEXT
  8
NOTE
  6
CONTINUOUS
 62
     4
 10
-82.908422619290832
 20
-207.49445505374311
 30
0.0
 40
64.0
  1
DA2
 41
0.9
  0
LINE
  8
DETAIL
  6
CONTINUOUS
 62
     5
 10
204.87299664579311
 20
-159.35950269012059
 30
0.0
 11
192.672996645696
 21
-159.35950495032051
 31
0.0
  0
ARC
  8
DETAIL
  6
CONTINUOUS
 62
     5
 10
204.87299664579311
 20
-156.35950269012059
 30
0.0
 40
3.0
 50
270.0
 51
0.000000000000007
  0
ARC
  8
DETAIL
  6
CONTINUOUS
 62
     5
 10
193.47299664579529
 20
-157.15951509282101
 30
0.0
 40
0.8000000001000001
 50
90.000000000000014
 51
180.0
  0
LINE
  8
OUTLINE
  6
CONTINUOUS
 62
     3
 10
204.87299664579311
 20
-159.35950269012059
 30
0.0
 11
192.672996645696
 21
-159.35950495032051
 31
0.0
  0
ARC
  8
OUTLINE
  6
CONTINUOUS
 62
     3
 10
204.87299664579311
 20
-156.35950269012059
 30
0.0
 40
3.0
 50
270.0
 51
0.000000000000007
  0
LINE
  8
OUTLINE
  6
CONTINUOUS
 62
     3
 10
192.67299588139301
 20
-164.04357473453209
 30
0.0
 11
192.67299588139431
 21
-159.3595049503206
 31
0.0
  0
TEXT
  8
ETC
  6
CONTINUOUS
 62
    61
 10
517.98270499285366
 20
193.5588651819796
 30
0.0
 40
64.0
  1
BFS-150STUA2_3
 41
0.9
  0
TEXT
  8
ETC
  6
CONTINUOUS
 62
    61
 10
513.79671099285406
 20
75.603555167148457
 30
0.0
 40
64.0
  1
産業扇
 41
0.9
  0
TEXT
  8
ETC
  6
CONTINUOUS
 62
    61
 10
564.49810924140911
 20
-32.545217719076852
 30
0.0
 40
40.0
  1
BFS-150STUA2
 41
0.9
  0
LINE
  8
DETAIL
  6
CONTINUOUS
 62
     5
 10
193.47299664579529
 20
-156.35950269012059
 30
0.0
 11
215.5599400925114
 21
-156.349046750805
 31
0.0
  0
LINE
  8
DETAIL
  6
CONTINUOUS
 62
     5
 10
215.5599400925114
 20
-24.11662283270925
 30
0.0
 11
200.5326545948366
 21
-24.11662283270925
 31
0.0
  0
LINE
  8
DETAIL
  6
CONTINUOUS
 62
     5
 10
225.49994009251009
 20
-146.40904675080489
 30
0.0
 11
225.49994009251009
 21
-34.056622832709309
 31
0.0
  0
ARC
  8
DETAIL
  6
CONTINUOUS
 62
     5
 10
215.5599400925114
 20
-146.40904675080489
 30
0.0
 40
9.9399999999999995
 50
270.0
 51
0.0
  0
ARC
  8
DETAIL
  6
CONTINUOUS
 62
     5
 10
215.5599400925114
 20
-34.056606949384317
 30
0.0
 40
9.9399999999999995
 50
0.0
 51
90.0
  0
LINE
  8
OUTLINE
  6
CONTINUOUS
 62
     3
 10
207.87299664579311
 20
-156.35950269012059
 30
0.0
 11
215.5599400925114
 21
-156.349046750805
 31
0.0
  0
LINE
  8
OUTLINE
  6
CONTINUOUS
 62
     3
 10
215.5599400925114
 20
-24.11662283270925
 30
0.0
 11
200.5326545948366
 21
-24.11662283270925
 31
0.0
  0
LINE
  8
OUTLINE
  6
CONTINUOUS
 62
     3
 10
225.49994009251009
 20
-146.40904675080489
 30
0.0
 11
225.49994009251009
 21
-34.056622832709309
 31
0.0
  0
ARC
  8
OUTLINE
  6
CONTINUOUS
 62
     3
 10
215.5599400925114
 20
-146.40904675080489
 30
0.0
 40
9.9399999999999995
 50
270.0
 51
0.0
  0
ARC
  8
OUTLINE
  6
CONTINUOUS
 62
     3
 10
215.5599400925114
 20
-34.056606949384317
 30
0.0
 40
9.9399999999999995
 50
0.0
 51
90.0
  0
TEXT
  8
NOTE
  6
CONTINUOUS
 62
     4
 10
494.60535609095967
 20
-463.841715270267
 30
0.0
 40
64.0
  1
%%uAH 4
 41
0.9
  0
LINE
  8
NOTE
  6
CONTINUOUS
 62
     4
 10
494.5153560909597
 20
-476.64171527026701
 30
0.0
 11
708.54821323381668
 21
-476.64171527026701
 31
0.0
  0
LINE
  8
NOTE
  6
CONTINUOUS
 62
     4
 10
247.3969343824013
 20
-193.88764057291951
 30
0.0
 11
233.49999999999281
 21
-163.8144706347332
 31
0.0
  0
LINE
  8
NOTE
  6
CONTINUOUS
 62
     4
 10
233.49999999999281
 20
-163.8144706347332
 30
0.0
 11
260.57171195503457
 21
-182.91009178679971
 31
0.0
  0
LINE
  8
NOTE
  6
CONTINUOUS
 62
     4
 10
233.49999999999281
 20
-163.8144706347332
 30
0.0
 11
274.46864633744298
 21
-212.98326172498599
 31
0.0
  0
LINE
  8
NOTE
  6
CONTINUOUS
 62
     4
 10
274.46864633744298
 20
-212.98326172498599
 30
0.0
 11
494.15535609095969
 21
-476.64171527026701
 31
0.0
  0
LINE
  8
NOTE
  6
CONTINUOUS
 62
     4
 10
494.15535609095969
 20
-476.64171527026701
 30
0.0
 11
494.5153560909597
 21
-476.64171527026701
 31
0.0
  0
ENDSEC
  0
EOF
