  0
SECTION
  2
HEADER
  9
$ACADVER
  1
AC1009
  9
$DWGCODEPAGE
  3
ansi_932
  9
$INSBASE
 10
0.0
 20
0.0
 30
0.0
  9
$EXTMIN
 10
-950.3335906822103
 20
-314.6908517724732
 30
0.0
  9
$EXTMAX
 10
1042.234913383231
 20
718.267378601825
 30
0.0
  9
$LIMMIN
 10
-2970.0
 20
-2100.0
  9
$LIMMAX
 10
2970.0
 20
2100.0
  9
$ORTHOMODE
 70
     1
  9
$REGENMODE
 70
     0
  9
$FILLMODE
 70
     1
  9
$QTEXTMODE
 70
     0
  9
$MIRRTEXT
 70
     0
  9
$DRAGMODE
 70
     2
  9
$LTSCALE
 40
20.0
  9
$OSMODE
 70
    37
  9
$ATTMODE
 70
     1
  9
$TEXTSIZE
 40
64.0
  9
$TRACEWID
 40
0.05
  9
$TEXTSTYLE
  7
STANDARD
  9
$CLAYER
  8
SIZE
  9
$CELTYPE
  6
CONTINUOUS
  9
$CECOLOR
 62
    30
  9
$DIMSCALE
 40
1.0
  9
$DIMASZ
 40
40.0
  9
$DIMEXO
 40
20.0
  9
$DIMDLI
 40
200.0
  9
$DIMRND
 40
0.0
  9
$DIMDLE
 40
0.0
  9
$DIMEXE
 40
25.0
  9
$DIMTP
 40
0.0
  9
$DIMTM
 40
0.0
  9
$DIMTXT
 40
64.0
  9
$DIMCEN
 40
0.09
  9
$DIMTSZ
 40
0.0
  9
$DIMTOL
 70
     0
  9
$DIMLIM
 70
     0
  9
$DIMTIH
 70
     0
  9
$DIMTOH
 70
     0
  9
$DIMSE1
 70
     0
  9
$DIMSE2
 70
     0
  9
$DIMTAD
 70
     1
  9
$DIMZIN
 70
     8
  9
$DIMBLK
  1
ORIGIN
  9
$DIMASO
 70
     1
  9
$DIMSHO
 70
     0
  9
$DIMPOST
  1

  9
$DIMAPOST
  1

  9
$DIMALT
 70
     0
  9
$DIMALTD
 70
     2
  9
$DIMALTF
 40
25.4
  9
$DIMLFAC
 40
1.0
  9
$DIMTOFL
 70
     1
  9
$DIMTVP
 40
0.0
  9
$DIMTIX
 70
     1
  9
$DIMSOXD
 70
     0
  9
$DIMSAH
 70
     0
  9
$DIMBLK1
  1

  9
$DIMBLK2
  1

  9
$DIMSTYLE
  2
STANDARD
  9
$DIMCLRD
 70
     0
  9
$DIMCLRE
 70
     0
  9
$DIMCLRT
 70
     0
  9
$DIMTFAC
 40
1.0
  9
$DIMGAP
 40
25.0
  9
$LUNITS
 70
     2
  9
$LUPREC
 70
     4
  9
$SKETCHINC
 40
0.1
  9
$FILLETRAD
 40
0.0
  9
$AUNITS
 70
     1
  9
$AUPREC
 70
     3
  9
$MENU
  1
ACAD
  9
$ELEVATION
 40
0.0
  9
$PELEVATION
 40
0.0
  9
$THICKNESS
 40
0.0
  9
$LIMCHECK
 70
     0
  9
$CHAMFERA
 40
0.0
  9
$CHAMFERB
 40
0.0
  9
$SKPOLY
 70
     0
  9
$TDCREATE
 40
2449761.500706007
  9
$TDUPDATE
 40
2457485.551163241
  9
$TDINDWG
 40
0.0465885417
  9
$TDUSRTIMER
 40
0.0465883681
  9
$USRTIMER
 70
     1
  9
$ANGBASE
 50
0.0
  9
$ANGDIR
 70
     0
  9
$PDMODE
 70
     3
  9
$PDSIZE
 40
-2.0
  9
$PLINEWID
 40
0.0
  9
$COORDS
 70
     1
  9
$SPLFRAME
 70
     0
  9
$SPLINETYPE
 70
     6
  9
$SPLINESEGS
 70
     8
  9
$ATTDIA
 70
     0
  9
$ATTREQ
 70
     1
  9
$HANDLING
 70
     1
  9
$HANDSEED
  5
B63
  9
$SURFTAB1
 70
     6
  9
$SURFTAB2
 70
     6
  9
$SURFTYPE
 70
     6
  9
$SURFU
 70
     6
  9
$SURFV
 70
     6
  9
$UCSNAME
  2

  9
$UCSORG
 10
0.0
 20
0.0
 30
0.0
  9
$UCSXDIR
 10
1.0
 20
0.0
 30
0.0
  9
$UCSYDIR
 10
0.0
 20
1.0
 30
0.0
  9
$PUCSNAME
  2

  9
$PUCSORG
 10
0.0
 20
0.0
 30
0.0
  9
$PUCSXDIR
 10
1.0
 20
0.0
 30
0.0
  9
$PUCSYDIR
 10
0.0
 20
1.0
 30
0.0
  9
$USERI1
 70
     0
  9
$USERI2
 70
     0
  9
$USERI3
 70
     0
  9
$USERI4
 70
     0
  9
$USERI5
 70
     0
  9
$USERR1
 40
20.0
  9
$USERR2
 40
0.0
  9
$USERR3
 40
0.0
  9
$USERR4
 40
0.0
  9
$USERR5
 40
0.0
  9
$WORLDVIEW
 70
     1
  9
$SHADEDGE
 70
     3
  9
$SHADEDIF
 70
    70
  9
$TILEMODE
 70
     1
  9
$MAXACTVP
 70
    48
  9
$PLIMCHECK
 70
     0
  9
$PEXTMIN
 10
1.000000000000000E+20
 20
1.000000000000000E+20
 30
1.000000000000000E+20
  9
$PEXTMAX
 10
-1.000000000000000E+20
 20
-1.000000000000000E+20
 30
-1.000000000000000E+20
  9
$PLIMMIN
 10
0.0
 20
0.0
  9
$PLIMMAX
 10
12.0
 20
9.0
  9
$UNITMODE
 70
     0
  9
$VISRETAIN
 70
     1
  9
$PLINEGEN
 70
     0
  9
$PSLTSCALE
 70
     1
  0
ENDSEC
  0
SECTION
  2
TABLES
  0
TABLE
  2
VPORT
 70
     1
  0
VPORT
  2
*ACTIVE
 70
     0
 10
0.0
 20
0.0
 11
1.0
 21
1.0
 12
-39.25124430755022
 22
213.8811577205288
 13
0.0
 23
0.0
 14
50.0
 24
50.0
 15
100.0
 25
100.0
 16
0.0
 26
0.0
 36
1.0
 17
0.0
 27
0.0
 37
0.0
 40
1552.995640533348
 41
1.44235588972431
 42
50.0
 43
0.0
 44
0.0
 50
0.0
 51
0.0
 71
     0
 72
  1000
 73
     1
 74
     0
 75
     0
 76
     0
 77
     0
 78
     0
  0
ENDTAB
  0
TABLE
  2
LTYPE
 70
     7
  0
LTYPE
  2
CONTINUOUS
 70
     0
  3
実線
 72
    65
 73
     0
 40
0.0
  0
LTYPE
  2
DASHDOT
 70
     0
  3
____ _ ____ _ ____ _ ____ _ ____ _ ____ _ ____
 72
    65
 73
     4
 40
5.5
 49
4.0
 49
-0.6
 49
0.3
 49
-0.6
  0
LTYPE
  2
DASHED
 70
     0
  3
_ _ _ _ _ _ _ _ _ _ _ _ _ _ _ _ _ _ _ _ _ _ _
 72
    65
 73
     2
 40
1.999999999999999
 49
1.199999999999999
 49
-0.8
  0
LTYPE
  2
DOT
 70
     0
  3
...............................................
 72
    65
 73
     2
 40
0.8
 49
0.5
 49
-0.3
  0
LTYPE
  2
DASHDOT1
 70
     0
  3
____ _ ____ _ ____ _ ____ _ ____ _ ____ _ ____
 72
    65
 73
     4
 40
2.0
 49
1.5
 49
-0.2
 49
0.1
 49
-0.2
  0
LTYPE
  2
DIVIDE
 70
     0
  3
_____ _ _ _____ _ _ _____ _ _ _____ _ _ ____
 72
    65
 73
     6
 40
6.4
 49
4.0
 49
-0.6
 49
0.3
 49
-0.6
 49
0.3
 49
-0.6
  0
LTYPE
  2
DIVIDE1
 70
     0
  3
_____ _ _ _____ _ _ _____ _ _ _____ _ _ ____
 72
    65
 73
     6
 40
3.2
 49
2.0
 49
-0.3
 49
0.15
 49
-0.3
 49
0.15
 49
-0.3
  0
ENDTAB
  0
TABLE
  2
LAYER
 70
    12
  0
LAYER
  2
0
 70
     0
 62
     7
  6
CONTINUOUS
  0
LAYER
  2
SIZE
 70
     0
 62
    30
  6
CONTINUOUS
  0
LAYER
  2
NOTE
 70
     0
 62
     4
  6
CONTINUOUS
  0
LAYER
  2
OUTLINE
 70
     0
 62
     3
  6
CONTINUOUS
  0
LAYER
  2
DETAIL
 70
     0
 62
     5
  6
CONTINUOUS
  0
LAYER
  2
BASIS
 70
     0
 62
     6
  6
DASHDOT
  0
LAYER
  2
DEFPOINTS
 70
     0
 62
     7
  6
CONTINUOUS
  0
LAYER
  2
ARRANGE
 70
     0
 62
     1
  6
CONTINUOUS
  0
LAYER
  2
FIX
 70
     0
 62
    11
  6
CONTINUOUS
  0
LAYER
  2
ETC
 70
     0
 62
    61
  6
CONTINUOUS
  0
LAYER
  2
SERVICESPACE
 70
     0
 62
     2
  6
DASHDOT
  0
LAYER
  2
SYMBOLLINE
 70
     0
 62
    15
  6
CONTINUOUS
  0
ENDTAB
  0
TABLE
  2
STYLE
 70
     2
  0
STYLE
  2
STANDARD
 70
     0
 40
0.0
 41
0.9
 50
0.0
 71
     0
 42
64.0
  3
SIMPLEX
  4
BIGFONT
  0
STYLE
  2
STANDARD1
 70
     0
 40
0.0
 41
1.0
 50
0.0
 71
     0
 42
64.0
  3
MONOTXT
  4
BIGFONT
  0
ENDTAB
  0
TABLE
  2
VIEW
 70
     1
  0
VIEW
  2
ALL
 70
     0
 40
4282.619807999997
 10
0.0
 20
41.30990399999999
 41
5940.0
 11
0.0
 21
0.0
 31
1.0
 12
0.0
 22
0.0
 32
0.0
 42
50.0
 43
0.0
 44
0.0
 50
0.0
 71
     0
  0
ENDTAB
  0
TABLE
  2
UCS
 70
     0
  0
ENDTAB
  0
TABLE
  2
APPID
 70
     1
  0
APPID
  2
ACAD
 70
     0
  0
ENDTAB
  0
TABLE
  2
DIMSTYLE
 70
     1
  0
DIMSTYLE
  2
STANDARD
 70
     0
  3

  4

  5

  6

  7

 40
1.0
 41
0.18
 42
0.0625
 43
0.38
 44
0.18
 45
0.0
 46
0.0
 47
0.0
 48
0.0
140
0.18
141
0.09
142
0.0
143
25.4
144
1.0
145
0.0
146
1.0
147
0.09
 71
     0
 72
     0
 73
     1
 74
     1
 75
     0
 76
     0
 77
     0
 78
     0
170
     0
171
     2
172
     0
173
     0
174
     0
175
     0
176
     0
177
     0
178
     0
  0
ENDTAB
  0
ENDSEC
  0
SECTION
  2
BLOCKS
  0
BLOCK
  8
0
  2
$MODEL_SPACE
 70
     0
 10
0.0
 20
0.0
 30
0.0
  3
$MODEL_SPACE
  1

  0
ENDBLK
  5
8F2
  8
0
  0
BLOCK
 67
     1
  8
0
  2
$PAPER_SPACE
 70
     0
 10
0.0
 20
0.0
 30
0.0
  3
$PAPER_SPACE
  1

  0
ENDBLK
  5
8EE
 67
     1
  8
0
  0
BLOCK
  8
0
  2
_ORIGIN
 70
     0
 10
0.0
 20
0.0
 30
0.0
  3
_ORIGIN
  1

  0
CIRCLE
  5
914
  8
0
  6
BYBLOCK
 62
     0
 10
0.0
 20
0.0
 30
0.0
 40
0.5
  0
LINE
  5
915
  8
0
  6
BYBLOCK
 62
     0
 10
0.0
 20
0.0
 30
0.0
 11
-1.0
 21
0.0
 31
0.0
  0
ENDBLK
  5
916
  8
0
 62
     5
  0
BLOCK
  8
0
  2
_OPEN30
 70
     0
 10
0.0
 20
0.0
 30
0.0
  3
_OPEN30
  1

  0
LINE
  5
919
  8
0
  6
BYBLOCK
 62
     0
 10
-1.0
 20
0.26794919
 30
0.0
 11
0.0
 21
0.0
 31
0.0
  0
LINE
  5
91A
  8
0
  6
BYBLOCK
 62
     0
 10
0.0
 20
0.0
 30
0.0
 11
-1.0
 21
-0.26794919
 31
0.0
  0
LINE
  5
91B
  8
0
  6
BYBLOCK
 62
     0
 10
0.0
 20
0.0
 30
0.0
 11
-1.0
 21
0.0
 31
0.0
  0
ENDBLK
  5
91C
  8
0
 62
     5
  0
BLOCK
  8
0
  2
A$C42FC10BD
 70
     0
 10
0.0
 20
0.0
 30
0.0
  3
A$C42FC10BD
  1

  0
LINE
  5
91F
  8
NOTE
  6
BYBLOCK
 62
     4
 10
722.0580657979925
 20
38.43359756234645
 30
0.0
 11
737.4766761087303
 21
0.0000017695992938
 31
0.0
  0
LINE
  5
920
  8
NOTE
  6
BYBLOCK
 62
     4
 10
737.4766761087303
 20
0.0000017695992938
 30
0.0
 11
704.906970108228
 21
25.57516707728597
 31
0.0
  0
LINE
  5
921
  8
NOTE
  6
BYBLOCK
 62
     4
 10
737.4766761087303
 20
0.0000017695992938
 30
0.0
 11
713.4825179531103
 21
32.00438231981621
 31
0.0
  0
TEXT
  5
922
  8
NOTE
  6
CONTINUOUS
 62
     4
 10
29.0229359233308
 20
245.6154601020834
 30
0.0
 40
64.0
  1
4×12×19長穴
 41
0.9
  0
LINE
  5
923
  8
NOTE
  6
CONTINUOUS
 62
     4
 10
568.3363166518902
 20
225.6062679010629
 30
0.0
 11
0.0
 21
225.6062679010629
 31
0.0
1001
ACAD
1000
DSTYLE
1002
{
1070
   147
1040
0.09
1070
    41
1040
40.0
1070
    42
1040
20.0
1070
    43
1040
200.0
1070
    44
1040
30.0
1070
    73
1070
     0
1070
    74
1070
     0
1070
    77
1070
     0
1070
    78
1070
     8
1070
   140
1040
64.0
1070
   172
1070
     1
1070
   174
1070
     1
1070
   275
1070
     0
1070
   279
1070
     0
1070
   284
1070
     0
1070
   285
1070
     0
1070
   286
1070
     0
1070
   341
1005
1CD
1070
   342
1005
1C8
1002
}
  0
LINE
  5
924
  8
NOTE
  6
CONTINUOUS
 62
     4
 10
713.4825179531103
 20
32.00438231981621
 30
0.0
 11
568.3363166518902
 21
225.6062679010629
 31
0.0
1001
ACAD
1000
DSTYLE
1002
{
1070
   147
1040
0.09
1070
    41
1040
40.0
1070
    42
1040
20.0
1070
    43
1040
200.0
1070
    44
1040
30.0
1070
    73
1070
     0
1070
    74
1070
     0
1070
    77
1070
     0
1070
    78
1070
     8
1070
   140
1040
64.0
1070
   172
1070
     1
1070
   174
1070
     1
1070
   275
1070
     0
1070
   279
1070
     0
1070
   284
1070
     0
1070
   285
1070
     0
1070
   286
1070
     0
1070
   341
1005
1CD
1070
   342
1005
1C8
1002
}
  0
ENDBLK
  5
925
  8
0
 62
     4
  0
BLOCK
  8
0
  2
A$C6F70151F
 70
     0
 10
0.0
 20
0.0
 30
0.0
  3
A$C6F70151F
  1

  0
TEXT
  5
928
  8
NOTE
  6
CONTINUOUS
 62
     4
 10
0.0000004620118261
 20
-0.0000003371854405
 30
0.0
 40
64.0
  1
4-φ12×19
 41
0.9
  0
ENDBLK
  5
929
  8
0
 62
     4
  0
BLOCK
  8
0
  2
A$C14D216EB
 70
     0
 10
0.0
 20
0.0
 30
0.0
  3
A$C14D216EB
  1

  0
TEXT
  5
92C
  8
SIZE
  6
BYBLOCK
 62
    30
 10
64.00000117596426
 20
-11.52000125367123
 30
0.0
 40
64.0
  1
φ142
 50
90.0
 41
0.9
  0
ENDBLK
  5
92D
  8
0
 62
     4
  0
ENDSEC
  0
SECTION
  2
ENTITIES
  0
LINE
  5
9BA
  8
SIZE
  6
CONTINUOUS
 62
    30
 10
538.8968164586379
 20
127.0
 30
0.0
 11
538.8968164586379
 21
-145.006905392904
 31
0.0
  0
LINE
  5
9BB
  8
SIZE
  6
CONTINUOUS
 62
    30
 10
411.9024314586376
 20
136.0
 30
0.0
 11
411.9024314586376
 21
-146.9561713523553
 31
0.0
  0
LINE
  5
9BC
  8
NOTE
  6
CONTINUOUS
 62
     4
 10
-120.0
 20
190.0
 30
0.0
 11
-120.0
 21
220.0
 31
0.0
  0
LINE
  5
9BD
  8
NOTE
  6
CONTINUOUS
 62
     4
 10
120.0
 20
190.0
 30
0.0
 11
120.0
 21
220.0
 31
0.0
  0
LINE
  5
9BE
  8
NOTE
  6
CONTINUOUS
 62
     4
 10
184.9999999999998
 20
90.0
 30
0.0
 11
154.9999999999998
 21
90.0
 31
0.0
  0
LINE
  5
9BF
  8
NOTE
  6
CONTINUOUS
 62
     4
 10
169.9999999999997
 20
75.0
 30
0.0
 11
169.9999999999997
 21
105.0
 31
0.0
  0
LINE
  5
9C0
  8
BASIS
  6
DASHDOT
 62
     6
 10
305.3845549999999
 20
205.0
 30
0.0
 11
-243.790897
 21
205.0
 31
0.0
  0
LINE
  5
9C1
  8
BASIS
  6
DASHDOT
 62
     6
 10
0.0
 20
-82.95894399999999
 30
0.0
 11
0.0
 21
366.733972
 31
0.0
  0
POINT
  5
9C2
  8
ARRANGE
  6
CONTINUOUS
 62
     1
 10
0.0
 20
0.0
 30
0.0
  0
LINE
  5
9C3
  8
DETAIL
  6
CONTINUOUS
 62
     5
 10
239.9999999999999
 20
134.0
 30
0.0
 11
239.9999999999999
 21
276.0
 31
0.0
  0
LINE
  5
9C4
  8
DETAIL
  6
CONTINUOUS
 62
     5
 10
192.5
 20
0.0
 30
0.0
 11
-192.5
 21
0.0
 31
0.0
  0
LINE
  5
9C5
  8
DETAIL
  6
CONTINUOUS
 62
     5
 10
192.5
 20
-13.0
 30
0.0
 11
-192.5
 21
-13.0
 31
0.0
  0
LINE
  5
9C6
  8
DETAIL
  6
CONTINUOUS
 62
     5
 10
239.9999999999999
 20
276.0
 30
0.0
 11
169.9999999999997
 21
285.0
 31
0.0
  0
LINE
  5
9C7
  8
DETAIL
  6
CONTINUOUS
 62
     5
 10
169.9999999999997
 20
125.0
 30
0.0
 11
239.9999999999999
 21
134.0
 31
0.0
  0
LINE
  5
9C8
  8
DETAIL
  6
CONTINUOUS
 62
     5
 10
145.0
 20
205.0
 30
0.0
 11
95.0
 21
205.0
 31
0.0
  0
LINE
  5
9C9
  8
DETAIL
  6
CONTINUOUS
 62
     5
 10
-145.0
 20
205.0
 30
0.0
 11
-95.0
 21
205.0
 31
0.0
  0
CIRCLE
  5
9CA
  8
ARRANGE
  6
CONTINUOUS
 62
     1
 10
0.0
 20
0.0
 30
0.0
 40
40.0
  0
CIRCLE
  5
9CB
  8
FIX
  6
CONTINUOUS
 62
    11
 10
120.0
 20
205.0
 30
0.0
 40
40.0
  0
CIRCLE
  5
9CC
  8
FIX
  6
CONTINUOUS
 62
    11
 10
-120.0
 20
205.0
 30
0.0
 40
40.0
  0
TEXT
  5
9CD
  8
SIZE
  6
BYBLOCK
 62
    30
 10
-74.05714300000002
 20
447.5702710268397
 30
0.0
 40
64.0
  1
240
 41
0.9
  0
TEXT
  5
9CE
  8
SIZE
  6
BYBLOCK
 62
    30
 10
-383.846924
 20
97.214804
 30
0.0
 40
64.0
  1
80
 50
90.0
 41
0.9
  0
TEXT
  5
9CF
  8
SIZE
  6
BYBLOCK
 62
    30
 10
-383.846924
 20
-107.9708337118218
 30
0.0
 40
64.0
  1
13
 50
90.0
 41
0.9
  0
LINE
  5
9D0
  8
SIZE
  6
BYBLOCK
 62
    30
 10
538.8968164586379
 20
283.0
 30
0.0
 11
538.8968164586379
 21
205.0
 31
0.0
  0
LINE
  5
9D1
  8
SIZE
  6
BYBLOCK
 62
    30
 10
538.8968164586379
 20
127.0
 30
0.0
 11
538.8968164586379
 21
205.0
 31
0.0
  0
TEXT
  5
9D2
  8
SIZE
  6
BYBLOCK
 62
    30
 10
517.5800308739545
 20
-140.9323069999995
 30
0.0
 40
64.0
  1
φ160
 50
90.0
 41
0.9
  0
LINE
  5
9D3
  8
SIZE
  6
BYBLOCK
 62
    30
 10
411.9024314586376
 20
274.0
 30
0.0
 11
411.9024314586376
 21
205.0
 31
0.0
  0
LINE
  5
9D4
  8
SIZE
  6
BYBLOCK
 62
    30
 10
411.9024314586376
 20
136.0
 30
0.0
 11
411.9024314586376
 21
205.0
 31
0.0
  0
TEXT
  5
9D5
  8
SIZE
  6
BYBLOCK
 62
    30
 10
390.8290232014005
 20
-140.9323069999995
 30
0.0
 40
64.0
  1
φ142
 50
90.0
 41
0.9
  0
TEXT
  5
9D6
  8
SIZE
  6
BYBLOCK
 62
    30
 10
-74.05714300000002
 20
580.1204300755624
 30
0.0
 40
64.0
  1
340
 41
0.9
  0
TEXT
  5
9D7
  8
SIZE
  6
BYBLOCK
 62
    30
 10
262.1280014182912
 20
580.1204300755624
 30
0.0
 40
64.0
  1
70
 41
0.9
  0
LINE
  5
9D8
  8
NOTE
  6
CONTINUOUS
 62
     4
 10
-120.0
 20
205.0
 30
0.0
 11
-135.0
 21
205.0
 31
0.0
  0
LINE
  5
9D9
  8
NOTE
  6
CONTINUOUS
 62
     4
 10
-120.0
 20
205.0
 30
0.0
 11
-105.0
 21
205.0
 31
0.0
  0
LINE
  5
9DA
  8
NOTE
  6
CONTINUOUS
 62
     4
 10
120.0
 20
205.0
 30
0.0
 11
105.0
 21
205.0
 31
0.0
  0
LINE
  5
9DB
  8
NOTE
  6
CONTINUOUS
 62
     4
 10
120.0
 20
205.0
 30
0.0
 11
135.0
 21
205.0
 31
0.0
  0
LINE
  5
9DC
  8
NOTE
  6
CONTINUOUS
 62
     4
 10
-319.0217684502076
 20
429.6658212786314
 30
0.0
 11
-950.3335906822103
 21
429.6658212786314
 31
0.0
  0
TEXT
  5
9DD
  8
NOTE
  6
CONTINUOUS
 62
     4
 10
-930.5405909184427
 20
453.6632115157344
 30
0.0
 40
64.0
  1
AH 4-φ12×19
 41
0.9
  0
TEXT
  5
9E1
  8
NOTE
  6
CONTINUOUS
 62
     4
 10
427.5025530338028
 20
-279.2611900501587
 30
0.0
 40
64.0
  1
EL
 41
0.9
  0
LINE
  5
9E2
  8
SIZE
  6
CONTINUOUS
 62
    30
 10
290.0
 20
276.0
 30
0.0
 11
445.8024622508274
 21
275.9999999999996
 31
0.0
  0
LINE
  5
9E3
  8
SIZE
  6
CONTINUOUS
 62
    30
 10
290.0
 20
134.0
 30
0.0
 11
445.8024622508274
 21
133.9999999999997
 31
0.0
  0
SOLID
  5
9E4
  8
SIZE
  6
CONTINUOUS
 62
    30
 10
415.4691289174938
 20
273.9999999999997
 30
0.0
 11
416.1357955841607
 21
273.9999999999997
 31
0.0
 12
415.8024622508271
 22
275.9999999999996
 32
0.0
 13
415.8024622508271
 23
275.9999999999996
 33
0.0
  0
SOLID
  5
9E5
  8
SIZE
  6
CONTINUOUS
 62
    30
 10
415.4691289174938
 20
135.9999999999998
 30
0.0
 11
416.1357955841607
 21
135.9999999999998
 31
0.0
 12
415.8024622508271
 22
133.9999999999997
 32
0.0
 13
415.8024622508271
 23
133.9999999999997
 33
0.0
  0
LINE
  5
9E6
  8
SIZE
  6
CONTINUOUS
 62
    30
 10
220.0
 20
285.0
 30
0.0
 11
574.5034888537702
 21
284.9999999999999
 31
0.0
  0
LINE
  5
9E7
  8
SIZE
  6
CONTINUOUS
 62
    30
 10
220.0
 20
125.0
 30
0.0
 11
574.5034888537702
 21
124.9999999999998
 31
0.0
  0
SOLID
  5
9E8
  8
SIZE
  6
CONTINUOUS
 62
    30
 10
544.1701555204367
 20
282.9999999999999
 30
0.0
 11
544.8368221871036
 21
282.9999999999999
 31
0.0
 12
544.5034888537702
 22
284.9999999999999
 32
0.0
 13
544.5034888537702
 23
284.9999999999999
 33
0.0
  0
SOLID
  5
9E9
  8
SIZE
  6
CONTINUOUS
 62
    30
 10
544.1701555204367
 20
126.9999999999997
 30
0.0
 11
544.8368221871036
 21
126.9999999999997
 31
0.0
 12
544.5034888537702
 22
124.9999999999998
 32
0.0
 13
544.5034888537702
 23
124.9999999999998
 33
0.0
  0
LINE
  5
9EA
  8
DETAIL
  6
CONTINUOUS
 62
     5
 10
-170.0
 20
330.0
 30
0.0
 11
-170.0
 21
80.0
 31
0.0
  0
LINE
  5
9EB
  8
DETAIL
  6
CONTINUOUS
 62
     5
 10
-170.0
 20
80.0
 30
0.0
 11
169.9999999999997
 21
80.0
 31
0.0
  0
LINE
  5
9EC
  8
DETAIL
  6
CONTINUOUS
 62
     5
 10
169.9999999999997
 20
80.0
 30
0.0
 11
169.9999999999997
 21
330.0
 31
0.0
  0
LINE
  5
9ED
  8
DETAIL
  6
CONTINUOUS
 62
     5
 10
170.0
 20
330.0
 30
0.0
 11
-169.9999999999997
 21
330.0
 31
0.0
  0
LINE
  5
9EE
  8
DETAIL
  6
CONTINUOUS
 62
     5
 10
-160.0
 20
80.0
 30
0.0
 11
-160.0
 21
0.0
 31
0.0
  0
LINE
  5
9EF
  8
DETAIL
  6
CONTINUOUS
 62
     5
 10
-192.5
 20
0.0
 30
0.0
 11
-192.5
 21
-13.0
 31
0.0
  0
LINE
  5
9F0
  8
DETAIL
  6
CONTINUOUS
 62
     5
 10
160.0
 20
0.0
 30
0.0
 11
160.0
 21
80.0
 31
0.0
  0
LINE
  5
9F1
  8
DETAIL
  6
CONTINUOUS
 62
     5
 10
192.5
 20
0.0
 30
0.0
 11
192.5
 21
-13.0
 31
0.0
  0
LINE
  5
9F2
  8
SIZE
  6
CONTINUOUS
 62
    30
 10
220.0
 20
285.0
 30
0.0
 11
199.9943059089089
 21
285.0
 31
0.0
  0
LINE
  5
9F3
  8
SIZE
  6
CONTINUOUS
 62
    30
 10
290.0
 20
276.0
 30
0.0
 11
261.4197935010643
 21
276.0
 31
0.0
  0
LINE
  5
9F4
  8
SIZE
  6
CONTINUOUS
 62
    30
 10
290.0
 20
134.0
 30
0.0
 11
264.3448192103812
 21
134.0
 31
0.0
  0
LINE
  5
9F5
  8
SIZE
  6
CONTINUOUS
 62
    30
 10
220.0
 20
125.0
 30
0.0
 11
198.0442905128147
 21
125.0
 31
0.0
  0
LINE
  5
9F6
  8
NOTE
  6
CONTINUOUS
 62
     4
 10
-146.5238026441538
 20
234.9414076705483
 30
0.0
 11
-319.0217684502076
 21
429.6658212786314
 31
0.0
1001
ACAD
1000
DSTYLE
1002
{
1070
    41
1040
40.0
1070
    42
1040
20.0
1070
    43
1040
200.0
1070
    44
1040
25.0
1070
    73
1070
     0
1070
    74
1070
     0
1070
    77
1070
     0
1070
    78
1070
     8
1070
   140
1040
64.0
1070
   147
1040
25.0
1070
   172
1070
     1
1070
   174
1070
     1
1070
   275
1070
     0
1070
   279
1070
     0
1070
   284
1070
     0
1070
   285
1070
     0
1070
   286
1070
     0
1070
   341
1005
4CB
1070
   342
1005
4C6
1002
}
  0
LINE
  5
9F7
  8
NOTE
  6
BYBLOCK
 62
     4
 10
-138.5010267113706
 20
242.0484391047691
 30
0.0
 11
-120.0
 21
205.0
 31
0.0
  0
LINE
  5
9F8
  8
NOTE
  6
BYBLOCK
 62
     4
 10
-120.0
 20
205.0
 30
0.0
 11
-154.546578576937
 21
227.8343762363275
 31
0.0
  0
LINE
  5
9F9
  8
NOTE
  6
BYBLOCK
 62
     4
 10
-120.0
 20
205.0
 30
0.0
 11
-146.5238026441538
 21
234.9414076705483
 31
0.0
  0
LINE
  5
9FA
  8
NOTE
  6
CONTINUOUS
 62
     4
 10
190.2318287045703
 20
55.49386855544493
 30
0.0
 11
400.8459021673534
 21
-303.7162161631026
 31
0.0
1001
ACAD
1000
DSTYLE
1002
{
1070
    41
1040
40.0
1070
    42
1040
20.0
1070
    43
1040
200.0
1070
    44
1040
25.0
1070
    73
1070
     0
1070
    74
1070
     0
1070
    77
1070
     0
1070
    78
1070
     8
1070
   140
1040
64.0
1070
   147
1040
25.0
1070
   172
1070
     1
1070
   174
1070
     1
1070
   275
1070
     0
1070
   279
1070
     0
1070
   284
1070
     0
1070
   285
1070
     0
1070
   286
1070
     0
1070
   341
1005
4CB
1070
   342
1005
4C6
1002
}
  0
LINE
  5
9FB
  8
NOTE
  6
CONTINUOUS
 62
     4
 10
400.8459021673534
 20
-303.7162161631026
 30
0.0
 11
543.1970365429597
 21
-303.7162161631026
 31
0.0
1001
ACAD
1000
DSTYLE
1002
{
1070
    41
1040
40.0
1070
    42
1040
20.0
1070
    43
1040
200.0
1070
    44
1040
25.0
1070
    73
1070
     0
1070
    74
1070
     0
1070
    77
1070
     0
1070
    78
1070
     8
1070
   140
1040
64.0
1070
   147
1040
25.0
1070
   172
1070
     1
1070
   174
1070
     1
1070
   275
1070
     0
1070
   279
1070
     0
1070
   284
1070
     0
1070
   285
1070
     0
1070
   286
1070
     0
1070
   341
1005
4CB
1070
   342
1005
4C6
1002
}
  0
LINE
  5
9FC
  8
NOTE
  6
BYBLOCK
 62
     4
 10
180.9859387339684
 20
50.07276644183646
 30
0.0
 11
169.9999999999997
 21
90.0
 31
0.0
  0
LINE
  5
9FD
  8
NOTE
  6
BYBLOCK
 62
     4
 10
169.9999999999997
 20
90.0
 30
0.0
 11
199.4777186751725
 21
60.91497066905339
 31
0.0
  0
LINE
  5
9FE
  8
NOTE
  6
BYBLOCK
 62
     4
 10
169.9999999999997
 20
90.0
 30
0.0
 11
190.2318287045703
 21
55.49386855544493
 31
0.0
  0
LINE
  5
9FF
  8
OUTLINE
  6
CONTINUOUS
 62
     3
 10
-170.0
 20
330.0
 30
0.0
 11
169.9999999999997
 21
330.0
 31
0.0
  0
LINE
  5
A00
  8
OUTLINE
  6
CONTINUOUS
 62
     3
 10
169.9999999999997
 20
330.0
 30
0.0
 11
170.0
 21
80.0
 31
0.0
  0
LINE
  5
A01
  8
OUTLINE
  6
CONTINUOUS
 62
     3
 10
-170.0
 20
80.0
 30
0.0
 11
-169.9999999999997
 21
330.0
 31
0.0
  0
LINE
  5
A02
  8
OUTLINE
  6
CONTINUOUS
 62
     3
 10
-160.0
 20
80.0
 30
0.0
 11
-160.0
 21
0.0
 31
0.0
  0
LINE
  5
A03
  8
OUTLINE
  6
CONTINUOUS
 62
     3
 10
-160.0
 20
0.0
 30
0.0
 11
-192.5
 21
0.0
 31
0.0
  0
LINE
  5
A04
  8
OUTLINE
  6
CONTINUOUS
 62
     3
 10
-192.5
 20
0.0
 30
0.0
 11
-192.5
 21
-13.0
 31
0.0
  0
LINE
  5
A05
  8
OUTLINE
  6
CONTINUOUS
 62
     3
 10
-192.5
 20
-13.0
 30
0.0
 11
192.5
 21
-13.0
 31
0.0
  0
LINE
  5
A06
  8
OUTLINE
  6
CONTINUOUS
 62
     3
 10
192.5
 20
-13.0
 30
0.0
 11
192.5
 21
0.0
 31
0.0
  0
LINE
  5
A07
  8
OUTLINE
  6
CONTINUOUS
 62
     3
 10
192.5
 20
0.0
 30
0.0
 11
160.0
 21
0.0
 31
0.0
  0
LINE
  5
A08
  8
OUTLINE
  6
CONTINUOUS
 62
     3
 10
160.0
 20
0.0
 30
0.0
 11
160.0
 21
80.0
 31
0.0
  0
LINE
  5
A09
  8
OUTLINE
  6
CONTINUOUS
 62
     3
 10
-170.0
 20
80.0
 30
0.0
 11
-160.0
 21
80.0
 31
0.0
  0
LINE
  5
A0A
  8
OUTLINE
  6
CONTINUOUS
 62
     3
 10
170.0
 20
80.0
 30
0.0
 11
160.0
 21
80.0
 31
0.0
  0
LINE
  5
A0B
  8
SIZE
  6
CONTINUOUS
 62
    30
 10
189.9999999999998
 20
330.0
 30
0.0
 11
691.5417043869685
 21
329.9999999999997
 31
0.0
  0
LINE
  5
A0C
  8
SIZE
  6
CONTINUOUS
 62
    30
 10
189.9999999999998
 20
80.0
 30
0.0
 11
691.541704386968
 21
79.99999999999984
 31
0.0
  0
LINE
  5
A0D
  8
SIZE
  6
CONTINUOUS
 62
    30
 10
666.5417043869685
 20
329.9999999999997
 30
0.0
 11
666.5417043869681
 21
79.99999999999987
 31
0.0
  0
LINE
  5
A0E
  8
SIZE
  6
CONTINUOUS
 62
    30
 10
-120.0
 20
240.0
 30
0.0
 11
-119.9999999999999
 21
455.1828166458684
 31
0.0
  0
LINE
  5
A0F
  8
SIZE
  6
CONTINUOUS
 62
    30
 10
120.0
 20
240.0
 30
0.0
 11
120.0
 21
455.1828166458684
 31
0.0
  0
LINE
  5
A10
  8
SIZE
  6
CONTINUOUS
 62
    30
 10
-119.9999999999999
 20
430.1828166458684
 30
0.0
 11
120.0
 21
430.1828166458684
 31
0.0
  0
LINE
  5
A11
  8
SIZE
  6
CONTINUOUS
 62
    30
 10
-169.9999999999997
 20
350.0
 30
0.0
 11
-169.9999999999997
 21
579.9359063024505
 31
0.0
  0
LINE
  5
A12
  8
SIZE
  6
CONTINUOUS
 62
    30
 10
169.9999999999997
 20
350.0
 30
0.0
 11
170.0
 21
579.9359063024505
 31
0.0
  0
LINE
  5
A13
  8
SIZE
  6
CONTINUOUS
 62
    30
 10
-169.9999999999997
 20
554.9359063024505
 30
0.0
 11
170.0
 21
554.9359063024505
 31
0.0
  0
LINE
  5
A14
  8
SIZE
  6
CONTINUOUS
 62
    30
 10
239.9999999999999
 20
296.0
 30
0.0
 11
240.0
 21
579.9359063024505
 31
0.0
  0
LINE
  5
A15
  8
SIZE
  6
CONTINUOUS
 62
    30
 10
170.0
 20
574.9359063024503
 30
0.0
 11
170.0
 21
579.9359063024505
 31
0.0
  0
LINE
  5
A16
  8
SIZE
  6
CONTINUOUS
 62
    30
 10
130.0
 20
554.9359063024505
 30
0.0
 11
90.00000000000006
 21
554.9359063024505
 31
0.0
  0
LINE
  5
A17
  8
SIZE
  6
CONTINUOUS
 62
    30
 10
170.0
 20
554.9359063024505
 30
0.0
 11
377.1789137820478
 21
554.9359063024505
 31
0.0
  0
LINE
  5
A18
  8
SIZE
  6
CONTINUOUS
 62
    30
 10
-160.0
 20
-20.0
 30
0.0
 11
-160.0
 21
-208.8362936746093
 31
0.0
  0
LINE
  5
A19
  8
SIZE
  6
CONTINUOUS
 62
    30
 10
160.0
 20
-20.0
 30
0.0
 11
160.0
 21
-208.8362936746093
 31
0.0
  0
LINE
  5
A1A
  8
SIZE
  6
CONTINUOUS
 62
    30
 10
-160.0
 20
-183.8362936746091
 30
0.0
 11
160.0
 21
-183.8362936746091
 31
0.0
  0
LINE
  5
A1B
  8
SIZE
  6
CONTINUOUS
 62
    30
 10
-192.5
 20
-33.0
 30
0.0
 11
-192.5
 21
-329.6908517724732
 31
0.0
  0
LINE
  5
A1C
  8
SIZE
  6
CONTINUOUS
 62
    30
 10
192.5
 20
-33.0
 30
0.0
 11
192.4999999999998
 21
-329.6908517724732
 31
0.0
  0
LINE
  5
A1D
  8
SIZE
  6
CONTINUOUS
 62
    30
 10
-192.5
 20
-304.690851772473
 30
0.0
 11
192.4999999999998
 21
-304.690851772473
 31
0.0
  0
LINE
  5
A1E
  8
SIZE
  6
CONTINUOUS
 62
    30
 10
-190.0
 20
80.0
 30
0.0
 11
-385.6289721928249
 21
80.00000000000006
 31
0.0
  0
LINE
  5
A1F
  8
SIZE
  6
CONTINUOUS
 62
    30
 10
-212.5
 20
0.0
 30
0.0
 11
-385.6289721928249
 21
0.0000000000000497
 31
0.0
  0
LINE
  5
A20
  8
SIZE
  6
CONTINUOUS
 62
    30
 10
-360.6289721928249
 20
80.00000000000006
 30
0.0
 11
-360.6289721928249
 21
0.0000000000000195
 31
0.0
  0
LINE
  5
A21
  8
SIZE
  6
CONTINUOUS
 62
    30
 10
-212.5
 20
-13.0
 30
0.0
 11
-385.6289721928249
 21
-12.99999999999995
 31
0.0
  0
LINE
  5
A22
  8
SIZE
  6
CONTINUOUS
 62
    30
 10
-380.6289721928249
 20
0.0000000000000497
 30
0.0
 11
-385.6289721928249
 21
0.0000000000000497
 31
0.0
  0
LINE
  5
A23
  8
SIZE
  6
CONTINUOUS
 62
    30
 10
-360.6289721928249
 20
40.00000000000005
 30
0.0
 11
-360.6289721928249
 21
80.00000000000006
 31
0.0
  0
LINE
  5
A24
  8
SIZE
  6
CONTINUOUS
 62
    30
 10
-360.6289721928249
 20
-12.99999999999995
 30
0.0
 11
-360.6289721928249
 21
0.0000000000000195
 31
0.0
  0
LINE
  5
A25
  8
SIZE
  6
CONTINUOUS
 62
    30
 10
-360.6289721928249
 20
80.00000000000006
 30
0.0
 11
-360.6289721928249
 21
204.0678411900321
 31
0.0
  0
LINE
  5
A26
  8
SIZE
  6
CONTINUOUS
 62
    30
 10
-360.6289721928249
 20
-12.99999999999995
 30
0.0
 11
-360.6289721928249
 21
-119.6664331588303
 31
0.0
  0
CIRCLE
  5
A27
  8
SIZE
  6
CONTINUOUS
 62
    30
 10
-360.6289721928249
 20
80.00000000000006
 30
0.0
 40
6.0
  0
CIRCLE
  5
A28
  8
SIZE
  6
CONTINUOUS
 62
    30
 10
-360.6289721928249
 20
0.0000000000000195
 30
0.0
 40
6.0
  0
CIRCLE
  5
A29
  8
SIZE
  6
CONTINUOUS
 62
    30
 10
-360.6289721928249
 20
-12.99999999999995
 30
0.0
 40
6.0
  0
CIRCLE
  5
A2A
  8
SIZE
  6
CONTINUOUS
 62
    30
 10
-160.0
 20
-183.8362936746091
 30
0.0
 40
6.0
  0
CIRCLE
  5
A2B
  8
SIZE
  6
CONTINUOUS
 62
    30
 10
-192.5
 20
-304.690851772473
 30
0.0
 40
6.0
  0
CIRCLE
  5
A2C
  8
SIZE
  6
CONTINUOUS
 62
    30
 10
192.4999999999998
 20
-304.690851772473
 30
0.0
 40
6.0
  0
CIRCLE
  5
A2D
  8
SIZE
  6
CONTINUOUS
 62
    30
 10
160.0
 20
-183.8362936746091
 30
0.0
 40
6.0
  0
CIRCLE
  5
A2E
  8
SIZE
  6
CONTINUOUS
 62
    30
 10
415.8024622508271
 20
133.9999999999997
 30
0.0
 40
6.0
  0
CIRCLE
  5
A2F
  8
SIZE
  6
CONTINUOUS
 62
    30
 10
538.8968164586379
 20
124.9999999999998
 30
0.0
 40
6.0
  0
CIRCLE
  5
A30
  8
SIZE
  6
CONTINUOUS
 62
    30
 10
666.5417043869681
 20
79.99999999999984
 30
0.0
 40
6.0
  0
CIRCLE
  5
A31
  8
SIZE
  6
CONTINUOUS
 62
    30
 10
666.5417043869685
 20
329.9999999999997
 30
0.0
 40
6.0
  0
CIRCLE
  5
A32
  8
SIZE
  6
CONTINUOUS
 62
    30
 10
538.8968164586379
 20
283.0
 30
0.0
 40
6.0
  0
CIRCLE
  5
A33
  8
SIZE
  6
CONTINUOUS
 62
    30
 10
411.9024314586376
 20
274.0
 30
0.0
 40
6.0
  0
CIRCLE
  5
A34
  8
SIZE
  6
CONTINUOUS
 62
    30
 10
240.0
 20
554.9359063024505
 30
0.0
 40
6.0
  0
CIRCLE
  5
A35
  8
SIZE
  6
CONTINUOUS
 62
    30
 10
170.0
 20
554.9359063024505
 30
0.0
 40
6.0
  0
CIRCLE
  5
A36
  8
SIZE
  6
CONTINUOUS
 62
    30
 10
-169.9999999999997
 20
554.9359063024505
 30
0.0
 40
6.0
  0
CIRCLE
  5
A37
  8
SIZE
  6
CONTINUOUS
 62
    30
 10
-119.9999999999999
 20
430.1828166458684
 30
0.0
 40
6.0
  0
CIRCLE
  5
A38
  8
SIZE
  6
CONTINUOUS
 62
    30
 10
120.0
 20
430.1828166458684
 30
0.0
 40
6.0
  0
TEXT
  5
A39
  8
SIZE
  6
CONTINUOUS
 62
    30
 10
641.5417043869681
 20
130.942857142857
 30
0.0
 40
64.0
  1
250
 50
90.0
 41
0.9
  0
TEXT
  5
A3A
  8
SIZE
  6
BYBLOCK
 62
    30
 10
-42.97098865999581
 20
-162.550311766084
 30
0.0
 40
64.0
  1
320
 41
0.9
  0
LINE
  5
A3B
  8
SIZE
  6
CONTINUOUS
 62
    30
 10
-98.62487265999579
 20
-153.605153766084
 30
0.0
 11
-58.62487265999579
 21
-153.605153766084
 31
0.0
  0
LINE
  5
A3C
  8
SIZE
  6
CONTINUOUS
 62
    30
 10
-58.62487265999579
 20
-113.605153766084
 30
0.0
 11
-98.62487265999579
 21
-113.605153766084
 31
0.0
  0
LINE
  5
A3D
  8
SIZE
  6
CONTINUOUS
 62
    30
 10
-98.62487265999579
 20
-113.605153766084
 30
0.0
 11
-98.62487265999579
 21
-153.605153766084
 31
0.0
  0
LINE
  5
A3E
  8
SIZE
  6
CONTINUOUS
 62
    30
 10
-58.62487265999579
 20
-153.605153766084
 30
0.0
 11
-58.62487265999579
 21
-113.605153766084
 31
0.0
  0
TEXT
  5
A3F
  8
SIZE
  6
BYBLOCK
 62
    30
 10
-44.92100277055217
 20
-281.4555946786749
 30
0.0
 40
64.0
  1
385
 41
0.9
  0
LINE
  5
A40
  8
SIZE
  6
CONTINUOUS
 62
    30
 10
-60.57488677055217
 20
-232.5104356786749
 30
0.0
 11
-100.5748867705521
 21
-232.5104356786749
 31
0.0
  0
LINE
  5
A41
  8
SIZE
  6
CONTINUOUS
 62
    30
 10
-100.5748867705521
 20
-272.5104356786748
 30
0.0
 11
-60.57488677055217
 21
-272.5104356786748
 31
0.0
  0
LINE
  5
A42
  8
SIZE
  6
CONTINUOUS
 62
    30
 10
-100.5748867705521
 20
-232.5104356786749
 30
0.0
 11
-100.5748867705521
 21
-272.5104356786748
 31
0.0
  0
LINE
  5
A43
  8
SIZE
  6
CONTINUOUS
 62
    30
 10
-60.57488677055217
 20
-272.5104356786748
 30
0.0
 11
-60.57488677055217
 21
-232.5104356786749
 31
0.0
  0
TEXT
  5
A97
  8
ETC
  6
CONTINUOUS
 62
    61
 10
623.2155427223946
 20
451.617110955586
 30
0.0
 40
50.0
  1
BFS-15ASK
 50
0.0000029575586669
 41
0.659722
  7
STANDARD1
  0
TEXT
  5
A98
  8
ETC
  6
CONTINUOUS
 62
    61
 10
506.1587097947154
 20
639.2673550205132
 30
0.0
 40
64.0
  1
BFS-15ASK_5
 50
0.0000029575586669
 41
0.659722
  7
STANDARD1
  0
TEXT
  5
A99
  8
ETC
  6
CONTINUOUS
 62
    61
 10
506.1587137947151
 20
535.2673550205133
 30
0.0
 40
64.0
  1
産業扇
 50
0.0000029575586669
 41
0.659722
  7
STANDARD1
  0
ENDSEC
  0
EOF
