  0
SECTION
  2
HEADER
  9
$ACADVER
  1
AC1009
  9
$INSBASE
 10
0.0
 20
0.0
 30
0.0
  9
$EXTMIN
 10
-1028.6140361660871
 20
-696.98377843817957
 30
0.0
  9
$EXTMAX
 10
965.14050648292994
 20
510.05556799017188
 30
0.0
  9
$LIMMIN
 10
-2970.0
 20
-2100.0
  9
$LIMMAX
 10
2970.0
 20
2100.0
  9
$ORTHOMODE
 70
     1
  9
$REGENMODE
 70
     0
  9
$FILLMODE
 70
     1
  9
$QTEXTMODE
 70
     0
  9
$MIRRTEXT
 70
     0
  9
$DRAGMODE
 70
     2
  9
$LTSCALE
 40
20.0
  9
$OSMODE
 70
   169
  9
$ATTMODE
 70
     1
  9
$TEXTSIZE
 40
64.0
  9
$TRACEWID
 40
0.05
  9
$TEXTSTYLE
  7
STANDARD
  9
$CLAYER
  8
NOTE
  9
$CELTYPE
  6
CONTINUOUS
  9
$CECOLOR
 62
     4
  9
$DIMSCALE
 40
1.0
  9
$DIMASZ
 40
40.0
  9
$DIMEXO
 40
20.0
  9
$DIMDLI
 40
200.0
  9
$DIMRND
 40
0.0
  9
$DIMDLE
 40
0.0
  9
$DIMEXE
 40
25.0
  9
$DIMTP
 40
0.0
  9
$DIMTM
 40
0.0
  9
$DIMTXT
 40
64.0
  9
$DIMCEN
 40
0.09
  9
$DIMTSZ
 40
0.0
  9
$DIMTOL
 70
     0
  9
$DIMLIM
 70
     0
  9
$DIMTIH
 70
     0
  9
$DIMTOH
 70
     0
  9
$DIMSE1
 70
     0
  9
$DIMSE2
 70
     0
  9
$DIMTAD
 70
     1
  9
$DIMZIN
 70
     8
  9
$DIMBLK
  1
ORIGIN
  9
$DIMASO
 70
     1
  9
$DIMSHO
 70
     0
  9
$DIMPOST
  1

  9
$DIMAPOST
  1

  9
$DIMALT
 70
     0
  9
$DIMALTD
 70
     2
  9
$DIMALTF
 40
25.399999999999999
  9
$DIMLFAC
 40
1.0
  9
$DIMTOFL
 70
     1
  9
$DIMTVP
 40
0.0
  9
$DIMTIX
 70
     1
  9
$DIMSOXD
 70
     0
  9
$DIMSAH
 70
     0
  9
$DIMBLK1
  1

  9
$DIMBLK2
  1

  9
$DIMSTYLE
  2
STANDARD
  9
$DIMCLRD
 70
     0
  9
$DIMCLRE
 70
     0
  9
$DIMCLRT
 70
     0
  9
$DIMTFAC
 40
1.0
  9
$DIMGAP
 40
25.0
  9
$LUNITS
 70
     2
  9
$LUPREC
 70
     4
  9
$SKETCHINC
 40
0.1
  9
$FILLETRAD
 40
10.0
  9
$AUNITS
 70
     1
  9
$AUPREC
 70
     3
  9
$MENU
  1
ACAD
  9
$ELEVATION
 40
0.0
  9
$PELEVATION
 40
0.0
  9
$THICKNESS
 40
0.0
  9
$LIMCHECK
 70
     0
  9
$BLIPMODE
 70
     0
  9
$CHAMFERA
 40
0.0
  9
$CHAMFERB
 40
0.0
  9
$SKPOLY
 70
     0
  9
$TDCREATE
 40
2449761.5006249999
  9
$TDUPDATE
 40
2453481.6805626042
  9
$TDINDWG
 40
0.1720757407
  9
$TDUSRTIMER
 40
0.1720704977
  9
$USRTIMER
 70
     1
  9
$ANGBASE
 50
0.0
  9
$ANGDIR
 70
     0
  9
$PDMODE
 70
     3
  9
$PDSIZE
 40
-2.0
  9
$PLINEWID
 40
0.0
  9
$COORDS
 70
     2
  9
$SPLFRAME
 70
     0
  9
$SPLINETYPE
 70
     6
  9
$SPLINESEGS
 70
     8
  9
$ATTDIA
 70
     0
  9
$ATTREQ
 70
     1
  9
$HANDLING
 70
 22529
  9
$HANDSEED
  5
131B
  9
$SURFTAB1
 70
     6
  9
$SURFTAB2
 70
     6
  9
$SURFTYPE
 70
     6
  9
$SURFU
 70
     6
  9
$SURFV
 70
     6
  9
$UCSNAME
  2

  9
$UCSORG
 10
0.0
 20
0.0
 30
0.0
  9
$UCSXDIR
 10
1.0
 20
0.0
 30
0.0
  9
$UCSYDIR
 10
0.0
 20
1.0
 30
0.0
  9
$PUCSNAME
  2

  9
$PUCSORG
 10
0.0
 20
0.0
 30
0.0
  9
$PUCSXDIR
 10
1.0
 20
0.0
 30
0.0
  9
$PUCSYDIR
 10
0.0
 20
1.0
 30
0.0
  9
$USERI1
 70
     0
  9
$USERI2
 70
     0
  9
$USERI3
 70
     0
  9
$USERI4
 70
     0
  9
$USERI5
 70
     0
  9
$USERR1
 40
20.0
  9
$USERR2
 40
0.0
  9
$USERR3
 40
0.0
  9
$USERR4
 40
0.0
  9
$USERR5
 40
0.0
  9
$WORLDVIEW
 70
     1
  9
$SHADEDGE
 70
     3
  9
$SHADEDIF
 70
    70
  9
$TILEMODE
 70
     1
  9
$MAXACTVP
 70
    48
  9
$PLIMCHECK
 70
     0
  9
$PEXTMIN
 10
1.0000000000000000E+020
 20
1.0000000000000000E+020
 30
1.0000000000000000E+020
  9
$PEXTMAX
 10
-1.0000000000000000E+020
 20
-1.0000000000000000E+020
 30
-1.0000000000000000E+020
  9
$PLIMMIN
 10
0.0
 20
0.0
  9
$PLIMMAX
 10
12.0
 20
9.0
  9
$UNITMODE
 70
     0
  9
$VISRETAIN
 70
     1
  9
$PLINEGEN
 70
     0
  9
$PSLTSCALE
 70
     1
  0
ENDSEC
  0
SECTION
  2
TABLES
  0
TABLE
  2
VPORT
 70
     3
  0
VPORT
  2
*ACTIVE
 70
     0
 10
0.0
 20
0.0
 11
1.0
 21
1.0
 12
-100.5844875285954
 22
-118.1193508113703
 13
0.0
 23
0.0
 14
50.0
 24
50.0
 15
100.0
 25
100.0
 16
0.0
 26
0.0
 36
1.0
 17
0.0
 27
0.0
 37
0.0
 40
1762.3120819565979
 41
1.4423558897243101
 42
50.0
 43
0.0
 44
0.0
 50
0.0
 51
0.0
 71
     0
 72
  1000
 73
     1
 74
     0
 75
     0
 76
     0
 77
     0
 78
     0
  0
ENDTAB
  0
TABLE
  2
LTYPE
 70
     7
  0
LTYPE
  2
CONTINUOUS
 70
     0
  3
実線
 72
    65
 73
     0
 40
0.0
  0
LTYPE
  2
DASHDOT
 70
     0
  3
____ _ ____ _ ____ _ ____ _ ____ _ ____ _ ____
 72
    65
 73
     4
 40
5.5
 49
4.0
 49
-0.6
 49
0.3
 49
-0.6
  0
LTYPE
  2
DASHED
 70
     0
  3
_ _ _ _ _ _ _ _ _ _ _ _ _ _ _ _ _ _ _ _ _ _ _
 72
    65
 73
     2
 40
2.0
 49
1.1999999999999991
 49
-0.8
  0
LTYPE
  2
DOT
 70
     0
  3
...............................................
 72
    65
 73
     2
 40
0.8
 49
0.5
 49
-0.3
  0
LTYPE
  2
DASHDOT1
 70
     0
  3
____ _ ____ _ ____ _ ____ _ ____ _ ____ _ ____
 72
    65
 73
     4
 40
2.0
 49
1.5
 49
-0.2
 49
0.1
 49
-0.2
  0
LTYPE
  2
DIVIDE
 70
     0
  3
_____ _ _ _____ _ _ _____ _ _ _____ _ _ ____
 72
    65
 73
     6
 40
6.4000000000000004
 49
4.0
 49
-0.6
 49
0.3
 49
-0.6
 49
0.3
 49
-0.6
  0
LTYPE
  2
DIVIDE1
 70
     0
  3
_____ _ _ _____ _ _ _____ _ _ _____ _ _ ____
 72
    65
 73
     6
 40
3.2000000000000002
 49
2.0
 49
-0.3
 49
0.15
 49
-0.3
 49
0.15
 49
-0.3
  0
ENDTAB
  0
TABLE
  2
LAYER
 70
    12
  0
LAYER
  2
0
 70
     0
 62
     7
  6
CONTINUOUS
  0
LAYER
  2
NOTE
 70
     0
 62
     4
  6
CONTINUOUS
  0
LAYER
  2
SIZE
 70
     0
 62
    30
  6
CONTINUOUS
  0
LAYER
  2
OUTLINE
 70
     0
 62
     3
  6
CONTINUOUS
  0
LAYER
  2
DETAIL
 70
     0
 62
     5
  6
CONTINUOUS
  0
LAYER
  2
BASIS
 70
     0
 62
     6
  6
DASHDOT
  0
LAYER
  2
DEFPOINTS
 70
     0
 62
     7
  6
CONTINUOUS
  0
LAYER
  2
ARRANGE
 70
     0
 62
     1
  6
CONTINUOUS
  0
LAYER
  2
FIX
 70
     0
 62
    11
  6
CONTINUOUS
  0
LAYER
  2
ETC
 70
     0
 62
    61
  6
CONTINUOUS
  0
LAYER
  2
SERVICESPACE
 70
     0
 62
     2
  6
DASHDOT
  0
LAYER
  2
SYMBOLLINE
 70
     0
 62
    15
  6
CONTINUOUS
  0
ENDTAB
  0
TABLE
  2
STYLE
 70
     2
  0
STYLE
  2
STANDARD
 70
     0
 40
0.0
 41
0.9
 50
0.0
 71
     0
 42
64.0
  3
SIMPLEX
  4
BIGFONT
  0
STYLE
  2
STANDARD1
 70
     0
 40
0.0
 41
1.0
 50
0.0
 71
     0
 42
64.0
  3
MONOTXT
  4
BIGFONT
  0
ENDTAB
  0
TABLE
  2
VIEW
 70
     1
  0
VIEW
  2
ALL
 70
     0
 40
4282.6198079999967
 10
0.0
 20
41.309903999999989
 41
5940.0
 11
0.0
 21
0.0
 31
1.0
 12
0.0
 22
0.0
 32
0.0
 42
50.0
 43
0.0
 44
0.0
 50
0.0
 71
     0
  0
ENDTAB
  0
TABLE
  2
UCS
 70
     0
  0
ENDTAB
  0
TABLE
  2
APPID
 70
     1
  0
APPID
  2
ACAD
 70
     0
  0
ENDTAB
  0
TABLE
  2
DIMSTYLE
 70
     1
  0
DIMSTYLE
  2
STANDARD
 70
     0
  3

  4

  5

  6

  7

 40
1.0
 41
0.18
 42
0.0625
 43
0.38
 44
0.18
 45
0.0
 46
0.0
 47
0.0
 48
0.0
140
0.18
141
0.09
142
0.0
143
25.399999999999999
144
1.0
145
0.0
146
1.0
147
0.09
 71
     0
 72
     0
 73
     1
 74
     1
 75
     0
 76
     0
 77
     0
 78
     0
170
     0
171
     2
172
     0
173
     0
174
     0
175
     0
176
     0
177
     0
178
     0
  0
ENDTAB
  0
ENDSEC
  0
SECTION
  2
BLOCKS
  0
BLOCK
  8
0
  2
$MODEL_SPACE
 70
     0
 10
0.0
 20
0.0
 30
0.0
  3
$MODEL_SPACE
  1

  0
ENDBLK
  5
120E
  8
0
  0
BLOCK
 67
     1
  8
0
  2
$PAPER_SPACE
 70
     0
 10
0.0
 20
0.0
 30
0.0
  3
$PAPER_SPACE
  1

  0
ENDBLK
  5
120A
 67
     1
  8
0
  0
BLOCK
  8
0
 62
     5
  2
_ORIGIN
 70
     0
 10
0.0
 20
0.0
 30
0.0
  3
_ORIGIN
  1

  0
CIRCLE
  5
1230
  8
0
  6
BYBLOCK
 62
     0
 10
0.0
 20
0.0
 30
0.0
 40
0.5
  0
LINE
  5
1231
  8
0
  6
BYBLOCK
 62
     0
 10
0.0
 20
0.0
 30
0.0
 11
-1.0
 21
0.0
 31
0.0
  0
ENDBLK
  5
1232
  8
0
 62
     5
  0
BLOCK
  8
0
 62
     5
  2
_OPEN30
 70
     0
 10
0.0
 20
0.0
 30
0.0
  3
_OPEN30
  1

  0
LINE
  5
1235
  8
0
  6
BYBLOCK
 62
     0
 10
-1.0
 20
0.26794919
 30
0.0
 11
0.0
 21
0.0
 31
0.0
  0
LINE
  5
1236
  8
0
  6
BYBLOCK
 62
     0
 10
0.0
 20
0.0
 30
0.0
 11
-1.0
 21
-0.26794919
 31
0.0
  0
LINE
  5
1237
  8
0
  6
BYBLOCK
 62
     0
 10
0.0
 20
0.0
 30
0.0
 11
-1.0
 21
0.0
 31
0.0
  0
ENDBLK
  5
1238
  8
0
 62
     5
  0
ENDSEC
  0
SECTION
  2
ENTITIES
  0
LINE
  5
1239
  8
NOTE
  6
CONTINUOUS
 62
     4
 10
200.0
 20
105.0
 30
0.0
 11
200.0
 21
135.0
 31
0.0
  0
LINE
  5
123A
  8
NOTE
  6
CONTINUOUS
 62
     4
 10
185.0
 20
120.0
 30
0.0
 11
215.0
 21
120.0
 31
0.0
  0
LINE
  5
123B
  8
NOTE
  6
CONTINUOUS
 62
     4
 10
185.0
 20
-120.0
 30
0.0
 11
215.0
 21
-120.0
 31
0.0
  0
LINE
  5
123C
  8
NOTE
  6
CONTINUOUS
 62
     4
 10
200.0
 20
-135.0
 30
0.0
 11
200.0
 21
-105.0
 31
0.0
  0
LINE
  5
123D
  8
NOTE
  6
CONTINUOUS
 62
     4
 10
-200.0
 20
-135.0
 30
0.0
 11
-200.0
 21
-105.0
 31
0.0
  0
LINE
  5
123E
  8
NOTE
  6
CONTINUOUS
 62
     4
 10
-185.0
 20
-120.0
 30
0.0
 11
-215.0
 21
-120.0
 31
0.0
  0
LINE
  5
123F
  8
NOTE
  6
CONTINUOUS
 62
     4
 10
-185.0
 20
120.0
 30
0.0
 11
-215.0
 21
120.0
 31
0.0
  0
LINE
  5
1240
  8
NOTE
  6
CONTINUOUS
 62
     4
 10
-200.0
 20
105.0
 30
0.0
 11
-200.0
 21
135.0
 31
0.0
  0
LINE
  5
1241
  8
NOTE
  6
CONTINUOUS
 62
     4
 10
496.01953099999992
 20
-400.95898399999999
 30
0.0
 11
361.01953099999992
 21
-400.95898399999999
 31
0.0
  0
LINE
  5
1242
  8
NOTE
  6
CONTINUOUS
 62
     4
 10
90.0
 20
-185.0
 30
0.0
 11
90.0
 21
-155.0
 31
0.0
  0
LINE
  5
1243
  8
BASIS
  6
DASHDOT
 62
     6
 10
0.0
 20
-305.38455499999992
 30
0.0
 11
0.0
 21
243.790897
 31
0.0
  0
LINE
  5
1244
  8
BASIS
  6
DASHDOT
 62
     6
 10
279.025734
 20
0.0
 30
0.0
 11
-278.21576599999992
 21
0.0
 31
0.0
  0
POINT
  5
1245
  8
ARRANGE
  6
CONTINUOUS
 62
     1
 10
0.0
 20
0.0
 30
0.0
  0
LINE
  5
1246
  8
DETAIL
  6
CONTINUOUS
 62
     5
 10
71.0
 20
-240.0
 30
0.0
 11
-71.0
 21
-240.0
 31
0.0
  0
LINE
  5
1247
  8
DETAIL
  6
CONTINUOUS
 62
     5
 10
215.0
 20
-145.0
 30
0.0
 11
215.0
 21
-95.0
 31
0.0
  0
LINE
  5
1248
  8
DETAIL
  6
CONTINUOUS
 62
     5
 10
192.5
 20
-145.0
 30
0.0
 11
215.0
 21
-145.0
 31
0.0
  0
LINE
  5
1249
  8
DETAIL
  6
CONTINUOUS
 62
     5
 10
192.5
 20
-95.0
 30
0.0
 11
215.0
 21
-95.0
 31
0.0
  0
LINE
  5
124A
  8
DETAIL
  6
CONTINUOUS
 62
     5
 10
-215.0
 20
-145.0
 30
0.0
 11
-215.0
 21
-95.0
 31
0.0
  0
LINE
  5
124B
  8
DETAIL
  6
CONTINUOUS
 62
     5
 10
-192.5
 20
-145.0
 30
0.0
 11
-215.0
 21
-145.0
 31
0.0
  0
LINE
  5
124C
  8
DETAIL
  6
CONTINUOUS
 62
     5
 10
-192.5
 20
-95.0
 30
0.0
 11
-215.0
 21
-95.0
 31
0.0
  0
LINE
  5
124D
  8
DETAIL
  6
CONTINUOUS
 62
     5
 10
-215.0
 20
145.0
 30
0.0
 11
-215.0
 21
95.0
 31
0.0
  0
LINE
  5
124E
  8
DETAIL
  6
CONTINUOUS
 62
     5
 10
-192.5
 20
145.0
 30
0.0
 11
-215.0
 21
145.0
 31
0.0
  0
LINE
  5
124F
  8
DETAIL
  6
CONTINUOUS
 62
     5
 10
-192.5
 20
95.0
 30
0.0
 11
-215.0
 21
95.0
 31
0.0
  0
LINE
  5
1250
  8
DETAIL
  6
CONTINUOUS
 62
     5
 10
215.0
 20
145.0
 30
0.0
 11
215.0
 21
95.0
 31
0.0
  0
LINE
  5
1251
  8
DETAIL
  6
CONTINUOUS
 62
     5
 10
192.5
 20
145.0
 30
0.0
 11
215.0
 21
145.0
 31
0.0
  0
LINE
  5
1252
  8
DETAIL
  6
CONTINUOUS
 62
     5
 10
192.5
 20
95.0
 30
0.0
 11
215.0
 21
95.0
 31
0.0
  0
LINE
  5
1253
  8
SIZE
  6
CONTINUOUS
 62
    30
 10
2.0
 20
-425.1781679999998
 30
0.0
 11
-127.1802279999999
 21
-425.1781679999998
 31
0.0
  0
CIRCLE
  5
1254
  8
ARRANGE
  6
CONTINUOUS
 62
     1
 10
0.0
 20
0.0
 30
0.0
 40
40.0
  0
CIRCLE
  5
1255
  8
FIX
  6
CONTINUOUS
 62
    11
 10
-200.0
 20
120.0
 30
0.0
 40
40.0
  0
CIRCLE
  5
1256
  8
FIX
  6
CONTINUOUS
 62
    11
 10
-200.0
 20
-120.0
 30
0.0
 40
40.0
  0
CIRCLE
  5
1257
  8
FIX
  6
CONTINUOUS
 62
    11
 10
200.0
 20
-120.0
 30
0.0
 40
40.0
  0
CIRCLE
  5
1258
  8
FIX
  6
CONTINUOUS
 62
    11
 10
200.0
 20
120.0
 30
0.0
 40
40.0
  0
TEXT
  5
1259
  8
SIZE
  6
BYBLOCK
 62
    30
 10
-597.62922800000001
 20
-106.6971429999999
 30
0.0
 40
64.0
  1
□385
 50
90.0
 41
0.9
  0
TEXT
  5
125A
  8
SIZE
  6
BYBLOCK
 62
    30
 10
-433.32705199999998
 20
-106.6971429999999
 30
0.0
 40
64.0
  1
□340
 50
90.0
 41
0.9
  0
TEXT
  5
125B
  8
SIZE
  6
BYBLOCK
 62
    30
 10
-437.77326066163567
 20
-352.55742547919772
 30
0.0
 40
64.0
  1
70
 50
90.0
 41
0.9
  0
TEXT
  5
125C
  8
SIZE
  6
BYBLOCK
 62
    30
 10
482.20769297447879
 20
-74.057143000000025
 30
0.0
 40
64.0
  1
240
 50
90.0
 41
0.9
  0
LINE
  5
125D
  8
SIZE
  6
BYBLOCK
 62
    30
 10
90.0
 20
-235.0
 30
0.0
 11
90.0
 21
-455.17816799999991
 31
0.0
  0
LINE
  5
125E
  8
SIZE
  6
BYBLOCK
 62
    30
 10
0.0
 20
-325.38455499999992
 30
0.0
 11
0.0
 21
-455.17816799999991
 31
0.0
  0
LINE
  5
125F
  8
SIZE
  6
BYBLOCK
 62
    30
 10
-2.0
 20
-425.1781679999998
 30
0.0
 11
-4.0
 21
-425.1781679999998
 31
0.0
  0
LINE
  5
1260
  8
SIZE
  6
BYBLOCK
 62
    30
 10
92.0
 20
-425.1781679999998
 30
0.0
 11
94.0
 21
-425.1781679999998
 31
0.0
  0
LINE
  5
1261
  8
SIZE
  6
BYBLOCK
 62
    30
 10
0.0
 20
-425.1781679999998
 30
0.0
 11
90.0
 21
-425.1781679999998
 31
0.0
  0
TEXT
  5
1262
  8
SIZE
  6
BYBLOCK
 62
    30
 10
-116.22191699999991
 20
-401.5223601498368
 30
0.0
 40
64.0
  1
90
 41
0.9
  0
TEXT
  5
1263
  8
SIZE
  6
BYBLOCK
 62
    30
 10
-74.057143000000025
 20
-536.6655799865448
 30
0.0
 40
64.0
  1
400
 41
0.9
  0
CIRCLE
  5
1264
  8
SIZE
  6
CONTINUOUS
 62
    30
 10
90.0
 20
-425.1781679999998
 30
0.0
 40
6.0
  0
CIRCLE
  5
1265
  8
SIZE
  6
CONTINUOUS
 62
    30
 10
0.0
 20
-425.1781679999998
 30
0.0
 40
6.0
  0
ARC
  5
1266
  8
DETAIL
  6
CONTINUOUS
 62
     5
 10
200.0
 20
123.5
 30
0.0
 40
6.0
 50
0.0
 51
180.0
  0
ARC
  5
1267
  8
DETAIL
  6
CONTINUOUS
 62
     5
 10
200.0
 20
116.5
 30
0.0
 40
6.0
 50
180.0
 51
0.0
  0
LINE
  5
1268
  8
DETAIL
  6
CONTINUOUS
 62
     5
 10
194.0
 20
123.5
 30
0.0
 11
194.0
 21
116.5
 31
0.0
  0
LINE
  5
1269
  8
DETAIL
  6
CONTINUOUS
 62
     5
 10
206.0
 20
116.5
 30
0.0
 11
206.0
 21
123.5
 31
0.0
  0
ARC
  5
126A
  8
DETAIL
  6
CONTINUOUS
 62
     5
 10
-200.0
 20
123.5
 30
0.0
 40
6.0
 50
0.0
 51
180.0
  0
ARC
  5
126B
  8
DETAIL
  6
CONTINUOUS
 62
     5
 10
-200.0
 20
116.5
 30
0.0
 40
6.0
 50
180.0
 51
0.0
  0
LINE
  5
126C
  8
DETAIL
  6
CONTINUOUS
 62
     5
 10
-206.0
 20
123.5
 30
0.0
 11
-206.0
 21
116.5
 31
0.0
  0
LINE
  5
126D
  8
DETAIL
  6
CONTINUOUS
 62
     5
 10
-194.0
 20
116.5
 30
0.0
 11
-194.0
 21
123.5
 31
0.0
  0
ARC
  5
126E
  8
DETAIL
  6
CONTINUOUS
 62
     5
 10
200.0
 20
-116.5
 30
0.0
 40
6.0
 50
0.0
 51
180.0
  0
ARC
  5
126F
  8
DETAIL
  6
CONTINUOUS
 62
     5
 10
200.0
 20
-123.5
 30
0.0
 40
6.0
 50
180.0
 51
0.0
  0
LINE
  5
1270
  8
DETAIL
  6
CONTINUOUS
 62
     5
 10
194.0
 20
-116.5
 30
0.0
 11
194.0
 21
-123.5
 31
0.0
  0
LINE
  5
1271
  8
DETAIL
  6
CONTINUOUS
 62
     5
 10
206.0
 20
-123.5
 30
0.0
 11
206.0
 21
-116.5
 31
0.0
  0
ARC
  5
1272
  8
DETAIL
  6
CONTINUOUS
 62
     5
 10
-200.0
 20
-123.5
 30
0.0
 40
6.0
 50
180.0
 51
0.0
  0
ARC
  5
1273
  8
DETAIL
  6
CONTINUOUS
 62
     5
 10
-200.0
 20
-116.5
 30
0.0
 40
6.0
 50
0.0
 51
180.0
  0
LINE
  5
1274
  8
DETAIL
  6
CONTINUOUS
 62
     5
 10
-206.0
 20
-116.5
 30
0.0
 11
-206.0
 21
-123.5
 31
0.0
  0
LINE
  5
1275
  8
DETAIL
  6
CONTINUOUS
 62
     5
 10
-194.0
 20
-123.5
 30
0.0
 11
-194.0
 21
-116.5
 31
0.0
  0
LINE
  5
1276
  8
NOTE
  6
CONTINUOUS
 62
     4
 10
-399.14035945683992
 20
375.60626613146349
 30
0.0
 11
-1028.6140361660871
 21
375.60626613146349
 31
0.0
  0
TEXT
  5
1277
  8
SIZE
  6
BYBLOCK
 62
    30
 10
-103.49728273424751
 20
446.05556799017199
 30
0.0
 40
64.0
  1
□340
 41
0.9
  0
TEXT
  5
1278
  8
NOTE
  6
CONTINUOUS
 62
     4
 10
-179.68905126562001
 20
330.4985037603476
 30
0.0
 40
64.0
  1
天井開口寸法
 41
0.9
  0
TEXT
  5
1279
  8
NOTE
  6
CONTINUOUS
 62
     4
 10
-1010.653333723872
 20
399.78751841702399
 30
0.0
 40
64.0
  1
AH 4-φ12×19
 41
0.9
  0
TEXT
  5
127A
  8
ETC
  6
CONTINUOUS
 62
    61
 10
514.77028837476826
 20
439.1795823087287
 30
0.0
 40
64.0
  1
BFS-15ASK_6
 50
0.0000029999976964
 41
0.659722
  7
STANDARD1
  0
TEXT
  5
127B
  8
ETC
  6
CONTINUOUS
 62
    61
 10
631.82712130244761
 20
251.52933824380131
 30
0.0
 40
50.0
  1
BFS-15ASK
 50
0.0000029999976964
 41
0.659722
  7
STANDARD1
  0
TEXT
  5
127C
  8
ETC
  6
CONTINUOUS
 62
    61
 10
514.77029237476825
 20
335.17958230872881
 30
0.0
 40
64.0
  1
産業扇
 50
0.0000029999976964
 41
0.659722
  7
STANDARD1
  0
LINE
  5
127D
  8
DETAIL
  6
DOT
 62
     5
 10
-170.0
 20
170.0
 30
0.0
 11
-170.0
 21
-170.0
 31
0.0
  0
LINE
  5
127E
  8
DETAIL
  6
DOT
 62
     5
 10
-170.0
 20
-170.0
 30
0.0
 11
170.0
 21
-170.0
 31
0.0
  0
LINE
  5
127F
  8
DETAIL
  6
DOT
 62
     5
 10
170.0
 20
-170.0
 30
0.0
 11
170.0
 21
170.0
 31
0.0
  0
LINE
  5
1280
  8
DETAIL
  6
DOT
 62
     5
 10
170.0
 20
170.0
 30
0.0
 11
-170.0
 21
170.0
 31
0.0
  0
LINE
  5
1281
  8
DETAIL
  6
CONTINUOUS
 62
     5
 10
-192.5
 20
182.5
 30
0.0
 11
-192.5
 21
-182.5
 31
0.0
  0
LINE
  5
1282
  8
DETAIL
  6
CONTINUOUS
 62
     5
 10
-182.5
 20
-192.5
 30
0.0
 11
182.5
 21
-192.5
 31
0.0
  0
LINE
  5
1283
  8
DETAIL
  6
CONTINUOUS
 62
     5
 10
192.5
 20
-182.5
 30
0.0
 11
192.5
 21
182.5
 31
0.0
  0
LINE
  5
1284
  8
DETAIL
  6
CONTINUOUS
 62
     5
 10
182.5
 20
192.5
 30
0.0
 11
-182.5
 21
192.5
 31
0.0
  0
ARC
  5
1285
  8
DETAIL
  6
CONTINUOUS
 62
     5
 10
-182.5
 20
-182.5
 30
0.0
 40
10.0
 50
180.0
 51
270.0
  0
ARC
  5
1286
  8
DETAIL
  6
CONTINUOUS
 62
     5
 10
182.5
 20
-182.5
 30
0.0
 40
10.0
 50
270.0
 51
0.0
  0
ARC
  5
1287
  8
DETAIL
  6
CONTINUOUS
 62
     5
 10
182.5
 20
182.5
 30
0.0
 40
10.0
 50
0.0
 51
90.0
  0
ARC
  5
1288
  8
DETAIL
  6
CONTINUOUS
 62
     5
 10
-182.5
 20
182.5
 30
0.0
 40
10.0
 50
90.0
 51
180.0
  0
LINE
  5
1289
  8
DETAIL
  6
DOT
 62
     5
 10
-192.5
 20
145.0
 30
0.0
 11
-170.0
 21
145.0
 31
0.0
  0
LINE
  5
128A
  8
DETAIL
  6
DOT
 62
     5
 10
-170.0
 20
93.54248688935408
 30
0.0
 11
-170.0
 21
93.54248688935408
 31
0.0
  0
LINE
  5
128B
  8
DETAIL
  6
DOT
 62
     5
 10
-192.5
 20
95.0
 30
0.0
 11
-170.0
 21
95.0
 31
0.0
  0
LINE
  5
128C
  8
DETAIL
  6
DOT
 62
     5
 10
-192.5
 20
-95.0
 30
0.0
 11
-170.0
 21
-95.0
 31
0.0
  0
LINE
  5
128D
  8
DETAIL
  6
DOT
 62
     5
 10
-192.5
 20
-145.0
 30
0.0
 11
-170.0
 21
-145.0
 31
0.0
  0
LINE
  5
128E
  8
DETAIL
  6
DOT
 62
     5
 10
192.5
 20
-145.0
 30
0.0
 11
170.0
 21
-145.0
 31
0.0
  0
LINE
  5
128F
  8
DETAIL
  6
DOT
 62
     5
 10
192.5
 20
-95.0
 30
0.0
 11
170.0
 21
-95.0
 31
0.0
  0
LINE
  5
1290
  8
DETAIL
  6
DOT
 62
     5
 10
192.5
 20
95.0
 30
0.0
 11
170.0
 21
95.0
 31
0.0
  0
LINE
  5
1291
  8
DETAIL
  6
DOT
 62
     5
 10
192.5
 20
145.0
 30
0.0
 11
170.0
 21
145.0
 31
0.0
  0
LINE
  5
1292
  8
DETAIL
  6
CONTINUOUS
 62
     5
 10
-77.107142857142861
 20
-192.5
 30
0.0
 11
-71.0
 21
-240.0
 31
0.0
  0
LINE
  5
1293
  8
DETAIL
  6
CONTINUOUS
 62
     5
 10
71.0
 20
-240.0
 30
0.0
 11
77.107142857142833
 21
-192.5
 31
0.0
  0
LINE
  5
1294
  8
DETAIL
  6
DOT
 62
     5
 10
-77.107142857142861
 20
-192.5
 30
0.0
 11
-80.0
 21
-170.0
 31
0.0
  0
LINE
  5
1295
  8
DETAIL
  6
DOT
 62
     5
 10
77.107142857142833
 20
-192.5
 30
0.0
 11
80.0
 21
-170.0
 31
0.0
  0
LINE
  5
1296
  8
OUTLINE
  6
CONTINUOUS
 62
     3
 10
-182.5
 20
192.5
 30
0.0
 11
182.5
 21
192.5
 31
0.0
  0
LINE
  5
1297
  8
OUTLINE
  6
CONTINUOUS
 62
     3
 10
192.5
 20
182.5
 30
0.0
 11
192.5
 21
-182.5
 31
0.0
  0
LINE
  5
1298
  8
OUTLINE
  6
CONTINUOUS
 62
     3
 10
182.5
 20
-192.5
 30
0.0
 11
-182.5
 21
-192.5
 31
0.0
  0
LINE
  5
1299
  8
OUTLINE
  6
CONTINUOUS
 62
     3
 10
-192.5
 20
-182.5
 30
0.0
 11
-192.5
 21
182.5
 31
0.0
  0
ARC
  5
129A
  8
OUTLINE
  6
CONTINUOUS
 62
     3
 10
-182.5
 20
182.5
 30
0.0
 40
10.0
 50
90.0
 51
180.0
  0
ARC
  5
129B
  8
OUTLINE
  6
CONTINUOUS
 62
     3
 10
182.5
 20
182.5
 30
0.0
 40
10.0
 50
0.0
 51
90.0
  0
ARC
  5
129C
  8
OUTLINE
  6
CONTINUOUS
 62
     3
 10
182.5
 20
-182.5
 30
0.0
 40
10.0
 50
270.0
 51
0.0
  0
ARC
  5
129D
  8
OUTLINE
  6
CONTINUOUS
 62
     3
 10
-182.5
 20
-182.5
 30
0.0
 40
10.0
 50
180.0
 51
270.0
  0
LINE
  5
129E
  8
NOTE
  6
CONTINUOUS
 62
     4
 10
-224.58342104067029
 20
151.55400782685311
 30
0.0
 11
-399.14035945683992
 21
375.60626613146349
 31
0.0
1001
ACAD
1000
DSTYLE
1002
{
1070
    41
1040
40.0
1070
    42
1040
20.0
1070
    43
1040
200.0
1070
    44
1040
25.0
1070
    73
1070
     0
1070
    74
1070
     0
1070
    77
1070
     0
1070
    78
1070
     8
1070
   140
1040
64.0
1070
   147
1040
25.0
1070
   172
1070
     1
1070
   174
1070
     1
1070
   275
1070
     0
1070
   279
1070
     0
1070
   284
1070
     0
1070
   285
1070
     0
1070
   286
1070
     0
1070
   341
1005
B2D
1070
   342
1005
B28
1002
}
  0
LINE
  5
129F
  8
NOTE
  6
BYBLOCK
 62
     4
 10
-216.1285502022117
 20
158.1411155821298
 30
0.0
 11
-200.0
 21
120.0
 31
0.0
  0
LINE
  5
12A0
  8
NOTE
  6
BYBLOCK
 62
     4
 10
-200.0
 20
120.0
 30
0.0
 11
-233.03829187912959
 21
144.9669000715765
 31
0.0
  0
LINE
  5
12A1
  8
NOTE
  6
BYBLOCK
 62
     4
 10
-200.0
 20
120.0
 30
0.0
 11
-224.58342104067029
 21
151.55400782685311
 31
0.0
  0
LINE
  5
12A2
  8
NOTE
  6
CONTINUOUS
 62
     4
 10
120.4447104836175
 20
-195.94454862911871
 30
0.0
 11
361.01953099999992
 21
-400.95898399999999
 31
0.0
1001
ACAD
1000
DSTYLE
1002
{
1070
    41
1040
40.0
1070
    42
1040
20.0
1070
    43
1040
200.0
1070
    44
1040
25.0
1070
    73
1070
     0
1070
    74
1070
     0
1070
    77
1070
     0
1070
    78
1070
     8
1070
   140
1040
64.0
1070
   147
1040
25.0
1070
   172
1070
     1
1070
   174
1070
     1
1070
   275
1070
     0
1070
   279
1070
     0
1070
   284
1070
     0
1070
   285
1070
     0
1070
   286
1070
     0
1070
   341
1005
B2D
1070
   342
1005
B28
1002
}
  0
LINE
  5
12A3
  8
NOTE
  6
BYBLOCK
 62
     4
 10
113.49288969352951
 20
-204.10218414298831
 30
0.0
 11
90.0
 21
-170.0
 31
0.0
  0
LINE
  5
12A4
  8
NOTE
  6
BYBLOCK
 62
     4
 10
90.0
 20
-170.0
 30
0.0
 11
127.39653127370551
 21
-187.78691311524881
 31
0.0
  0
LINE
  5
12A5
  8
NOTE
  6
BYBLOCK
 62
     4
 10
90.0
 20
-170.0
 30
0.0
 11
120.4447104836175
 21
-195.94454862911871
 31
0.0
  0
TEXT
  5
12A6
  8
NOTE
  6
CONTINUOUS
 62
     4
 10
390.20877602592162
 20
-379.46357381706872
 30
0.0
 40
64.0
  1
EL
 41
0.9
  0
LINE
  5
12A7
  8
SIZE
  6
CONTINUOUS
 62
    30
 10
90.0
 20
-235.0
 30
0.0
 11
90.0
 21
-205.72351646543561
 31
0.0
  0
LINE
  5
12A8
  8
SIZE
  6
CONTINUOUS
 62
    30
 10
235.0
 20
119.9999999999999
 30
0.0
 11
526.44510956264276
 21
119.9999999999999
 31
0.0
  0
LINE
  5
12A9
  8
SIZE
  6
CONTINUOUS
 62
    30
 10
235.0
 20
-120.0
 30
0.0
 11
526.44510956264276
 21
-120.0
 31
0.0
  0
LINE
  5
12AA
  8
SIZE
  6
CONTINUOUS
 62
    30
 10
501.44510956264259
 20
119.9999999999999
 30
0.0
 11
501.44510956264259
 21
-120.0
 31
0.0
  0
LINE
  5
12AB
  8
SIZE
  6
CONTINUOUS
 62
    30
 10
-170.0
 20
190.0
 30
0.0
 11
-169.99999999999949
 21
451.51650167796822
 31
0.0
  0
LINE
  5
12AC
  8
SIZE
  6
CONTINUOUS
 62
    30
 10
170.0
 20
190.0
 30
0.0
 11
170.0
 21
451.51650167796822
 31
0.0
  0
LINE
  5
12AD
  8
SIZE
  6
CONTINUOUS
 62
    30
 10
-169.99999999999949
 20
426.51650167796822
 30
0.0
 11
170.0
 21
426.51650167796822
 31
0.0
  0
LINE
  5
12AE
  8
SIZE
  6
CONTINUOUS
 62
    30
 10
-202.49999999999989
 20
192.5
 30
0.0
 11
-599.99814136769385
 21
192.5
 31
0.0
  0
LINE
  5
12AF
  8
SIZE
  6
CONTINUOUS
 62
    30
 10
-202.49999999999989
 20
-192.4999999999998
 30
0.0
 11
-599.99814136769385
 21
-192.4999999999998
 31
0.0
  0
LINE
  5
12B0
  8
SIZE
  6
CONTINUOUS
 62
    30
 10
-574.99814136769385
 20
192.5
 30
0.0
 11
-574.99814136769385
 21
-192.4999999999998
 31
0.0
  0
LINE
  5
12B1
  8
SIZE
  6
CONTINUOUS
 62
    30
 10
-190.0
 20
170.0
 30
0.0
 11
-438.93720422552519
 21
170.0
 31
0.0
  0
LINE
  5
12B2
  8
SIZE
  6
CONTINUOUS
 62
    30
 10
-190.0
 20
-170.0
 30
0.0
 11
-438.93720422552548
 21
-169.99999999999949
 31
0.0
  0
LINE
  5
12B3
  8
SIZE
  6
CONTINUOUS
 62
    30
 10
-413.93720422552531
 20
170.0
 30
0.0
 11
-413.93720422552542
 21
-169.99999999999949
 31
0.0
  0
LINE
  5
12B4
  8
SIZE
  6
CONTINUOUS
 62
    30
 10
-91.0
 20
-240.0
 30
0.0
 11
-438.93720422552542
 21
-239.99999999999989
 31
0.0
  0
LINE
  5
12B5
  8
SIZE
  6
CONTINUOUS
 62
    30
 10
-433.93720422552542
 20
-169.99999999999949
 30
0.0
 11
-438.93720422552542
 21
-169.99999999999949
 31
0.0
  0
LINE
  5
12B6
  8
SIZE
  6
CONTINUOUS
 62
    30
 10
-413.93720422552542
 20
-129.9999999999998
 30
0.0
 11
-413.93720422552531
 21
-89.999999999999915
 31
0.0
  0
LINE
  5
12B7
  8
SIZE
  6
CONTINUOUS
 62
    30
 10
-413.93720422552542
 20
-169.99999999999949
 30
0.0
 11
-413.93720422552542
 21
-364.30900965440651
 31
0.0
  0
LINE
  5
12B8
  8
SIZE
  6
CONTINUOUS
 62
    30
 10
-200.0
 20
-155.0
 30
0.0
 11
-200.0
 21
-581.15707679383195
 31
0.0
  0
LINE
  5
12B9
  8
SIZE
  6
CONTINUOUS
 62
    30
 10
200.0
 20
-155.0
 30
0.0
 11
199.9999999999998
 21
-581.15707679383195
 31
0.0
  0
LINE
  5
12BA
  8
SIZE
  6
CONTINUOUS
 62
    30
 10
-200.0
 20
-556.15707679383195
 30
0.0
 11
199.9999999999998
 21
-556.15707679383195
 31
0.0
  0
LINE
  5
12BB
  8
SIZE
  6
CONTINUOUS
 62
    30
 10
215.0
 20
-165.0
 30
0.0
 11
214.99999999999989
 21
-696.98377843817957
 31
0.0
  0
LINE
  5
12BC
  8
SIZE
  6
CONTINUOUS
 62
    30
 10
-215.0
 20
-165.0
 30
0.0
 11
-215.0
 21
-696.98377843817957
 31
0.0
  0
LINE
  5
12BD
  8
SIZE
  6
CONTINUOUS
 62
    30
 10
214.99999999999989
 20
-671.98377843817957
 30
0.0
 11
-215.0
 21
-671.98377843817957
 31
0.0
  0
CIRCLE
  5
12BE
  8
SIZE
  6
CONTINUOUS
 62
    30
 10
-215.0
 20
-671.98377843817957
 30
0.0
 40
6.0
  0
CIRCLE
  5
12BF
  8
SIZE
  6
CONTINUOUS
 62
    30
 10
214.99999999999989
 20
-671.98377843817957
 30
0.0
 40
6.0
  0
CIRCLE
  5
12C0
  8
SIZE
  6
CONTINUOUS
 62
    30
 10
199.9999999999998
 20
-556.15707679383195
 30
0.0
 40
6.0
  0
CIRCLE
  5
12C1
  8
SIZE
  6
CONTINUOUS
 62
    30
 10
-200.0
 20
-556.15707679383195
 30
0.0
 40
6.0
  0
CIRCLE
  5
12C2
  8
SIZE
  6
CONTINUOUS
 62
    30
 10
-413.93720422552542
 20
-239.99999999999989
 30
0.0
 40
6.0
  0
CIRCLE
  5
12C3
  8
SIZE
  6
CONTINUOUS
 62
    30
 10
-413.93720422552542
 20
-169.99999999999949
 30
0.0
 40
6.0
  0
CIRCLE
  5
12C4
  8
SIZE
  6
CONTINUOUS
 62
    30
 10
-574.99814136769385
 20
-192.4999999999998
 30
0.0
 40
6.0
  0
CIRCLE
  5
12C5
  8
SIZE
  6
CONTINUOUS
 62
    30
 10
501.44510956264259
 20
-120.0
 30
0.0
 40
6.0
  0
CIRCLE
  5
12C6
  8
SIZE
  6
CONTINUOUS
 62
    30
 10
501.44510956264259
 20
119.9999999999999
 30
0.0
 40
6.0
  0
CIRCLE
  5
12C7
  8
SIZE
  6
CONTINUOUS
 62
    30
 10
-413.93720422552531
 20
170.0
 30
0.0
 40
6.0
  0
CIRCLE
  5
12C8
  8
SIZE
  6
CONTINUOUS
 62
    30
 10
-574.99814136769385
 20
192.5
 30
0.0
 40
6.0
  0
CIRCLE
  5
12C9
  8
SIZE
  6
CONTINUOUS
 62
    30
 10
170.0
 20
426.51650167796822
 30
0.0
 40
6.0
  0
CIRCLE
  5
12CA
  8
SIZE
  6
CONTINUOUS
 62
    30
 10
-169.99999999999949
 20
426.51650167796822
 30
0.0
 40
6.0
  0
TEXT
  5
12CB
  8
SIZE
  6
CONTINUOUS
 62
    30
 10
-74.057142857142907
 20
-654.18142173863362
 30
0.0
 40
64.0
  1
430
 41
0.9
  0
LINE
  5
12CC
  8
SIZE
  6
CONTINUOUS
 62
    30
 10
235.0
 20
-95.0
 30
0.0
 11
403.85201066991709
 21
-95.000000000000057
 31
0.0
  0
LINE
  5
12CD
  8
SIZE
  6
CONTINUOUS
 62
    30
 10
235.0
 20
-145.0
 30
0.0
 11
403.85201066991681
 21
-145.0
 31
0.0
  0
LINE
  5
12CE
  8
SIZE
  6
CONTINUOUS
 62
    30
 10
378.85201066991681
 20
-55.000000000000071
 30
0.0
 11
378.85201066991681
 21
-276.17212651853413
 31
0.0
  0
CIRCLE
  5
12CF
  8
SIZE
  6
CONTINUOUS
 62
    30
 10
378.85201066991681
 20
-95.000000000000057
 30
0.0
 40
6.0
  0
CIRCLE
  5
12D0
  8
SIZE
  6
CONTINUOUS
 62
    30
 10
378.85201066991681
 20
-145.0
 30
0.0
 40
6.0
  0
TEXT
  5
12D1
  8
SIZE
  6
CONTINUOUS
 62
    30
 10
360.55933217469629
 20
-254.62755613791961
 30
0.0
 40
64.0
  1
50
 50
90.0
 41
0.9
  0
LINE
  5
12D2
  8
SERVICESPACE
  6
DASHDOT
 62
     2
 10
-170.0
 20
170.0
 30
0.0
 11
-170.0
 21
-170.0
 31
0.0
  0
LINE
  5
12D3
  8
SERVICESPACE
  6
DASHDOT
 62
     2
 10
-170.0
 20
-170.0
 30
0.0
 11
170.0
 21
-170.0
 31
0.0
  0
LINE
  5
12D4
  8
SERVICESPACE
  6
DASHDOT
 62
     2
 10
170.0
 20
-170.0
 30
0.0
 11
170.0
 21
170.0
 31
0.0
  0
LINE
  5
12D5
  8
SERVICESPACE
  6
DASHDOT
 62
     2
 10
170.0
 20
170.0
 30
0.0
 11
-170.0
 21
170.0
 31
0.0
  0
LINE
  5
12D6
  8
SERVICESPACE
  6
DASHDOT
 62
     2
 10
-170.0
 20
170.0
 30
0.0
 11
170.0
 21
-170.0
 31
0.0
  0
LINE
  5
12D7
  8
SERVICESPACE
  6
DASHDOT
 62
     2
 10
-170.0
 20
-170.0
 30
0.0
 11
170.0
 21
170.0
 31
0.0
  0
LINE
  5
12D8
  8
NOTE
  6
CONTINUOUS
 62
     4
 10
80.0
 20
-170.0
 30
0.0
 11
104.257341433791
 21
-170.0
 31
0.0
  0
ENDSEC
  0
EOF
