  0
SECTION
  2
HEADER
  9
$ACADVER
  1
AC1009
  9
$DWGCODEPAGE
  3
dos932
  9
$INSBASE
 10
0.0
 20
0.0
 30
0.0
  9
$EXTMIN
 10
-810.8102070000001
 20
-534.76018099999999
 30
0.0
  9
$EXTMAX
 10
875.94281338722567
 20
555.18741028528939
 30
0.0
  9
$LIMMIN
 10
-2970.0
 20
-2100.0
  9
$LIMMAX
 10
2970.0
 20
2100.0
  9
$ORTHOMODE
 70
     1
  9
$REGENMODE
 70
     1
  9
$FILLMODE
 70
     1
  9
$QTEXTMODE
 70
     0
  9
$MIRRTEXT
 70
     0
  9
$LTSCALE
 40
20.0
  9
$ATTMODE
 70
     1
  9
$TEXTSIZE
 40
64.0
  9
$TRACEWID
 40
0.05
  9
$TEXTSTYLE
  7
STANDARD
  9
$CLAYER
  8
SIZE
  9
$CELTYPE
  6
CONTINUOUS
  9
$CECOLOR
 62
     7
  9
$DIMSCALE
 40
1.0
  9
$DIMASZ
 40
12.0
  9
$DIMEXO
 40
20.0
  9
$DIMDLI
 40
200.0
  9
$DIMRND
 40
0.0
  9
$DIMDLE
 40
0.0
  9
$DIMEXE
 40
20.0
  9
$DIMTP
 40
0.0
  9
$DIMTM
 40
0.0
  9
$DIMTXT
 40
64.0
  9
$DIMCEN
 40
0.09
  9
$DIMTSZ
 40
0.0
  9
$DIMTOL
 70
     0
  9
$DIMLIM
 70
     0
  9
$DIMTIH
 70
     0
  9
$DIMTOH
 70
     0
  9
$DIMSE1
 70
     0
  9
$DIMSE2
 70
     0
  9
$DIMTAD
 70
     1
  9
$DIMZIN
 70
     8
  9
$DIMBLK
  1

  9
$DIMASO
 70
     1
  9
$DIMSHO
 70
     0
  9
$DIMPOST
  1

  9
$DIMAPOST
  1

  9
$DIMALT
 70
     0
  9
$DIMALTD
 70
     2
  9
$DIMALTF
 40
25.399999999999999
  9
$DIMLFAC
 40
1.0
  9
$DIMTOFL
 70
     1
  9
$DIMTVP
 40
0.0
  9
$DIMTIX
 70
     1
  9
$DIMSOXD
 70
     0
  9
$DIMSAH
 70
     0
  9
$DIMBLK1
  1

  9
$DIMBLK2
  1

  9
$DIMSTYLE
  2
STANDARD
  9
$DIMCLRD
 70
     7
  9
$DIMCLRE
 70
     7
  9
$DIMCLRT
 70
     7
  9
$DIMTFAC
 40
1.0
  9
$DIMGAP
 40
25.0
  9
$LUNITS
 70
     2
  9
$LUPREC
 70
     4
  9
$SKETCHINC
 40
0.1
  9
$FILLETRAD
 40
3.0
  9
$AUNITS
 70
     1
  9
$AUPREC
 70
     3
  9
$MENU
  1
ACAD
  9
$ELEVATION
 40
0.0
  9
$PELEVATION
 40
0.0
  9
$THICKNESS
 40
50.0
  9
$LIMCHECK
 70
     0
  9
$CHAMFERA
 40
0.0
  9
$CHAMFERB
 40
0.0
  9
$SKPOLY
 70
     0
  9
$TDCREATE
 40
2453019.62301037
  9
$TDUPDATE
 40
2458659.373215926
  9
$TDINDWG
 40
1.7737775579
  9
$TDUSRTIMER
 40
1.7737775579
  9
$USRTIMER
 70
     1
  9
$ANGBASE
 50
0.0
  9
$ANGDIR
 70
     0
  9
$PDMODE
 70
     3
  9
$PDSIZE
 40
-2.0
  9
$PLINEWID
 40
0.0
  9
$SPLFRAME
 70
     0
  9
$SPLINETYPE
 70
     6
  9
$SPLINESEGS
 70
     8
  9
$SURFTAB1
 70
     6
  9
$SURFTAB2
 70
     6
  9
$SURFTYPE
 70
     6
  9
$SURFU
 70
     6
  9
$SURFV
 70
     6
  9
$UCSNAME
  2

  9
$UCSORG
 10
0.0
 20
0.0
 30
0.0
  9
$UCSXDIR
 10
1.0
 20
0.0
 30
0.0
  9
$UCSYDIR
 10
0.0
 20
1.0
 30
0.0
  9
$PUCSNAME
  2

  9
$PUCSORG
 10
0.0
 20
0.0
 30
0.0
  9
$PUCSXDIR
 10
1.0
 20
0.0
 30
0.0
  9
$PUCSYDIR
 10
0.0
 20
1.0
 30
0.0
  9
$USERI1
 70
     0
  9
$USERI2
 70
     0
  9
$USERI3
 70
     0
  9
$USERI4
 70
     0
  9
$USERI5
 70
     0
  9
$USERR1
 40
20.0
  9
$USERR2
 40
0.0
  9
$USERR3
 40
0.0
  9
$USERR4
 40
0.0
  9
$USERR5
 40
0.0
  9
$WORLDVIEW
 70
     1
  9
$SHADEDGE
 70
     3
  9
$SHADEDIF
 70
    70
  9
$TILEMODE
 70
     1
  9
$MAXACTVP
 70
    48
  9
$PINSBASE
 10
0.0
 20
0.0
 30
0.0
  9
$PLIMCHECK
 70
     0
  9
$PEXTMIN
 10
-100000000000000000000.0
 20
-100000000000000000000.0
 30
-100000000000000000000.0
  9
$PEXTMAX
 10
100000000000000000000.0
 20
100000000000000000000.0
 30
100000000000000000000.0
  9
$PLIMMIN
 10
0.0
 20
0.0
  9
$PLIMMAX
 10
12.0
 20
9.0
  9
$UNITMODE
 70
     0
  9
$VISRETAIN
 70
     0
  9
$PLINEGEN
 70
     0
  9
$PSLTSCALE
 70
     0
  9
$TREEDEPTH
 70
  3020
  9
$ATTDIA
 70
     0
  9
$ATTREQ
 70
     1
  9
$BLIPMODE
 70
     1
  9
$COORDS
 70
     1
  9
$DRAGMODE
 70
     2
  9
$OSMODE
 70
     0
  9
$HANDLING
 70
     0
  9
$HANDSEED
  5
F4BC
  0
ENDSEC
  0
SECTION
  2
TABLES
  0
TABLE
  2
LTYPE
 70
     3
  0
LTYPE
  2
CONTINUOUS
 70
     0
  3
実線
 72
    65
 73
     0
 40
0.0
  0
LTYPE
  2
DASHDOT
 70
     0
  3
____ _ ____ _ ____ _ ____ _ ____ _ ____ _ ____
 72
    65
 73
     4
 40
5.5
 49
4.0
 49
-0.6
 49
0.3
 49
-0.6
  0
LTYPE
  2
DASHED
 70
     0
  3
-- -- -- -- -- -- -- -- -- -- -- -- -- -- --
 72
    65
 73
     2
 40
0.75
 49
0.5
 49
-0.25
  0
ENDTAB
  0
TABLE
  2
LAYER
 70
    12
  0
LAYER
  2
0
 70
     0
 62
     7
  6
CONTINUOUS
  0
LAYER
  2
BASIS
 70
     0
 62
     6
  6
DASHDOT
  0
LAYER
  2
OUTLINE
 70
     0
 62
     3
  6
CONTINUOUS
  0
LAYER
  2
DETAIL
 70
     0
 62
     5
  6
CONTINUOUS
  0
LAYER
  2
SIZE
 70
     0
 62
    30
  6
CONTINUOUS
  0
LAYER
  2
ARRANGE
 70
     0
 62
     1
  6
CONTINUOUS
  0
LAYER
  2
DEFPOINTS
 70
     0
 62
     7
  6
CONTINUOUS
  0
LAYER
  2
ETC
 70
     0
 62
    61
  6
CONTINUOUS
  0
LAYER
  2
FIX
 70
     0
 62
    11
  6
CONTINUOUS
  0
LAYER
  2
NOTE
 70
     0
 62
     4
  6
CONTINUOUS
  0
LAYER
  2
SERVICESPACE
 70
    64
 62
     2
  6
DASHDOT
  0
LAYER
  2
SYMBOLLINE
 70
    64
 62
    15
  6
CONTINUOUS
  0
ENDTAB
  0
TABLE
  2
STYLE
 70
     1
  0
STYLE
  2
STANDARD
 70
     0
 40
64.0
 41
0.9
 50
0.0
 71
     0
 42
64.0
  3
SIMPLEX.shx
  4
BIGFONT.shx
  0
ENDTAB
  0
TABLE
  2
APPID
 70
    17
  0
APPID
  2
ACAD
 70
     0
  0
APPID
  2
AUTOCAD_POSTSCRIPT_FIGURE
 70
     0
  0
APPID
  2
ACAD_EXEMPT_FROM_CAD_STANDARDS
 70
     0
  0
APPID
  2
ACAD_PSEXT
 70
     0
  0
APPID
  2
ACAUTHENVIRON
 70
     0
  0
APPID
  2
GENIUS_GENOENT_13
 70
     0
  0
APPID
  2
GENIUS_GENCFG_13
 70
     0
  0
APPID
  2
GENIUS_GENCFG0_13
 70
     0
  0
APPID
  2
GENIUS_GENCFG1_13
 70
     0
  0
APPID
  2
GENIUS_GENCFG2_13
 70
     0
  0
APPID
  2
GENIUS_GENCFG3_13
 70
     0
  0
APPID
  2
GENIUS_GENCFG4_13
 70
     0
  0
APPID
  2
GENIUS_GEVCFG0_13
 70
     0
  0
APPID
  2
CONTENTBLOCKICON
 70
     0
  0
APPID
  2
CONTENTBLOCKDESCRIPTION
 70
     0
  0
APPID
  2
ACAD_NAV_VCDISPLAY
 70
     0
  0
APPID
  2
ACAD_MLEADERVER
 70
     0
  0
ENDTAB
  0
TABLE
  2
DIMSTYLE
 70
     1
  0
DIMSTYLE
  2
STANDARD
 70
     0
  3

  4

  5
_ORIGIN
  6

  7

 40
1.0
 41
12.0
 42
20.0
 43
200.0
 44
20.0
 45
0.0
 46
0.0
 47
0.0
 48
0.0
140
64.0
141
0.09
142
0.0
143
25.399999999999999
144
1.0
145
0.0
146
1.0
147
25.0
 71
     0
 72
     0
 73
     0
 74
     0
 75
     0
 76
     0
 77
     1
 78
     8
170
     0
171
     2
172
     1
173
     0
174
     1
175
     0
176
     7
177
     7
178
     7
  0
ENDTAB
  0
TABLE
  2
VIEW
 70
     1
  0
VIEW
  2
ALL
 70
     0
 40
4282.6198079999986
 10
0.0
 20
41.309904000000003
 41
5940.0
 11
0.0
 21
0.0
 31
1.0
 12
0.0
 22
0.0
 32
0.0
 42
50.0
 43
0.0
 44
0.0
 50
0.0
 71
     0
  0
ENDTAB
  0
TABLE
  2
UCS
 70
     0
  0
ENDTAB
  0
TABLE
  2
VPORT
 70
     1
  0
VPORT
  2
*ACTIVE
 70
     0
 10
0.0
 20
0.0
 11
1.0
 21
1.0
 12
1052.285233350467
 22
-150.96180130211721
 13
0.0
 23
0.0
 14
1.0
 24
1.0
 15
0.0
 25
0.0
 16
0.0
 26
0.0
 36
1.0
 17
0.0
 27
0.0
 37
0.0
 40
2200.997542643825
 41
2.0223642172523961
 42
50.0
 43
0.0
 44
0.0
 50
0.0
 51
0.0
 71
     0
 72
  1000
 73
     1
 74
     3
 75
     0
 76
     0
 77
     0
 78
     0
  0
ENDTAB
  0
ENDSEC
  0
SECTION
  2
BLOCKS
  0
BLOCK
  8
0
  2
_ORIGIN
 70
     0
 10
0.0
 20
0.0
 30
0.0
  3
_ORIGIN
  1
_ORIGIN
  0
CIRCLE
  8
0
  6
CONTINUOUS
 62
     7
 10
0.0
 20
0.0
 30
0.0
 40
0.5
  0
LINE
  8
0
  6
CONTINUOUS
 62
     7
 10
0.0
 20
0.0
 30
0.0
 11
-1.0
 21
0.0
 31
0.0
  0
ENDBLK
  8
0
  0
ENDSEC
  0
SECTION
  2
ENTITIES
  0
TEXT
  8
ETC
  6
CONTINUOUS
 62
    61
 10
359.08567053008272
 20
495.18741028528922
 30
0.0
 40
60.0
  1
BFS-15SG2_5
 41
0.9
  0
TEXT
  8
ETC
  6
CONTINUOUS
 62
    61
 10
352.95834303008269
 20
401.06872778528901
 30
0.0
 40
60.0
  1
産業扇
 41
0.9
  0
TEXT
  8
ETC
  6
CONTINUOUS
 62
    61
 10
407.70944466500328
 20
330.49528538582541
 30
0.0
 40
40.0
  1
BFS-15SG2
 41
0.9
  0
CIRCLE
  8
ARRANGE
  6
CONTINUOUS
 62
     1
 10
0.0
 20
0.0
 30
0.0
 40
44.210526000000002
  0
POINT
  8
ARRANGE
  6
CONTINUOUS
 62
     1
 10
0.0
 20
0.0
 30
0.0
  0
LINE
  8
SIZE
  6
CONTINUOUS
 62
    30
 10
167.5
 20
-243.38885200000001
 30
0.0
 11
167.5
 21
-534.76018099999999
 31
0.0
  0
LINE
  8
SIZE
  6
CONTINUOUS
 62
    30
 10
-167.5
 20
-242.778378
 30
0.0
 11
-167.5
 21
-534.76018099999999
 31
0.0
  0
LINE
  8
SIZE
  6
CONTINUOUS
 62
    30
 10
165.5
 20
-504.76018099999987
 30
0.0
 11
-190.5
 21
-504.76018099999987
 31
0.0
  0
CIRCLE
  8
SIZE
  6
CONTINUOUS
 62
    30
 10
167.5
 20
-504.76018099999987
 30
0.0
 40
6.0
  0
CIRCLE
  8
SIZE
  6
CONTINUOUS
 62
    30
 10
-167.5
 20
-504.76018099999987
 30
0.0
 40
6.0
  0
TEXT
  8
SIZE
  6
CONTINUOUS
 62
    30
 10
-80.30714285714285
 20
-484.76018099999987
 30
0.0
 40
64.0
  1
335
 41
0.9
 72
     1
 11
-6.25
 21
-484.76018099999987
 31
0.0
  0
POINT
  8
DEFPOINTS
  6
CONTINUOUS
 62
    30
 10
167.5
 20
-223.38885200000001
 30
0.0
  0
POINT
  8
DEFPOINTS
  6
CONTINUOUS
 62
    30
 10
-192.5
 20
-504.76018099999987
 30
0.0
  0
LINE
  8
SIZE
  6
CONTINUOUS
 62
    30
 10
-167.5
 20
-234.67262000000011
 30
0.0
 11
-167.5
 21
-534.76018099999999
 31
0.0
  0
LINE
  8
SIZE
  6
CONTINUOUS
 62
    30
 10
-227.5
 20
-179.714572
 30
0.0
 11
-227.5
 21
-534.76018099999999
 31
0.0
  0
LINE
  8
SIZE
  6
CONTINUOUS
 62
    30
 10
-194.5
 20
-504.76018099999987
 30
0.0
 11
-250.5
 21
-504.76018099999987
 31
0.0
  0
LINE
  8
SIZE
  6
CONTINUOUS
 62
    30
 10
-484.62332900000001
 20
-504.76018099999987
 30
0.0
 11
-227.5
 21
-504.76018099999987
 31
0.0
  0
TEXT
  8
SIZE
  6
CONTINUOUS
 62
    30
 10
-464.62332842857143
 20
-484.76018099999987
 30
0.0
 40
64.0
  1
60
 41
0.9
 72
     1
 11
-417.99475699999988
 21
-484.76018099999987
 31
0.0
  0
CIRCLE
  8
SIZE
  6
CONTINUOUS
 62
    30
 10
-167.5
 20
-504.76018099999987
 30
0.0
 40
6.0
  0
CIRCLE
  8
SIZE
  6
CONTINUOUS
 62
    30
 10
-227.5
 20
-504.76018099999987
 30
0.0
 40
6.0
  0
POINT
  8
DEFPOINTS
  6
CONTINUOUS
 62
    30
 10
-227.5
 20
-159.714572
 30
0.0
  0
POINT
  8
DEFPOINTS
  6
CONTINUOUS
 62
    30
 10
-252.5
 20
-504.76018099999987
 30
0.0
  0
LINE
  8
DETAIL
  6
CONTINUOUS
 62
     5
 10
-167.5
 20
-2.190143000000035
 30
0.0
 11
-167.5
 21
-222.778378
 31
0.0
  0
LINE
  8
DETAIL
  6
CONTINUOUS
 62
     5
 10
125.5
 20
-0.7145719999999756
 30
0.0
 11
125.5
 21
-220.714572
 31
0.0
  0
LINE
  8
SIZE
  6
CONTINUOUS
 62
    30
 10
167.5
 20
-234.893551
 30
0.0
 11
167.5
 21
-534.76018099999999
 31
0.0
  0
LINE
  8
SIZE
  6
CONTINUOUS
 62
    30
 10
227.5
 20
-169.081346
 30
0.0
 11
227.5
 21
-534.76018099999999
 31
0.0
  0
LINE
  8
SIZE
  6
CONTINUOUS
 62
    30
 10
169.5
 20
-504.76018099999987
 30
0.0
 11
225.5
 21
-504.76018099999987
 31
0.0
  0
LINE
  8
SIZE
  6
CONTINUOUS
 62
    30
 10
457.09537799999998
 20
-504.76018099999987
 30
0.0
 11
227.5
 21
-504.76018099999987
 31
0.0
  0
TEXT
  8
SIZE
  6
CONTINUOUS
 62
    30
 10
343.83823457142847
 20
-484.76018099999987
 30
0.0
 40
64.0
  1
60
 41
0.9
 72
     1
 11
390.46680599999991
 21
-484.76018099999987
 31
0.0
  0
CIRCLE
  8
SIZE
  6
CONTINUOUS
 62
    30
 10
167.5
 20
-504.76018099999987
 30
0.0
 40
6.0
  0
CIRCLE
  8
SIZE
  6
CONTINUOUS
 62
    30
 10
227.5
 20
-504.76018099999987
 30
0.0
 40
6.0
  0
POINT
  8
DEFPOINTS
  6
CONTINUOUS
 62
    30
 10
167.5
 20
-214.893551
 30
0.0
  0
POINT
  8
DEFPOINTS
  6
CONTINUOUS
 62
    30
 10
227.5
 20
-149.081346
 30
0.0
  0
POINT
  8
DEFPOINTS
  6
CONTINUOUS
 62
    30
 10
227.5
 20
-504.76018099999987
 30
0.0
  0
LINE
  8
DETAIL
  6
CONTINUOUS
 62
     5
 10
-108.5
 20
-0.7145719999999756
 30
0.0
 11
-108.5
 21
-220.714572
 31
0.0
  0
LINE
  8
DETAIL
  6
CONTINUOUS
 62
     5
 10
-108.5
 20
-220.714572
 30
0.0
 11
125.5
 21
-220.714572
 31
0.0
  0
LINE
  8
DETAIL
  6
CONTINUOUS
 62
     5
 10
-108.5
 20
-0.7145719999999756
 30
0.0
 11
125.5
 21
-0.7145719999999756
 31
0.0
  0
ARC
  8
DETAIL
  6
CONTINUOUS
 62
     5
 10
106.98863200000009
 20
-116.565832
 30
0.0
 40
8.8783539999999999
 50
0.0
 51
45.000000000008058
  0
ARC
  8
DETAIL
  6
CONTINUOUS
 62
     5
 10
-1.238503999999921
 20
-114.641772
 30
0.0
 40
2.6635059999999999
 50
107.4810360000086
 51
180.0
  0
LINE
  8
DETAIL
  6
CONTINUOUS
 62
     5
 10
-0.8389779999999973
 20
-99.570765999999992
 30
0.0
 11
-0.8389779999999973
 21
-152.67030500000001
 31
0.0
  0
LINE
  8
DETAIL
  6
CONTINUOUS
 62
     5
 10
-3.902010000000018
 20
-151.04302300000001
 30
0.0
 11
-3.902010000000018
 21
-109.314759
 31
0.0
  0
LINE
  8
DETAIL
  6
CONTINUOUS
 62
     5
 10
-1.238503999999921
 20
-151.04302300000001
 30
0.0
 11
-1.238503999999921
 21
-109.314759
 31
0.0
  0
LINE
  8
DETAIL
  6
CONTINUOUS
 62
     5
 10
125.1892579999999
 20
-93.355917999999974
 30
0.0
 11
125.1892579999999
 21
-175.88021900000001
 31
0.0
  0
LINE
  8
DETAIL
  6
CONTINUOUS
 62
     5
 10
-10.338816999999841
 20
-84.455368000000021
 30
0.0
 11
-10.338816999999841
 21
-182.11726200000001
 31
0.0
  0
LINE
  8
DETAIL
  6
CONTINUOUS
 62
     5
 10
25.03444200000013
 20
-178.54372499999999
 30
0.0
 11
106.98863200000009
 21
-178.54372499999999
 31
0.0
  0
LINE
  8
DETAIL
  6
CONTINUOUS
 62
     5
 10
19.95385099999999
 20
-187.422079
 30
0.0
 11
113.647397
 21
-187.422079
 31
0.0
  0
LINE
  8
DETAIL
  6
CONTINUOUS
 62
     5
 10
121.060823
 20
-194.99087599999999
 30
0.0
 11
-5.8996400000000904
 21
-194.99087599999999
 31
0.0
  0
LINE
  8
DETAIL
  6
CONTINUOUS
 62
     5
 10
-0.8389779999999973
 20
-115.08569
 30
0.0
 11
-1.238503999999921
 21
-115.08569
 31
0.0
  0
LINE
  8
DETAIL
  6
CONTINUOUS
 62
     5
 10
-1.238503999999921
 20
-148.82343499999999
 30
0.0
 11
-0.8389779999999973
 21
-148.82343499999999
 31
0.0
  0
ARC
  8
DETAIL
  6
CONTINUOUS
 62
     5
 10
8.0393759999999475
 20
-152.67030500000001
 30
0.0
 40
8.8783539999999999
 50
180.0
 51
225.0000000000081
  0
ARC
  8
DETAIL
  6
CONTINUOUS
 62
     5
 10
13.697928999999929
 20
-170.884747
 30
0.0
 40
1.775671
 50
184.85717699999771
 51
225.0000000000081
  0
ARC
  8
DETAIL
  6
CONTINUOUS
 62
     5
 10
7.707836000000043
 20
-164.89465300000001
 30
0.0
 40
1.775671
 50
225.0000000000081
 51
265.14282300000849
  0
ARC
  8
DETAIL
  6
CONTINUOUS
 62
     5
 10
7.151540999999952
 20
-171.44104200000001
 30
0.0
 40
4.7943110000000004
 50
4.8571769999976881
 51
85.142823000008519
  0
LINE
  8
DETAIL
  6
CONTINUOUS
 62
     5
 10
-10.161249
 20
-151.930859
 30
0.0
 11
-10.161249
 21
-172.32887700000001
 31
0.0
  0
ARC
  8
DETAIL
  6
CONTINUOUS
 62
     5
 10
-7.4977429999999003
 20
-151.930859
 30
0.0
 40
2.6635059999999999
 50
90.0
 51
180.0
  0
LINE
  8
DETAIL
  6
CONTINUOUS
 62
     5
 10
-7.4977429999999003
 20
-149.26735300000001
 30
0.0
 11
-3.902010000000018
 21
-149.26735300000001
 31
0.0
  0
LINE
  8
DETAIL
  6
CONTINUOUS
 62
     5
 10
-0.8389779999999973
 20
-145.27209300000001
 30
0.0
 11
-1.238503999999921
 21
-145.27209300000001
 31
0.0
  0
LINE
  8
DETAIL
  6
CONTINUOUS
 62
     5
 10
-1.238503999999921
 20
-148.256507
 30
0.0
 11
-3.902010000000018
 21
-148.256507
 31
0.0
  0
LINE
  8
DETAIL
  6
CONTINUOUS
 62
     5
 10
-1.238503999999921
 20
-151.04302300000001
 30
0.0
 11
-3.902010000000018
 21
-151.04302300000001
 31
0.0
  0
ARC
  8
DETAIL
  6
CONTINUOUS
 62
     5
 10
-1.238503999999921
 20
-145.71601100000001
 30
0.0
 40
2.6635059999999999
 50
180.0
 51
252.5189639999914
  0
ARC
  8
DETAIL
  6
DASHED
 62
     5
 10
25.101713000000021
 20
-194.66097300000001
 30
0.0
 40
0.887835
 50
292.20000000000391
 51
338.18682200000518
  0
ARC
  8
DETAIL
  6
CONTINUOUS
 62
     5
 10
19.95385099999999
 20
-181.20723100000001
 30
0.0
 40
6.2148479999999999
 50
209.99999999999719
 51
270.0
  0
ARC
  8
DETAIL
  6
CONTINUOUS
 62
     5
 10
25.03444200000013
 20
-169.66537099999999
 30
0.0
 40
8.8783539999999999
 50
225.0000000000081
 51
270.0
  0
LINE
  8
DETAIL
  6
CONTINUOUS
 62
     5
 10
9.1894179999999324
 20
-181.20723100000001
 30
0.0
 11
-1.282895000000053
 21
-181.20723100000001
 31
0.0
  0
LINE
  8
DETAIL
  6
CONTINUOUS
 62
     5
 10
-10.338816999999841
 20
-188.33211
 30
0.0
 11
-10.338816999999841
 21
-190.55169900000001
 31
0.0
  0
ARC
  8
DETAIL
  6
CONTINUOUS
 62
     5
 10
-9.8948989999998958
 20
-183.005098
 30
0.0
 40
0.887835
 50
270.0
 51
90.0
  0
LINE
  8
DETAIL
  6
CONTINUOUS
 62
     5
 10
-10.338816999999841
 20
-182.11726200000001
 30
0.0
 11
-9.8948989999998958
 21
-182.11726200000001
 31
0.0
  0
LINE
  8
DETAIL
  6
CONTINUOUS
 62
     5
 10
-9.8948989999998958
 20
-186.55643900000001
 30
0.0
 11
-9.8948989999998958
 21
-183.892933
 31
0.0
  0
ARC
  8
DETAIL
  6
CONTINUOUS
 62
     5
 10
-9.8948989999998958
 20
-187.444275
 30
0.0
 40
0.887835
 50
270.0
 51
90.0
  0
LINE
  8
DETAIL
  6
CONTINUOUS
 62
     5
 10
-10.338816999999841
 20
-188.33211
 30
0.0
 11
-9.8948989999998958
 21
-188.33211
 31
0.0
  0
ARC
  8
DETAIL
  6
CONTINUOUS
 62
     5
 10
-5.8996400000000904
 20
-190.55169900000001
 30
0.0
 40
4.4391769999999999
 50
180.0
 51
270.0
  0
ARC
  8
DETAIL
  6
CONTINUOUS
 62
     5
 10
9.1894179999999324
 20
-187.422079
 30
0.0
 40
6.2148479999999999
 50
29.999999999997289
 51
90.0
  0
ARC
  8
DETAIL
  6
CONTINUOUS
 62
     5
 10
-1.282895000000053
 20
-172.32887700000001
 30
0.0
 40
8.8783539999999999
 50
180.0
 51
270.0
  0
LINE
  8
DETAIL
  6
CONTINUOUS
 62
     5
 10
18.756497999999969
 20
-175.94331500000001
 30
0.0
 11
1.761432000000013
 21
-158.94825
 31
0.0
  0
LINE
  8
DETAIL
  6
DASHED
 62
     5
 10
125.1892579999999
 20
-165.86987500000001
 30
0.0
 11
125.1892579999999
 21
-157.879356
 31
0.0
  0
LINE
  8
DETAIL
  6
CONTINUOUS
 62
     5
 10
115.866986
 20
-116.565832
 30
0.0
 11
115.866986
 21
-169.66537099999999
 31
0.0
  0
LINE
  8
DETAIL
  6
CONTINUOUS
 62
     5
 10
125.5
 20
-188.33211
 30
0.0
 11
125.5
 21
-190.55169900000001
 31
0.0
  0
ARC
  8
DETAIL
  6
CONTINUOUS
 62
     5
 10
125.0560820000001
 20
-183.005098
 30
0.0
 40
0.887835
 50
90.0
 51
270.0
  0
LINE
  8
DETAIL
  6
CONTINUOUS
 62
     5
 10
125.0560820000001
 20
-186.55643900000001
 30
0.0
 11
125.0560820000001
 21
-183.892933
 31
0.0
  0
ARC
  8
DETAIL
  6
CONTINUOUS
 62
     5
 10
125.0560820000001
 20
-187.444275
 30
0.0
 40
0.887835
 50
90.0
 51
270.0
  0
LINE
  8
DETAIL
  6
CONTINUOUS
 62
     5
 10
125.5
 20
-182.11726200000001
 30
0.0
 11
125.0560820000001
 21
-182.11726200000001
 31
0.0
  0
LINE
  8
DETAIL
  6
CONTINUOUS
 62
     5
 10
125.5
 20
-188.33211
 30
0.0
 11
125.0560820000001
 21
-188.33211
 31
0.0
  0
LINE
  8
DETAIL
  6
CONTINUOUS
 62
     5
 10
125.5
 20
-179.009839
 30
0.0
 11
125.5
 21
-182.11726200000001
 31
0.0
  0
ARC
  8
DETAIL
  6
CONTINUOUS
 62
     5
 10
113.647397
 20
-175.88021900000001
 30
0.0
 40
11.54186
 50
270.0
 51
0.0
  0
ARC
  8
DETAIL
  6
CONTINUOUS
 62
     5
 10
121.060823
 20
-190.55169900000001
 30
0.0
 40
4.4391769999999999
 50
270.0
 51
0.0
  0
ARC
  8
DETAIL
  6
CONTINUOUS
 62
     5
 10
106.98863200000009
 20
-169.66537099999999
 30
0.0
 40
8.8783539999999999
 50
270.0
 51
0.0
  0
LINE
  8
DETAIL
  6
CONTINUOUS
 62
     5
 10
7.5954580000000078
 20
-81.814057999999989
 30
0.0
 11
38.194455999999953
 21
-81.814057999999989
 31
0.0
  0
LINE
  8
DETAIL
  6
CONTINUOUS
 62
     5
 10
8.0393759999999475
 20
-90.69241199999999
 30
0.0
 11
89.993566000000101
 21
-90.69241199999999
 31
0.0
  0
LINE
  8
DETAIL
  6
CONTINUOUS
 62
     5
 10
-5.8996400000000904
 20
-68.03041300000001
 30
0.0
 11
121.060823
 21
-68.03041300000001
 31
0.0
  0
LINE
  8
DETAIL
  6
CONTINUOUS
 62
     5
 10
-10.338816999999841
 20
-78.240520000000004
 30
0.0
 11
-9.8948989999998958
 21
-78.240520000000004
 31
0.0
  0
LINE
  8
DETAIL
  6
CONTINUOUS
 62
     5
 10
-10.338816999999841
 20
-72.469589999999982
 30
0.0
 11
-10.338816999999841
 21
-78.240520000000004
 31
0.0
  0
ARC
  8
DETAIL
  6
CONTINUOUS
 62
     5
 10
-5.8996400000000904
 20
-72.469589999999982
 30
0.0
 40
4.4391769999999999
 50
90.0
 51
180.0
  0
LINE
  8
DETAIL
  6
CONTINUOUS
 62
     5
 10
2.71236399999998
 20
-82.701892999999984
 30
0.0
 11
1.8245280000001001
 21
-81.814057999999989
 31
0.0
  0
LINE
  8
DETAIL
  6
CONTINUOUS
 62
     5
 10
2.71236399999998
 20
-82.701892999999984
 30
0.0
 11
6.7076230000000123
 21
-82.701892999999984
 31
0.0
  0
LINE
  8
DETAIL
  6
CONTINUOUS
 62
     5
 10
7.5954580000000078
 20
-81.814057999999989
 30
0.0
 11
6.7076230000000123
 21
-82.701892999999984
 31
0.0
  0
ARC
  8
DETAIL
  6
CONTINUOUS
 62
     5
 10
8.0393759999999475
 20
-99.570765999999992
 30
0.0
 40
8.8783539999999999
 50
90.0
 51
180.0
  0
LINE
  8
DETAIL
  6
CONTINUOUS
 62
     5
 10
-10.161249
 20
-93.355917999999974
 30
0.0
 11
-10.161249
 21
-108.426924
 31
0.0
  0
LINE
  8
DETAIL
  6
CONTINUOUS
 62
     5
 10
1.380611000000044
 20
-81.814057999999989
 30
0.0
 11
1.8245280000001001
 21
-81.814057999999989
 31
0.0
  0
LINE
  8
DETAIL
  6
CONTINUOUS
 62
     5
 10
-3.902010000000018
 20
-109.314759
 30
0.0
 11
-1.238503999999921
 21
-109.314759
 31
0.0
  0
ARC
  8
DETAIL
  6
CONTINUOUS
 62
     5
 10
-9.8948989999998958
 20
-83.567533000000026
 30
0.0
 40
0.887835
 50
270.0
 51
90.0
  0
LINE
  8
DETAIL
  6
CONTINUOUS
 62
     5
 10
-9.8948989999998958
 20
-80.016190999999992
 30
0.0
 11
-9.8948989999998958
 21
-82.679696999999976
 31
0.0
  0
LINE
  8
DETAIL
  6
CONTINUOUS
 62
     5
 10
-6.3388169999998354
 20
-84.455368000000021
 30
0.0
 11
-5.8948989999998958
 21
-84.455368000000021
 31
0.0
  0
ARC
  8
DETAIL
  6
CONTINUOUS
 62
     5
 10
1.380611000000044
 20
-93.355917999999974
 30
0.0
 40
11.54186
 50
90.0
 51
180.0
  0
ARC
  8
DETAIL
  6
CONTINUOUS
 62
     5
 10
-9.8948989999998958
 20
-79.128355999999997
 30
0.0
 40
0.887835
 50
270.0
 51
90.0
  0
LINE
  8
DETAIL
  6
CONTINUOUS
 62
     5
 10
-1.238503999999921
 20
-111.53434799999999
 30
0.0
 11
-0.8389779999999973
 21
-111.53434799999999
 31
0.0
  0
LINE
  8
DETAIL
  6
CONTINUOUS
 62
     5
 10
-7.4977429999999003
 20
-111.09043
 30
0.0
 11
-3.902010000000018
 21
-111.09043
 31
0.0
  0
LINE
  8
DETAIL
  6
CONTINUOUS
 62
     5
 10
-1.238503999999921
 20
-112.101276
 30
0.0
 11
-3.902010000000018
 21
-112.101276
 31
0.0
  0
ARC
  8
DETAIL
  6
CONTINUOUS
 62
     5
 10
-7.4977429999999003
 20
-108.426924
 30
0.0
 40
2.6635059999999999
 50
180.0
 51
270.0
  0
LINE
  8
DETAIL
  6
CONTINUOUS
 62
     5
 10
125.5
 20
-78.240520000000004
 30
0.0
 11
125.0560820000001
 21
-78.240520000000004
 31
0.0
  0
LINE
  8
DETAIL
  6
CONTINUOUS
 62
     5
 10
125.5
 20
-72.469589999999982
 30
0.0
 11
125.5
 21
-78.240520000000004
 31
0.0
  0
ARC
  8
DETAIL
  6
CONTINUOUS
 62
     5
 10
121.060823
 20
-72.469589999999982
 30
0.0
 40
4.4391769999999999
 50
0.0
 51
90.0
  0
ARC
  8
DETAIL
  6
CONTINUOUS
 62
     5
 10
107.87646700000001
 20
-97.772898999999995
 30
0.0
 40
2.219589
 50
90.0
 51
270.0
  0
LINE
  8
DETAIL
  6
CONTINUOUS
 62
     5
 10
107.87646700000001
 20
-99.99248799999998
 30
0.0
 11
111.7861739999998
 21
-99.99248799999998
 31
0.0
  0
LINE
  8
DETAIL
  6
CONTINUOUS
 62
     5
 10
107.87646700000001
 20
-95.553311000000008
 30
0.0
 11
111.7861739999998
 21
-95.553311000000008
 31
0.0
  0
ARC
  8
DETAIL
  6
CONTINUOUS
 62
     5
 10
105.62317299999999
 20
-98.644483999999977
 30
0.0
 40
1.775671
 50
6.7830770000027627
 51
45.000000000008058
  0
ARC
  8
DETAIL
  6
CONTINUOUS
 62
     5
 10
108.7643029999999
 20
-97.795095000000003
 30
0.0
 40
5.4157960000000003
 50
186.78307700000281
 51
263.21692299999069
  0
LINE
  8
DETAIL
  6
CONTINUOUS
 62
     5
 10
125.5
 20
-84.455368000000021
 30
0.0
 11
125.5
 21
-109.137192
 31
0.0
  0
ARC
  8
DETAIL
  6
CONTINUOUS
 62
     5
 10
125.0560820000001
 20
-83.567533000000026
 30
0.0
 40
0.887835
 50
90.0
 51
270.0
  0
LINE
  8
DETAIL
  6
CONTINUOUS
 62
     5
 10
125.5
 20
-84.455368000000021
 30
0.0
 11
125.0560820000001
 21
-84.455368000000021
 31
0.0
  0
LINE
  8
DETAIL
  6
CONTINUOUS
 62
     5
 10
125.0560820000001
 20
-80.016190999999992
 30
0.0
 11
125.0560820000001
 21
-82.679696999999976
 31
0.0
  0
ARC
  8
DETAIL
  6
CONTINUOUS
 62
     5
 10
113.647397
 20
-93.355917999999974
 30
0.0
 40
11.54186
 50
0.0
 51
90.0
  0
ARC
  8
DETAIL
  6
CONTINUOUS
 62
     5
 10
125.0560820000001
 20
-79.128355999999997
 30
0.0
 40
0.887835
 50
90.0
 51
270.0
  0
LINE
  8
DETAIL
  6
CONTINUOUS
 62
     5
 10
65.127193000000034
 20
-79.572272999999996
 30
0.0
 11
58.912344999999959
 21
-79.572272999999996
 31
0.0
  0
LINE
  8
DETAIL
  6
CONTINUOUS
 62
     5
 10
62.019768999999997
 20
-79.572272999999996
 30
0.0
 11
62.019768999999997
 21
-76.464850000000013
 31
0.0
  0
ARC
  8
DETAIL
  6
CONTINUOUS
 62
     5
 10
89.993566000000101
 20
-99.570765999999992
 30
0.0
 40
8.8783539999999999
 50
45.000000000008058
 51
90.0
  0
LINE
  8
DETAIL
  6
CONTINUOUS
 62
     5
 10
45.72798899999998
 20
-87.141070000000013
 30
0.0
 11
62.596861999999867
 21
-87.141070000000013
 31
0.0
  0
ARC
  8
DETAIL
  6
CONTINUOUS
 62
     5
 10
62.596861999999867
 20
-81.814057999999989
 30
0.0
 40
5.3270119999999999
 50
270.0
 51
340.52877899999822
  0
LINE
  8
DETAIL
  6
CONTINUOUS
 62
     5
 10
62.907603999999992
 20
-82.235779999999977
 30
0.0
 11
61.131933000000117
 21
-82.235779999999977
 31
0.0
  0
LINE
  8
DETAIL
  6
CONTINUOUS
 62
     5
 10
59.800179999999948
 20
-80.904026999999985
 30
0.0
 11
64.239356999999927
 21
-80.904026999999985
 31
0.0
  0
ARC
  8
DETAIL
  6
CONTINUOUS
 62
     5
 10
70.130395000000135
 20
-84.477564000000029
 30
0.0
 40
2.6635059999999999
 50
90.0
 51
160.5287789999982
  0
CIRCLE
  8
DETAIL
  6
CONTINUOUS
 62
     5
 10
62.019768999999997
 20
-79.572272999999996
 30
0.0
 40
4.4391769999999999
  0
CIRCLE
  8
DETAIL
  6
CONTINUOUS
 62
     5
 10
49.590072999999848
 20
-79.572272999999996
 30
0.0
 40
5.0
  0
LINE
  8
DETAIL
  6
CONTINUOUS
 62
     5
 10
48.271706999999878
 20
-78.253903000000037
 30
0.0
 11
50.908439000000037
 21
-80.890643000000011
 31
0.0
  0
LINE
  8
DETAIL
  6
CONTINUOUS
 62
     5
 10
50.908443000000027
 20
-78.253908000000024
 30
0.0
 11
48.271702999999889
 21
-80.890639000000021
 31
0.0
  0
LINE
  8
DETAIL
  6
CONTINUOUS
 62
     5
 10
113.266576
 20
-110.287887
 30
0.0
 11
96.271510999999919
 21
-93.292822000000001
 31
0.0
  0
LINE
  8
DETAIL
  6
CONTINUOUS
 62
     5
 10
70.130395000000135
 20
-81.814057999999989
 30
0.0
 11
113.647397
 21
-81.814057999999989
 31
0.0
  0
ARC
  8
DETAIL
  6
CONTINUOUS
 62
     5
 10
38.194455999999953
 20
-84.477564000000029
 30
0.0
 40
2.6635059999999999
 50
19.47122100000179
 51
90.0
  0
ARC
  8
DETAIL
  6
CONTINUOUS
 62
     5
 10
45.72798899999998
 20
-81.814057999999989
 30
0.0
 40
5.3270119999999999
 50
199.4712210000018
 51
270.0
  0
LINE
  8
DETAIL
  6
CONTINUOUS
 62
     5
 10
-102.61173599999979
 20
-212.48952999999989
 30
0.0
 11
-100.5200260000001
 21
-214.58124699999999
 31
0.0
  0
LINE
  8
DETAIL
  6
CONTINUOUS
 62
     5
 10
-100.52002299999999
 20
-212.48953399999999
 30
0.0
 11
-102.6117389999999
 21
-214.581243
 31
0.0
  0
LINE
  8
DETAIL
  6
CONTINUOUS
 62
     5
 10
-102.7492419999999
 20
-9.7671269999999595
 30
0.0
 11
-100.6575319999999
 21
-11.858842999999981
 31
0.0
  0
LINE
  8
DETAIL
  6
CONTINUOUS
 62
     5
 10
-100.6575290000001
 20
-9.7671299999999519
 30
0.0
 11
-102.749245
 21
-11.85883999999999
 31
0.0
  0
CIRCLE
  8
DETAIL
  6
CONTINUOUS
 62
     5
 10
6.2637049999998453
 20
-171.46323799999999
 30
0.0
 40
5.0
  0
LINE
  8
DETAIL
  6
CONTINUOUS
 62
     5
 10
4.858449999999948
 20
-170.05797799999999
 30
0.0
 11
7.6689609999998538
 21
-172.86849699999999
 31
0.0
  0
LINE
  8
DETAIL
  6
CONTINUOUS
 62
     5
 10
7.6689649999998437
 20
-170.05798300000001
 30
0.0
 11
4.8584459999999581
 21
-172.868493
 31
0.0
  0
CIRCLE
  8
DETAIL
  6
CONTINUOUS
 62
     5
 10
7.4178910000000542
 20
-75.133096000000023
 30
0.0
 40
5.0
  0
LINE
  8
DETAIL
  6
CONTINUOUS
 62
     5
 10
6.0126359999999286
 20
-73.727837000000022
 30
0.0
 11
8.8231470000000627
 21
-76.538356000000022
 31
0.0
  0
LINE
  8
DETAIL
  6
CONTINUOUS
 62
     5
 10
8.8231510000000526
 20
-73.727841000000012
 30
0.0
 11
6.0126319999999396
 21
-76.538351000000034
 31
0.0
  0
CIRCLE
  8
DETAIL
  6
CONTINUOUS
 62
     5
 10
116.26651200000011
 20
-97.772898999999995
 30
0.0
 40
5.0
  0
LINE
  8
DETAIL
  6
CONTINUOUS
 62
     5
 10
114.86125699999999
 20
-96.367639999999994
 30
0.0
 11
117.671767
 21
-99.178158999999994
 31
0.0
  0
LINE
  8
DETAIL
  6
CONTINUOUS
 62
     5
 10
117.67177100000001
 20
-96.367643999999984
 30
0.0
 11
114.86125200000011
 21
-99.178154000000006
 31
0.0
  0
LINE
  8
DETAIL
  6
CONTINUOUS
 62
     5
 10
125.5
 20
-179.009839
 30
0.0
 11
125.5
 21
-109.137192
 31
0.0
  0
LINE
  8
DETAIL
  6
CONTINUOUS
 62
     5
 10
-167.5
 20
0.0
 30
0.0
 11
167.5
 21
0.0
 31
0.0
  0
LINE
  8
DETAIL
  6
CONTINUOUS
 62
     5
 10
-167.5
 20
0.0
 30
0.0
 11
-167.5
 21
-225.0
 31
0.0
  0
LINE
  8
DETAIL
  6
CONTINUOUS
 62
     5
 10
-167.5
 20
-20.825472999999992
 30
0.0
 11
-167.5
 21
-204.33506600000001
 31
0.0
  0
CIRCLE
  8
DETAIL
  6
CONTINUOUS
 62
     5
 10
-139.89232399999989
 20
-113.33698800000001
 30
0.0
 40
5.0
  0
LINE
  8
DETAIL
  6
CONTINUOUS
 62
     5
 10
-133.62879599999999
 20
-104.855716
 30
0.0
 11
-133.62879599999999
 21
-117.838229
 31
0.0
  0
ARC
  8
DETAIL
  6
CONTINUOUS
 62
     5
 10
-161.4417039864573
 20
-110.4771915052947
 30
0.0
 40
7.599094
 50
97.717030999993682
 51
183.29947299999691
  0
ARC
  8
DETAIL
  6
CONTINUOUS
 62
     5
 10
-161.69108498645721
 20
-110.6154675052947
 30
0.0
 40
5.8161149999999999
 50
97.983100000004896
 51
182.85127899999739
  0
CIRCLE
  8
DETAIL
  6
CONTINUOUS
 62
     5
 10
-159.241432
 20
-113.031058
 30
0.0
 40
5.0
  0
CIRCLE
  8
DETAIL
  6
CONTINUOUS
 62
     5
 10
-159.241432
 20
-113.031058
 30
0.0
 40
5.0
  0
LINE
  8
DETAIL
  6
CONTINUOUS
 62
     5
 10
-136.59555399999999
 20
-121.445711
 30
0.0
 11
-165.7601589999999
 21
-121.409676
 31
0.0
  0
LINE
  8
DETAIL
  6
CONTINUOUS
 62
     5
 10
-167.5
 20
-110.904782
 30
0.0
 11
-167.5
 21
-137.75591900000001
 31
0.0
  0
ARC
  8
DETAIL
  6
CONTINUOUS
 62
     5
 10
-162.46103099999999
 20
-117.32551100000001
 30
0.0
 40
5.2502050000000002
 50
196.3080049999991
 51
231.06923999999259
  0
LINE
  8
DETAIL
  6
CONTINUOUS
 62
     5
 10
-167.5
 20
-131.66198700000001
 30
0.0
 11
-169.02820100000011
 21
-131.66198700000001
 31
0.0
  0
LINE
  8
DETAIL
  6
CONTINUOUS
 62
     5
 10
-170.52707199999989
 20
-128.998288
 30
0.0
 11
-169.01995700000001
 21
-129.698125
 31
0.0
  0
LINE
  8
DETAIL
  6
CONTINUOUS
 62
     5
 10
-169.02820100000011
 20
-124.33523700000001
 30
0.0
 11
-170.52707199999989
 21
-124.685632
 31
0.0
  0
LINE
  8
DETAIL
  6
CONTINUOUS
 62
     5
 10
-170.52707199999989
 20
-124.685632
 30
0.0
 11
-170.52707199999989
 21
-128.998288
 31
0.0
  0
LINE
  8
DETAIL
  6
CONTINUOUS
 62
     5
 10
-169.02820100000011
 20
-137.75591900000001
 30
0.0
 11
-169.02820100000011
 21
-110.914556
 31
0.0
  0
ARC
  8
DETAIL
  6
CONTINUOUS
 62
     5
 10
-137.02865
 20
-118.06588000000001
 30
0.0
 40
3.407467
 50
277.30215799999758
 51
3.83075500000075
  0
LINE
  8
DETAIL
  6
CONTINUOUS
 62
     5
 10
-133.62879599999999
 20
-104.855716
 30
0.0
 11
-162.4988330000001
 21
-104.855716
 31
0.0
  0
LINE
  8
DETAIL
  6
CONTINUOUS
 62
     5
 10
-162.4621159999999
 20
-102.94692000000001
 30
0.0
 11
-133.763811
 21
-102.94692000000001
 31
0.0
  0
ARC
  8
DETAIL
  6
CONTINUOUS
 62
     5
 10
-134.77025
 20
-109.441455
 30
0.0
 40
6.5720550000000006
 50
355.5889569999963
 51
81.191116999997462
  0
ARC
  8
DETAIL
  6
CONTINUOUS
 62
     5
 10
-135.19634999999991
 20
-109.76394500000001
 30
0.0
 40
5.152469
 50
357.96487599999767
 51
72.287943000000553
  0
LINE
  8
DETAIL
  6
CONTINUOUS
 62
     5
 10
167.5
 20
-6.9160130000000208
 30
0.0
 11
167.5
 21
-214.893551
 31
0.0
  0
ARC
  8
DETAIL
  6
CONTINUOUS
 62
     5
 10
161.6910849999999
 20
-110.615467
 30
0.0
 40
5.8161149999999999
 50
357.14872100000258
 51
82.016900000008363
  0
ARC
  8
DETAIL
  6
CONTINUOUS
 62
     5
 10
161.4417040000001
 20
-110.477191
 30
0.0
 40
7.599094
 50
356.70052700000309
 51
82.28296900000629
  0
LINE
  8
DETAIL
  6
CONTINUOUS
 62
     5
 10
133.62879599999999
 20
-104.855716
 30
0.0
 11
133.62879599999999
 21
-117.838229
 31
0.0
  0
CIRCLE
  8
DETAIL
  6
CONTINUOUS
 62
     5
 10
139.89232399999989
 20
-113.33698800000001
 30
0.0
 40
5.0
  0
CIRCLE
  8
DETAIL
  6
CONTINUOUS
 62
     5
 10
159.241432
 20
-113.031058
 30
0.0
 40
5.0
  0
CIRCLE
  8
DETAIL
  6
CONTINUOUS
 62
     5
 10
159.241432
 20
-113.031058
 30
0.0
 40
5.0
  0
LINE
  8
DETAIL
  6
CONTINUOUS
 62
     5
 10
136.59555399999999
 20
-121.445711
 30
0.0
 11
165.7601589999999
 21
-121.409676
 31
0.0
  0
ARC
  8
DETAIL
  6
CONTINUOUS
 62
     5
 10
137.02865
 20
-118.06588000000001
 30
0.0
 40
3.407467
 50
176.16924499999931
 51
262.69784200000242
  0
LINE
  8
DETAIL
  6
CONTINUOUS
 62
     5
 10
169.02820100000011
 20
-124.33523700000001
 30
0.0
 11
170.52707199999989
 21
-124.685632
 31
0.0
  0
LINE
  8
DETAIL
  6
CONTINUOUS
 62
     5
 10
170.52707199999989
 20
-124.685632
 30
0.0
 11
170.52707199999989
 21
-128.998288
 31
0.0
  0
ARC
  8
DETAIL
  6
CONTINUOUS
 62
     5
 10
162.46103099999999
 20
-117.32551100000001
 30
0.0
 40
5.2502050000000002
 50
308.93076000000741
 51
343.69199500000082
  0
LINE
  8
DETAIL
  6
CONTINUOUS
 62
     5
 10
169.02820100000011
 20
-137.75591900000001
 30
0.0
 11
169.02820100000011
 21
-110.914556
 31
0.0
  0
LINE
  8
DETAIL
  6
CONTINUOUS
 62
     5
 10
167.5
 20
-110.904782
 30
0.0
 11
167.5
 21
-137.75591900000001
 31
0.0
  0
LINE
  8
DETAIL
  6
CONTINUOUS
 62
     5
 10
167.5
 20
-137.75591900000001
 30
0.0
 11
169.02820100000011
 21
-137.75591900000001
 31
0.0
  0
LINE
  8
DETAIL
  6
CONTINUOUS
 62
     5
 10
167.5
 20
-131.66198700000001
 30
0.0
 11
169.02820100000011
 21
-131.66198700000001
 31
0.0
  0
LINE
  8
DETAIL
  6
CONTINUOUS
 62
     5
 10
170.52707199999989
 20
-128.998288
 30
0.0
 11
169.01995700000001
 21
-129.698125
 31
0.0
  0
LINE
  8
DETAIL
  6
CONTINUOUS
 62
     5
 10
162.4621159999999
 20
-102.94692000000001
 30
0.0
 11
133.763811
 21
-102.94692000000001
 31
0.0
  0
LINE
  8
DETAIL
  6
CONTINUOUS
 62
     5
 10
133.62879599999999
 20
-104.855716
 30
0.0
 11
162.4988330000001
 21
-104.855716
 31
0.0
  0
LINE
  8
DETAIL
  6
CONTINUOUS
 62
     5
 10
130.04713100000001
 20
-109.94692000000001
 30
0.0
 11
128.20326800000001
 21
-109.94692000000001
 31
0.0
  0
ARC
  8
DETAIL
  6
CONTINUOUS
 62
     5
 10
134.77025
 20
-109.441455
 30
0.0
 40
6.5720550000000006
 50
98.808883000002538
 51
184.41104300000359
  0
ARC
  8
DETAIL
  6
CONTINUOUS
 62
     5
 10
135.19634999999991
 20
-109.76394500000001
 30
0.0
 40
5.152469
 50
107.7120569999995
 51
182.03512400000221
  0
LINE
  8
DETAIL
  6
CONTINUOUS
 62
     5
 10
-100.29812799999991
 20
-9.407730000000015
 30
0.0
 11
-103.108647
 21
-12.218240000000041
 31
0.0
  0
LINE
  8
DETAIL
  6
CONTINUOUS
 62
     5
 10
-103.1086420000001
 20
-9.4077250000000276
 30
0.0
 11
-100.2981319999999
 21
-12.218244000000031
 31
0.0
  0
CIRCLE
  8
DETAIL
  6
CONTINUOUS
 62
     5
 10
-101.565881
 20
-10.81298500000003
 30
0.0
 40
5.0
  0
LINE
  8
DETAIL
  6
CONTINUOUS
 62
     5
 10
-100.16062599999989
 20
-214.94064800000001
 30
0.0
 11
-102.9711360000001
 21
-212.13012900000001
 31
0.0
  0
LINE
  8
DETAIL
  6
CONTINUOUS
 62
     5
 10
-100.16062100000001
 20
-212.130133
 30
0.0
 11
-102.9711400000001
 21
-214.94064299999999
 31
0.0
  0
CIRCLE
  8
DETAIL
  6
CONTINUOUS
 62
     5
 10
-101.565881
 20
-213.53538800000001
 30
0.0
 40
5.0
  0
LINE
  8
DETAIL
  6
CONTINUOUS
 62
     5
 10
118.6833000000001
 20
-8.2763159999999516
 30
0.0
 11
115.872781
 21
-11.08682599999997
 31
0.0
  0
LINE
  8
DETAIL
  6
CONTINUOUS
 62
     5
 10
115.87278499999999
 20
-8.2763109999999642
 30
0.0
 11
118.683295
 21
-11.086830999999959
 31
0.0
  0
CIRCLE
  8
DETAIL
  6
CONTINUOUS
 62
     5
 10
117.2780400000001
 20
-9.6815709999999626
 30
0.0
 40
5.0
  0
LINE
  8
DETAIL
  6
CONTINUOUS
 62
     5
 10
118.393108
 20
-212.295672
 30
0.0
 11
115.5825890000001
 21
-215.10618199999999
 31
0.0
  0
LINE
  8
DETAIL
  6
CONTINUOUS
 62
     5
 10
115.582594
 20
-212.29566700000001
 30
0.0
 11
118.39310399999999
 21
-215.10618600000001
 31
0.0
  0
CIRCLE
  8
DETAIL
  6
CONTINUOUS
 62
     5
 10
116.9878490000001
 20
-213.70092700000001
 30
0.0
 40
5.0
  0
LINE
  8
DETAIL
  6
CONTINUOUS
 62
     5
 10
167.5
 20
0.0
 30
0.0
 11
167.5
 21
-225.0
 31
0.0
  0
LINE
  8
SIZE
  6
CONTINUOUS
 62
    30
 10
-182.6924427980193
 20
0.0
 30
0.0
 11
-756.81020699999999
 21
0.0
 31
0.0
  0
LINE
  8
SIZE
  6
CONTINUOUS
 62
    30
 10
-176.07576810828871
 20
-225.0
 30
0.0
 11
-756.81020699999999
 21
-225.0
 31
0.0
  0
LINE
  8
SIZE
  6
CONTINUOUS
 62
    30
 10
-726.81020699999999
 20
-2.0
 30
0.0
 11
-726.81020699999999
 21
-223.0
 31
0.0
  0
CIRCLE
  8
SIZE
  6
CONTINUOUS
 62
    30
 10
-726.81020699999999
 20
0.0
 30
0.0
 40
6.0
  0
CIRCLE
  8
SIZE
  6
CONTINUOUS
 62
    30
 10
-726.81020699999999
 20
-225.0
 30
0.0
 40
6.0
  0
TEXT
  8
SIZE
  6
CONTINUOUS
 62
    30
 10
-746.81020699999999
 20
-186.55714285714279
 30
0.0
 40
64.0
  1
225
 50
90.0
 41
0.9
 72
     1
 11
-746.81020699999999
 21
-112.5
 31
0.0
  0
POINT
  8
DEFPOINTS
  6
CONTINUOUS
 62
    30
 10
-207.09079900000009
 20
0.0
 30
0.0
  0
POINT
  8
DEFPOINTS
  6
CONTINUOUS
 62
    30
 10
-205.59119400000009
 20
-225.0
 30
0.0
  0
POINT
  8
DEFPOINTS
  6
CONTINUOUS
 62
    30
 10
-726.81020699999999
 20
-225.0
 30
0.0
  0
LINE
  8
SIZE
  6
CONTINUOUS
 62
    30
 10
-247.5
 20
-61.714571999999983
 30
0.0
 11
-493.88225199999988
 21
-61.714571999999983
 31
0.0
  0
LINE
  8
SIZE
  6
CONTINUOUS
 62
    30
 10
-247.5
 20
-159.714572
 30
0.0
 11
-493.88225199999988
 21
-159.714572
 31
0.0
  0
LINE
  8
SIZE
  6
CONTINUOUS
 62
    30
 10
-463.88225199999988
 20
-59.714571999999983
 30
0.0
 11
-463.88225199999988
 21
-57.714571999999983
 31
0.0
  0
LINE
  8
SIZE
  6
CONTINUOUS
 62
    30
 10
-463.88225199999988
 20
-161.714572
 30
0.0
 11
-463.88225199999988
 21
-163.714572
 31
0.0
  0
LINE
  8
SIZE
  6
CONTINUOUS
 62
    30
 10
-463.88225199999988
 20
-61.714571999999983
 30
0.0
 11
-463.88225199999988
 21
-413.58316829138312
 31
0.0
  0
CIRCLE
  8
SIZE
  6
CONTINUOUS
 62
    30
 10
-463.88225199999988
 20
-61.714571999999983
 30
0.0
 40
6.0
  0
CIRCLE
  8
SIZE
  6
CONTINUOUS
 62
    30
 10
-463.88225199999988
 20
-159.714572
 30
0.0
 40
6.0
  0
TEXT
  8
SIZE
  6
CONTINUOUS
 62
    30
 10
-483.88225199999988
 20
-406.70398037531629
 30
0.0
 40
64.0
  1
φ98
 50
90.0
 41
0.9
 72
     1
 11
-483.88225199999988
 21
-319.75540894674492
 31
0.0
  0
POINT
  8
DEFPOINTS
  6
CONTINUOUS
 62
    30
 10
-227.5
 20
-61.714571999999983
 30
0.0
  0
POINT
  8
DEFPOINTS
  6
CONTINUOUS
 62
    30
 10
-227.5
 20
-159.714572
 30
0.0
  0
POINT
  8
DEFPOINTS
  6
CONTINUOUS
 62
    30
 10
-463.88225199999988
 20
-159.714572
 30
0.0
  0
LINE
  8
SIZE
  6
CONTINUOUS
 62
    30
 10
-187.5
 20
-55.714571999999983
 30
0.0
 11
-628.95336100000009
 21
-55.714571999999983
 31
0.0
  0
LINE
  8
SIZE
  6
CONTINUOUS
 62
    30
 10
-187.5
 20
-165.714572
 30
0.0
 11
-628.95336100000009
 21
-165.714572
 31
0.0
  0
LINE
  8
SIZE
  6
CONTINUOUS
 62
    30
 10
-598.95336100000009
 20
-53.714571999999983
 30
0.0
 11
-598.95336100000009
 21
-51.714571999999983
 31
0.0
  0
LINE
  8
SIZE
  6
CONTINUOUS
 62
    30
 10
-598.95336100000009
 20
-167.714572
 30
0.0
 11
-598.95336100000009
 21
-169.714572
 31
0.0
  0
LINE
  8
SIZE
  6
CONTINUOUS
 62
    30
 10
-598.95336100000009
 20
-55.714571999999983
 30
0.0
 11
-598.95336100000009
 21
-445.16165603773061
 31
0.0
  0
CIRCLE
  8
SIZE
  6
CONTINUOUS
 62
    30
 10
-598.95336100000009
 20
-55.714571999999983
 30
0.0
 40
6.0
  0
CIRCLE
  8
SIZE
  6
CONTINUOUS
 62
    30
 10
-598.95336100000009
 20
-165.714572
 30
0.0
 40
6.0
  0
TEXT
  8
SIZE
  6
CONTINUOUS
 62
    30
 10
-618.95336100000009
 20
-434.34950837272271
 30
0.0
 40
64.0
  1
φ110
 50
90.0
 41
0.9
 72
     1
 11
-618.95336100000009
 21
-330.94379408700843
 31
0.0
  0
POINT
  8
DEFPOINTS
  6
CONTINUOUS
 62
    30
 10
-192.5
 20
-55.714571999999983
 30
0.0
  0
POINT
  8
DEFPOINTS
  6
CONTINUOUS
 62
    30
 10
-167.5
 20
-165.714572
 30
0.0
  0
POINT
  8
DEFPOINTS
  6
CONTINUOUS
 62
    30
 10
-598.95336100000009
 20
-165.714572
 30
0.0
  0
LINE
  8
SIZE
  6
CONTINUOUS
 62
    30
 10
125.5
 20
-240.714572
 30
0.0
 11
125.5
 21
-371.20450599999998
 31
0.0
  0
LINE
  8
SIZE
  6
CONTINUOUS
 62
    30
 10
167.5
 20
-234.893551
 30
0.0
 11
167.5
 21
-371.20450599999998
 31
0.0
  0
LINE
  8
SIZE
  6
CONTINUOUS
 62
    30
 10
123.5
 20
-341.20450599999998
 30
0.0
 11
121.5
 21
-341.20450599999998
 31
0.0
  0
LINE
  8
SIZE
  6
CONTINUOUS
 62
    30
 10
169.5
 20
-341.20450599999998
 30
0.0
 11
171.5
 21
-341.20450599999998
 31
0.0
  0
LINE
  8
SIZE
  6
CONTINUOUS
 62
    30
 10
387.72114900000003
 20
-341.20450599999998
 30
0.0
 11
167.5
 21
-341.20450599999998
 31
0.0
  0
TEXT
  8
SIZE
  6
CONTINUOUS
 62
    30
 10
274.46400657142829
 20
-321.20450599999998
 30
0.0
 40
64.0
  1
42
 41
0.9
 72
     1
 11
321.09257799999978
 21
-321.20450599999998
 31
0.0
  0
LINE
  8
SIZE
  6
CONTINUOUS
 62
    30
 10
125.5
 20
-341.20450599999998
 30
0.0
 11
167.5
 21
-341.20450599999998
 31
0.0
  0
LINE
  8
SIZE
  6
CONTINUOUS
 62
    30
 10
125.5
 20
-341.20450599999998
 30
0.0
 11
167.5
 21
-341.20450599999998
 31
0.0
  0
CIRCLE
  8
SIZE
  6
CONTINUOUS
 62
    30
 10
125.5
 20
-341.20450599999998
 30
0.0
 40
6.0
  0
CIRCLE
  8
SIZE
  6
CONTINUOUS
 62
    30
 10
167.5
 20
-341.20450599999998
 30
0.0
 40
6.0
  0
POINT
  8
DEFPOINTS
  6
CONTINUOUS
 62
    30
 10
125.5
 20
-220.714572
 30
0.0
  0
POINT
  8
DEFPOINTS
  6
CONTINUOUS
 62
    30
 10
167.5
 20
-214.893551
 30
0.0
  0
POINT
  8
DEFPOINTS
  6
CONTINUOUS
 62
    30
 10
167.5
 20
-341.20450599999998
 30
0.0
  0
LINE
  8
SIZE
  6
CONTINUOUS
 62
    30
 10
125.5
 20
-240.714572
 30
0.0
 11
125.5
 21
-371.24679800000001
 31
0.0
  0
LINE
  8
SIZE
  6
CONTINUOUS
 62
    30
 10
-108.5
 20
-240.714572
 30
0.0
 11
-108.5
 21
-371.24679800000001
 31
0.0
  0
LINE
  8
SIZE
  6
CONTINUOUS
 62
    30
 10
123.5
 20
-341.24679800000001
 30
0.0
 11
-106.5
 21
-341.24679800000001
 31
0.0
  0
CIRCLE
  8
SIZE
  6
CONTINUOUS
 62
    30
 10
125.5
 20
-341.24679800000001
 30
0.0
 40
6.0
  0
CIRCLE
  8
SIZE
  6
CONTINUOUS
 62
    30
 10
-108.5
 20
-341.24679800000001
 30
0.0
 40
6.0
  0
TEXT
  8
SIZE
  6
CONTINUOUS
 62
    30
 10
-66.928571428571416
 20
-321.24679800000001
 30
0.0
 40
64.0
  1
234
 41
0.9
 72
     1
 11
8.5
 21
-321.24679800000001
 31
0.0
  0
POINT
  8
DEFPOINTS
  6
CONTINUOUS
 62
    30
 10
125.5
 20
-220.714572
 30
0.0
  0
POINT
  8
DEFPOINTS
  6
CONTINUOUS
 62
    30
 10
-108.5
 20
-220.714572
 30
0.0
  0
POINT
  8
DEFPOINTS
  6
CONTINUOUS
 62
    30
 10
-108.5
 20
-341.24679800000001
 30
0.0
  0
LINE
  8
DETAIL
  6
CONTINUOUS
 62
     5
 10
-128.21766100000011
 20
-109.94692000000001
 30
0.0
 11
-130.04713100000001
 21
-109.94692000000001
 31
0.0
  0
LINE
  8
DETAIL
  6
CONTINUOUS
 62
     5
 10
-167.5
 20
-225.0
 30
0.0
 11
167.5
 21
-225.0
 31
0.0
  0
LINE
  8
BASIS
  6
DASHDOT
 62
     6
 10
-389.13753600000001
 20
-110.714572
 30
0.0
 11
414.13753600000018
 21
-110.714572
 31
0.0
  0
LINE
  8
DETAIL
  6
CONTINUOUS
 62
     5
 10
-169.02820100000011
 20
-137.75591900000001
 30
0.0
 11
-167.5
 21
-137.75591900000001
 31
0.0
  0
LINE
  8
DETAIL
  6
CONTINUOUS
 62
     5
 10
-170.49994899999999
 20
-55.971711000000028
 30
0.0
 11
-170.47811999999999
 21
-165.459305
 31
0.0
  0
LINE
  8
DETAIL
  6
CONTINUOUS
 62
     5
 10
-227.5
 20
-159.714572
 30
0.0
 11
-227.5
 21
-61.714571999999983
 31
0.0
  0
LINE
  8
DETAIL
  6
CONTINUOUS
 62
     5
 10
-223.85736399999999
 20
-160.02679800000001
 30
0.0
 11
-224.00194500000001
 21
-61.414738999999997
 31
0.0
  0
LINE
  8
DETAIL
  6
CONTINUOUS
 62
     5
 10
-227.5
 20
-159.714572
 30
0.0
 11
-167.5
 21
-165.714572
 31
0.0
  0
LINE
  8
DETAIL
  6
CONTINUOUS
 62
     5
 10
-167.5
 20
-55.714571999999983
 30
0.0
 11
-227.5
 21
-61.714571999999983
 31
0.0
  0
LINE
  8
DETAIL
  6
CONTINUOUS
 62
     5
 10
170.49994899999999
 20
-165.45743400000001
 30
0.0
 11
170.47811999999999
 21
-55.969839999999976
 31
0.0
  0
LINE
  8
DETAIL
  6
CONTINUOUS
 62
     5
 10
227.5
 20
-61.714571999999983
 30
0.0
 11
227.5
 21
-159.714572
 31
0.0
  0
LINE
  8
DETAIL
  6
CONTINUOUS
 62
     5
 10
223.85736399999999
 20
-61.402345999999973
 30
0.0
 11
224.00194500000001
 21
-160.01440600000001
 31
0.0
  0
LINE
  8
DETAIL
  6
CONTINUOUS
 62
     5
 10
227.5
 20
-61.714571999999983
 30
0.0
 11
167.5
 21
-55.714571999999983
 31
0.0
  0
LINE
  8
DETAIL
  6
CONTINUOUS
 62
     5
 10
167.5
 20
-165.714572
 30
0.0
 11
227.5
 21
-159.714572
 31
0.0
  0
LINE
  8
OUTLINE
  6
CONTINUOUS
 62
     3
 10
-167.5
 20
0.0
 30
0.0
 11
167.5
 21
0.0
 31
0.0
  0
LINE
  8
OUTLINE
  6
CONTINUOUS
 62
     3
 10
-167.5
 20
-225.0
 30
0.0
 11
167.5
 21
-225.0
 31
0.0
  0
LINE
  8
OUTLINE
  6
CONTINUOUS
 62
     3
 10
-167.5
 20
-2.190143000000035
 30
0.0
 11
-167.5
 21
-222.778378
 31
0.0
  0
LINE
  8
OUTLINE
  6
CONTINUOUS
 62
     3
 10
-167.5
 20
0.0
 30
0.0
 11
-167.5
 21
-225.0
 31
0.0
  0
LINE
  8
OUTLINE
  6
CONTINUOUS
 62
     3
 10
-167.5
 20
-20.825472999999992
 30
0.0
 11
-167.5
 21
-204.33506600000001
 31
0.0
  0
LINE
  8
OUTLINE
  6
CONTINUOUS
 62
     3
 10
-167.5
 20
-110.904782
 30
0.0
 11
-167.5
 21
-137.75591900000001
 31
0.0
  0
LINE
  8
OUTLINE
  6
CONTINUOUS
 62
     3
 10
167.5
 20
0.0
 30
0.0
 11
167.5
 21
-225.0
 31
0.0
  0
LINE
  8
OUTLINE
  6
CONTINUOUS
 62
     3
 10
167.5
 20
-6.9160130000000208
 30
0.0
 11
167.5
 21
-214.893551
 31
0.0
  0
LINE
  8
OUTLINE
  6
CONTINUOUS
 62
     3
 10
167.5
 20
-110.904782
 30
0.0
 11
167.5
 21
-137.75591900000001
 31
0.0
  0
LINE
  8
NOTE
  6
CONTINUOUS
 62
     4
 10
50.908443000000027
 20
-78.253908000000024
 30
0.0
 11
351.59853600000002
 21
206.97201899999999
 31
0.0
  0
LINE
  8
NOTE
  6
CONTINUOUS
 62
     4
 10
827.16627163938574
 20
206.97201899999999
 30
0.0
 11
351.59853600000002
 21
206.97201899999999
 31
0.0
  0
TEXT
  8
NOTE
  6
CONTINUOUS
 62
     4
 10
366.31361505177478
 20
221.12866399999999
 30
0.0
 40
64.0
  1
M4ア－スねじ
 41
0.9
  0
LINE
  8
NOTE
  6
CONTINUOUS
 62
     4
 10
86.267829361126388
 20
-59.553272777372769
 30
0.0
 11
50.908443000000027
 21
-78.253908000000024
 31
0.0
  0
LINE
  8
NOTE
  6
CONTINUOUS
 62
     4
 10
50.908443000000027
 20
-78.253908000000024
 30
0.0
 11
72.18025203800255
 21
-44.378988803622519
 31
0.0
  0
LINE
  8
NOTE
  6
CONTINUOUS
 62
     4
 10
89.993566000000101
 20
-90.69241199999999
 30
0.0
 11
288.5438650000001
 21
88.761170188666028
 31
0.0
  0
LINE
  8
NOTE
  6
CONTINUOUS
 62
     4
 10
288.5438650000001
 20
88.761170188666028
 30
0.0
 11
705.05685463450573
 21
88.761170188666028
 31
0.0
  0
TEXT
  8
NOTE
  6
CONTINUOUS
 62
     4
 10
368.13089631515868
 20
99.146067114131256
 30
0.0
 40
64.0
  1
端子カバ－
 41
0.9
  0
LINE
  8
NOTE
  6
CONTINUOUS
 62
     4
 10
111.4613991137433
 20
-56.941380728242628
 30
0.0
 11
89.993566000000101
 21
-90.69241199999999
 31
0.0
  0
LINE
  8
NOTE
  6
CONTINUOUS
 62
     4
 10
89.993566000000101
 20
-90.69241199999999
 30
0.0
 11
125.46077125872461
 21
-72.197077971301582
 31
0.0
  0
LINE
  8
NOTE
  6
CONTINUOUS
 62
     4
 10
-150.0
 20
-102.88078
 30
0.0
 11
-285.97235599999999
 21
55.207334999999937
 31
0.0
  0
LINE
  8
NOTE
  6
CONTINUOUS
 62
     4
 10
-285.97235599999999
 20
55.207334999999937
 30
0.0
 11
-418.36769399999997
 21
55.207343000000037
 31
0.0
  0
TEXT
  8
NOTE
  6
CONTINUOUS
 62
     4
 10
-412.27305500000011
 20
74.234886999999958
 30
0.0
 40
70.73684200000001
  1
AH
 41
0.9
  0
LINE
  8
NOTE
  6
CONTINUOUS
 62
     4
 10
-166.68376600000011
 20
-61.939089000000017
 30
0.0
 11
-150.0
 21
-102.88078
 31
0.0
  0
LINE
  8
NOTE
  6
CONTINUOUS
 62
     4
 10
-150.0
 20
-102.88078
 30
0.0
 11
-184.91941099999991
 21
-75.766119000000003
 31
0.0
  0
LINE
  8
NOTE
  6
CONTINUOUS
 62
     4
 10
-150.0
 20
-82.880780000000016
 30
0.0
 11
-150.0
 21
-122.88078
 31
0.0
  0
CIRCLE
  8
FIX
  6
CONTINUOUS
 62
    11
 10
-150.0
 20
-102.88078
 30
0.0
 40
5.5
  0
LINE
  8
BASIS
  6
DASHDOT
 62
     6
 39
50.0
 10
0.0
 20
15.0
 30
0.0
 11
0.0
 21
-243.3265312389785
 31
0.0
  0
LINE
  8
NOTE
  6
CONTINUOUS
 62
     4
 10
150.0
 20
-82.880780000000016
 30
0.0
 11
150.0
 21
-122.88078
 31
0.0
  0
CIRCLE
  8
FIX
  6
CONTINUOUS
 62
    11
 10
150.0
 20
-102.88078
 30
0.0
 40
5.5
  0
LINE
  8
SIZE
  6
CONTINUOUS
 62
    30
 10
-150.0
 20
-62.880780000000023
 30
0.0
 11
-150.0
 21
156.1456202871004
 31
0.0
  0
LINE
  8
SIZE
  6
CONTINUOUS
 62
    30
 10
150.0
 20
-62.880780000000023
 30
0.0
 11
150.0
 21
156.1456202871004
 31
0.0
  0
LINE
  8
SIZE
  6
CONTINUOUS
 62
    30
 10
-138.0
 20
136.1456202871004
 30
0.0
 11
138.0
 21
136.1456202871004
 31
0.0
  0
CIRCLE
  8
SIZE
  6
CONTINUOUS
 62
    30
 10
-150.0
 20
136.1456202871004
 30
0.0
 40
6.0
  0
LINE
  8
SIZE
  6
CONTINUOUS
 62
    30
 10
-150.0
 20
136.1456202871004
 30
0.0
 11
-138.0
 21
136.1456202871004
 31
0.0
  0
CIRCLE
  8
SIZE
  6
CONTINUOUS
 62
    30
 10
150.0
 20
136.1456202871004
 30
0.0
 40
6.0
  0
LINE
  8
SIZE
  6
CONTINUOUS
 62
    30
 10
150.0
 20
136.1456202871004
 30
0.0
 11
138.0
 21
136.1456202871004
 31
0.0
  0
TEXT
  8
SIZE
  6
CONTINUOUS
 62
    30
 10
-81.504000000000005
 20
161.1456202871004
 30
0.0
 40
64.0
  1
300
 50
0.0
 41
0.9
 51
0.0
  7
STANDARD
 71
     0
 72
     1
 11
0.0
 21
161.1456202871004
 31
0.0
210
0.0
220
0.0
230
1.0
  0
POINT
  8
DEFPOINTS
  6
CONTINUOUS
 62
    30
 10
-150.0
 20
-82.880780000000016
 30
0.0
  0
POINT
  8
DEFPOINTS
  6
CONTINUOUS
 62
    30
 10
150.0
 20
-82.880780000000016
 30
0.0
  0
POINT
  8
DEFPOINTS
  6
CONTINUOUS
 62
    30
 10
150.0
 20
136.1456202871004
 30
0.0
  0
LINE
  8
SIZE
  6
CONTINUOUS
 62
    30
 10
-170.52707199999989
 20
-104.685632
 30
0.0
 11
-170.52707199999981
 21
269.4771507197247
 31
0.0
  0
LINE
  8
SIZE
  6
CONTINUOUS
 62
    30
 10
170.49181851203619
 20
-104.67739069977129
 30
0.0
 11
170.49181851203619
 21
269.4771507197247
 31
0.0
  0
LINE
  8
SIZE
  6
CONTINUOUS
 62
    30
 10
-158.52707199999981
 20
249.4771507197247
 30
0.0
 11
158.49181851203619
 21
249.4771507197247
 31
0.0
  0
CIRCLE
  8
SIZE
  6
CONTINUOUS
 62
    30
 10
-170.52707199999981
 20
249.4771507197247
 30
0.0
 40
6.0
  0
LINE
  8
SIZE
  6
CONTINUOUS
 62
    30
 10
-170.52707199999981
 20
249.4771507197247
 30
0.0
 11
-158.52707199999981
 21
249.4771507197247
 31
0.0
  0
CIRCLE
  8
SIZE
  6
CONTINUOUS
 62
    30
 10
170.49181851203619
 20
249.4771507197247
 30
0.0
 40
6.0
  0
LINE
  8
SIZE
  6
CONTINUOUS
 62
    30
 10
170.49181851203619
 20
249.4771507197247
 30
0.0
 11
158.49181851203619
 21
249.4771507197247
 31
0.0
  0
TEXT
  8
SIZE
  6
CONTINUOUS
 62
    30
 10
-75.185626743981814
 20
274.4771507197247
 30
0.0
 40
64.0
  1
341
 50
0.0
 41
0.9
 51
0.0
  7
STANDARD
 71
     0
 72
     1
 11
-0.0176267439818218
 21
274.4771507197247
 31
0.0
210
0.0
220
0.0
230
1.0
  0
POINT
  8
DEFPOINTS
  6
CONTINUOUS
 62
    30
 10
-170.52707199999989
 20
-124.685632
 30
0.0
  0
POINT
  8
DEFPOINTS
  6
CONTINUOUS
 62
    30
 10
170.49181851203619
 20
-124.67739069977129
 30
0.0
  0
POINT
  8
DEFPOINTS
  6
CONTINUOUS
 62
    30
 10
170.49181851203619
 20
249.4771507197247
 30
0.0
  0
LINE
  8
SIZE
  6
CONTINUOUS
 62
    30
 10
150.04713094654659
 20
-109.94692023196539
 30
0.0
 11
364.87833015997433
 21
-109.94692023196529
 31
0.0
  0
LINE
  8
SIZE
  6
CONTINUOUS
 62
    30
 10
182.46211600000001
 20
-102.94692000000001
 30
0.0
 11
364.87833015997433
 21
-102.94692000000001
 31
0.0
  0
LINE
  8
SIZE
  6
CONTINUOUS
 62
    30
 10
344.87833015997433
 20
-121.94692023196529
 30
0.0
 11
344.87833015997433
 21
-133.94692023196529
 31
0.0
  0
LINE
  8
SIZE
  6
CONTINUOUS
 62
    30
 10
344.87833015997433
 20
-90.946920000000006
 30
0.0
 11
344.87833015997433
 21
9.5094469999999589
 31
0.0
  0
LINE
  8
SIZE
  6
CONTINUOUS
 62
    30
 10
344.87833015997433
 20
-109.94692023196529
 30
0.0
 11
344.87833015997433
 21
-102.94692000000001
 31
0.0
  0
CIRCLE
  8
SIZE
  6
CONTINUOUS
 62
    30
 10
344.87833015997433
 20
-109.94692023196529
 30
0.0
 40
6.0
  0
LINE
  8
SIZE
  6
CONTINUOUS
 62
    30
 10
344.87833015997433
 20
-109.94692023196529
 30
0.0
 11
344.87833015997433
 21
-121.94692023196529
 31
0.0
  0
CIRCLE
  8
SIZE
  6
CONTINUOUS
 62
    30
 10
344.87833015997433
 20
-102.94692000000001
 30
0.0
 40
6.0
  0
LINE
  8
SIZE
  6
CONTINUOUS
 62
    30
 10
344.87833015997433
 20
-102.94692000000001
 30
0.0
 11
344.87833015997433
 21
-90.946920000000006
 31
0.0
  0
TEXT
  8
SIZE
  6
CONTINUOUS
 62
    30
 10
319.87833015997421
 20
-61.474553000000128
 30
0.0
 40
64.0
  1
7
 50
90.0
 41
0.9
 51
0.0
  7
STANDARD
 71
     0
 72
     1
 11
319.87833015997421
 21
-34.690553000000129
 31
0.0
210
0.0
220
0.0
230
1.0
  0
POINT
  8
DEFPOINTS
  6
CONTINUOUS
 62
    30
 10
130.04713094654659
 20
-109.94692023196539
 30
0.0
  0
POINT
  8
DEFPOINTS
  6
CONTINUOUS
 62
    30
 10
162.46211600000001
 20
-102.94692000000001
 30
0.0
  0
POINT
  8
DEFPOINTS
  6
CONTINUOUS
 62
    30
 10
344.87833015997433
 20
-102.94692000000001
 30
0.0
  0
ENDSEC
  0
EOF
