  0
SECTION
  2
HEADER
  9
$ACADVER
  1
AC1009
  9
$DWGCODEPAGE
  3
dos932
  9
$INSBASE
 10
0.0
 20
0.0
 30
0.0
  9
$EXTMIN
 10
-692.31942667615954
 20
-550.45944544619624
 30
0.0
  9
$EXTMAX
 10
833.70876100138935
 20
599.37021578147562
 30
50.0
  9
$LIMMIN
 10
-2970.0
 20
-2100.0
  9
$LIMMAX
 10
2970.0
 20
2100.0
  9
$ORTHOMODE
 70
     1
  9
$REGENMODE
 70
     1
  9
$FILLMODE
 70
     1
  9
$QTEXTMODE
 70
     0
  9
$MIRRTEXT
 70
     0
  9
$LTSCALE
 40
20.0
  9
$ATTMODE
 70
     1
  9
$TEXTSIZE
 40
64.0
  9
$TRACEWID
 40
0.05
  9
$TEXTSTYLE
  7
STANDARD
  9
$CLAYER
  8
SIZE
  9
$CELTYPE
  6
CONTINUOUS
  9
$CECOLOR
 62
     7
  9
$DIMSCALE
 40
1.0
  9
$DIMASZ
 40
12.0
  9
$DIMEXO
 40
20.0
  9
$DIMDLI
 40
200.0
  9
$DIMRND
 40
0.0
  9
$DIMDLE
 40
0.0
  9
$DIMEXE
 40
20.0
  9
$DIMTP
 40
0.0
  9
$DIMTM
 40
0.0
  9
$DIMTXT
 40
64.0
  9
$DIMCEN
 40
0.09
  9
$DIMTSZ
 40
0.0
  9
$DIMTOL
 70
     0
  9
$DIMLIM
 70
     0
  9
$DIMTIH
 70
     0
  9
$DIMTOH
 70
     0
  9
$DIMSE1
 70
     0
  9
$DIMSE2
 70
     0
  9
$DIMTAD
 70
     1
  9
$DIMZIN
 70
     8
  9
$DIMBLK
  1

  9
$DIMASO
 70
     1
  9
$DIMSHO
 70
     0
  9
$DIMPOST
  1

  9
$DIMAPOST
  1

  9
$DIMALT
 70
     0
  9
$DIMALTD
 70
     2
  9
$DIMALTF
 40
25.399999999999999
  9
$DIMLFAC
 40
1.0
  9
$DIMTOFL
 70
     1
  9
$DIMTVP
 40
0.0
  9
$DIMTIX
 70
     1
  9
$DIMSOXD
 70
     0
  9
$DIMSAH
 70
     0
  9
$DIMBLK1
  1

  9
$DIMBLK2
  1

  9
$DIMSTYLE
  2
STANDARD
  9
$DIMCLRD
 70
     7
  9
$DIMCLRE
 70
     7
  9
$DIMCLRT
 70
     7
  9
$DIMTFAC
 40
1.0
  9
$DIMGAP
 40
25.0
  9
$LUNITS
 70
     2
  9
$LUPREC
 70
     4
  9
$SKETCHINC
 40
0.1
  9
$FILLETRAD
 40
3.0
  9
$AUNITS
 70
     1
  9
$AUPREC
 70
     3
  9
$MENU
  1
ACAD
  9
$ELEVATION
 40
0.0
  9
$PELEVATION
 40
0.0
  9
$THICKNESS
 40
0.0
  9
$LIMCHECK
 70
     0
  9
$CHAMFERA
 40
0.0
  9
$CHAMFERB
 40
0.0
  9
$SKPOLY
 70
     0
  9
$TDCREATE
 40
2453019.62301037
  9
$TDUPDATE
 40
2459268.668749595
  9
$TDINDWG
 40
1.7228863542
  9
$TDUSRTIMER
 40
1.7228863542
  9
$USRTIMER
 70
     1
  9
$ANGBASE
 50
0.0
  9
$ANGDIR
 70
     0
  9
$PDMODE
 70
     3
  9
$PDSIZE
 40
-2.0
  9
$PLINEWID
 40
0.0
  9
$SPLFRAME
 70
     0
  9
$SPLINETYPE
 70
     6
  9
$SPLINESEGS
 70
     8
  9
$SURFTAB1
 70
     6
  9
$SURFTAB2
 70
     6
  9
$SURFTYPE
 70
     6
  9
$SURFU
 70
     6
  9
$SURFV
 70
     6
  9
$UCSNAME
  2

  9
$UCSORG
 10
0.0
 20
0.0
 30
0.0
  9
$UCSXDIR
 10
1.0
 20
0.0
 30
0.0
  9
$UCSYDIR
 10
0.0
 20
1.0
 30
0.0
  9
$PUCSNAME
  2

  9
$PUCSORG
 10
0.0
 20
0.0
 30
0.0
  9
$PUCSXDIR
 10
1.0
 20
0.0
 30
0.0
  9
$PUCSYDIR
 10
0.0
 20
1.0
 30
0.0
  9
$USERI1
 70
     0
  9
$USERI2
 70
     0
  9
$USERI3
 70
     0
  9
$USERI4
 70
     0
  9
$USERI5
 70
     0
  9
$USERR1
 40
20.0
  9
$USERR2
 40
0.0
  9
$USERR3
 40
0.0
  9
$USERR4
 40
0.0
  9
$USERR5
 40
0.0
  9
$WORLDVIEW
 70
     1
  9
$SHADEDGE
 70
     3
  9
$SHADEDIF
 70
    70
  9
$TILEMODE
 70
     1
  9
$MAXACTVP
 70
    48
  9
$PINSBASE
 10
0.0
 20
0.0
 30
0.0
  9
$PLIMCHECK
 70
     0
  9
$PEXTMIN
 10
-100000000000000000000.0
 20
-100000000000000000000.0
 30
-100000000000000000000.0
  9
$PEXTMAX
 10
100000000000000000000.0
 20
100000000000000000000.0
 30
100000000000000000000.0
  9
$PLIMMIN
 10
0.0
 20
0.0
  9
$PLIMMAX
 10
12.0
 20
9.0
  9
$UNITMODE
 70
     0
  9
$VISRETAIN
 70
     0
  9
$PLINEGEN
 70
     0
  9
$PSLTSCALE
 70
     0
  9
$TREEDEPTH
 70
  3020
  9
$ATTDIA
 70
     0
  9
$ATTREQ
 70
     1
  9
$BLIPMODE
 70
     1
  9
$COORDS
 70
     1
  9
$DRAGMODE
 70
     2
  9
$OSMODE
 70
     0
  9
$HANDLING
 70
     0
  9
$HANDSEED
  5
1115B
  0
ENDSEC
  0
SECTION
  2
TABLES
  0
TABLE
  2
LTYPE
 70
     2
  0
LTYPE
  2
CONTINUOUS
 70
     0
  3
実線
 72
    65
 73
     0
 40
0.0
  0
LTYPE
  2
DASHDOT
 70
     0
  3
____ _ ____ _ ____ _ ____ _ ____ _ ____ _ ____
 72
    65
 73
     4
 40
5.5
 49
4.0
 49
-0.6
 49
0.3
 49
-0.6
  0
ENDTAB
  0
TABLE
  2
LAYER
 70
    12
  0
LAYER
  2
0
 70
     0
 62
     7
  6
CONTINUOUS
  0
LAYER
  2
BASIS
 70
     0
 62
     6
  6
DASHDOT
  0
LAYER
  2
OUTLINE
 70
     0
 62
     3
  6
CONTINUOUS
  0
LAYER
  2
DETAIL
 70
     0
 62
     5
  6
CONTINUOUS
  0
LAYER
  2
SIZE
 70
     0
 62
    30
  6
CONTINUOUS
  0
LAYER
  2
ARRANGE
 70
     0
 62
     1
  6
CONTINUOUS
  0
LAYER
  2
DEFPOINTS
 70
     0
 62
     7
  6
CONTINUOUS
  0
LAYER
  2
ETC
 70
     0
 62
    61
  6
CONTINUOUS
  0
LAYER
  2
FIX
 70
     0
 62
    11
  6
CONTINUOUS
  0
LAYER
  2
NOTE
 70
     0
 62
     4
  6
CONTINUOUS
  0
LAYER
  2
SERVICESPACE
 70
    64
 62
     2
  6
DASHDOT
  0
LAYER
  2
SYMBOLLINE
 70
    64
 62
    15
  6
CONTINUOUS
  0
ENDTAB
  0
TABLE
  2
STYLE
 70
     1
  0
STYLE
  2
STANDARD
 70
     0
 40
64.0
 41
0.9
 50
0.0
 71
     0
 42
64.0
  3
SIMPLEX.shx
  4
BIGFONT.shx
  0
ENDTAB
  0
TABLE
  2
APPID
 70
    19
  0
APPID
  2
ACAD
 70
     0
  0
APPID
  2
AUTOCAD_POSTSCRIPT_FIGURE
 70
     0
  0
APPID
  2
ACAD_EXEMPT_FROM_CAD_STANDARDS
 70
     0
  0
APPID
  2
ACAD_PSEXT
 70
     0
  0
APPID
  2
ACAUTHENVIRON
 70
     0
  0
APPID
  2
GENIUS_GENOENT_13
 70
     0
  0
APPID
  2
GENIUS_GENCFG_13
 70
     0
  0
APPID
  2
GENIUS_GENCFG0_13
 70
     0
  0
APPID
  2
GENIUS_GENCFG1_13
 70
     0
  0
APPID
  2
GENIUS_GENCFG2_13
 70
     0
  0
APPID
  2
GENIUS_GENCFG3_13
 70
     0
  0
APPID
  2
GENIUS_GENCFG4_13
 70
     0
  0
APPID
  2
GENIUS_GEVCFG0_13
 70
     0
  0
APPID
  2
CONTENTBLOCKICON
 70
     0
  0
APPID
  2
CONTENTBLOCKDESCRIPTION
 70
     0
  0
APPID
  2
ACAD_NAV_VCDISPLAY
 70
     0
  0
APPID
  2
ACAD_MLEADERVER
 70
     0
  0
APPID
  2
ACDBDYNAMICBLOCKTRUENAME
 70
     0
  0
APPID
  2
ACDBDYNAMICBLOCKGUID
 70
     0
  0
ENDTAB
  0
TABLE
  2
DIMSTYLE
 70
     1
  0
DIMSTYLE
  2
STANDARD
 70
     0
  3

  4

  5
_ORIGIN
  6

  7

 40
1.0
 41
12.0
 42
20.0
 43
200.0
 44
20.0
 45
0.0
 46
0.0
 47
0.0
 48
0.0
140
64.0
141
0.09
142
0.0
143
25.399999999999999
144
1.0
145
0.0
146
1.0
147
25.0
 71
     0
 72
     0
 73
     0
 74
     0
 75
     0
 76
     0
 77
     1
 78
     8
170
     0
171
     2
172
     1
173
     0
174
     1
175
     0
176
     7
177
     7
178
     7
  0
ENDTAB
  0
TABLE
  2
VIEW
 70
     1
  0
VIEW
  2
ALL
 70
     0
 40
4282.6198079999986
 10
0.0
 20
41.309904000000003
 41
5940.0
 11
0.0
 21
0.0
 31
1.0
 12
0.0
 22
0.0
 32
0.0
 42
50.0
 43
0.0
 44
0.0
 50
0.0
 71
     0
  0
ENDTAB
  0
TABLE
  2
UCS
 70
     0
  0
ENDTAB
  0
TABLE
  2
VPORT
 70
     1
  0
VPORT
  2
*ACTIVE
 70
     0
 10
0.0
 20
0.0
 11
1.0
 21
1.0
 12
70.697035396816545
 22
88.343552583166229
 13
0.0
 23
0.0
 14
1.0
 24
1.0
 15
0.0
 25
0.0
 16
0.0
 26
0.0
 36
1.0
 17
0.0
 27
0.0
 37
0.0
 40
981.10953030115274
 41
1.833137485311398
 42
50.0
 43
0.0
 44
0.0
 50
0.0
 51
0.0
 71
     0
 72
  1000
 73
     1
 74
     3
 75
     0
 76
     0
 77
     0
 78
     0
  0
ENDTAB
  0
ENDSEC
  0
SECTION
  2
BLOCKS
  0
BLOCK
  8
0
  2
_ORIGIN
 70
     0
 10
0.0
 20
0.0
 30
0.0
  3
_ORIGIN
  1
_ORIGIN
  0
CIRCLE
  8
SIZE
  6
CONTINUOUS
 62
    30
 10
0.0
 20
0.0
 30
0.0
 40
0.5
  0
LINE
  8
SIZE
  6
CONTINUOUS
 62
    30
 10
0.0
 20
0.0
 30
0.0
 11
-1.0
 21
0.0
 31
0.0
  0
ENDBLK
  8
0
  0
ENDSEC
  0
SECTION
  2
ENTITIES
  0
TEXT
  8
ETC
  6
CONTINUOUS
 62
    61
 10
224.7944752871035
 20
535.37021578147483
 30
0.0
 40
64.0
  1
BFS-15SKA2_5
 41
0.9
  0
TEXT
  8
ETC
  6
CONTINUOUS
 62
    61
 10
220.6084812871031
 20
417.41490576664359
 30
0.0
 40
64.0
  1
産業扇
 41
0.9
  0
CIRCLE
  8
ARRANGE
  6
CONTINUOUS
 62
     1
 10
0.0
 20
0.0
 30
0.0
 40
40.0
  0
POINT
  8
ARRANGE
  6
CONTINUOUS
 62
     1
 10
0.0
 20
0.0
 30
0.0
  0
LINE
  8
BASIS
  6
DASHDOT
 62
     6
 10
0.0
 20
-257.84196605427218
 30
0.0
 11
0.0
 21
61.518689682351578
 31
0.0
  0
LINE
  8
BASIS
  6
DASHDOT
 62
     6
 10
-242.9556759418405
 20
-114.2420389838353
 30
0.0
 11
242.55567594184049
 21
-114.2420389838353
 31
0.0
  0
TEXT
  8
ETC
  6
CONTINUOUS
 62
    61
 10
271.30987953565909
 20
309.26613288041841
 30
0.0
 40
40.0
  1
BFS-15SKA2
 41
0.9
  0
TEXT
  8
NOTE
  6
CONTINUOUS
 62
     4
 10
-362.92124340609809
 20
-146.3758108119564
 30
0.0
 40
64.0
  1
RA
 41
0.9
 72
     1
 11
-312.17838626324101
 21
-146.3758108119564
 31
0.0
  0
TEXT
  8
NOTE
  6
CONTINUOUS
 62
     4
 10
260.30871965803499
 20
-149.97460513343691
 30
0.0
 40
64.0
  1
EA
 41
0.9
 72
     1
 11
308.30871965803499
 21
-149.97460513343691
 31
0.0
  0
CIRCLE
  8
FIX
  6
CONTINUOUS
 62
    11
 10
149.50000000000031
 20
-103.7427706308351
 30
0.0
 40
5.0
  0
LINE
  8
NOTE
  6
CONTINUOUS
 62
     4
 10
149.50000000000031
 20
-127.0661522973522
 30
0.0
 11
149.50000000000031
 21
-80.419388964318046
 31
0.0
  0
LINE
  8
NOTE
  6
CONTINUOUS
 62
     4
 10
121.1269771889165
 20
-103.7427706308351
 30
0.0
 11
177.8730228110841
 21
-103.7427706308351
 31
0.0
  0
CIRCLE
  8
FIX
  6
CONTINUOUS
 62
    11
 10
-149.49999999999969
 20
-103.7427706308351
 30
0.0
 40
5.0
  0
LINE
  8
NOTE
  6
CONTINUOUS
 62
     4
 10
-149.49999999999969
 20
-127.0661522973522
 30
0.0
 11
-149.49999999999969
 21
-80.419388964318046
 31
0.0
  0
LINE
  8
NOTE
  6
CONTINUOUS
 62
     4
 10
-177.8730228110835
 20
-103.7427706308351
 30
0.0
 11
-121.1269771889159
 21
-103.7427706308351
 31
0.0
  0
LINE
  8
SIZE
  6
CONTINUOUS
 62
    30
 10
-149.49999999999969
 20
-60.419388964318053
 30
0.0
 11
-149.49999999999969
 21
202.2879368244835
 31
0.0
  0
LINE
  8
SIZE
  6
CONTINUOUS
 62
    30
 10
149.50000000000031
 20
-60.419388964318053
 30
0.0
 11
149.50000000000031
 21
202.2879368244835
 31
0.0
  0
LINE
  8
SIZE
  6
CONTINUOUS
 62
    30
 10
-137.49999999999969
 20
182.2879368244835
 30
0.0
 11
137.50000000000031
 21
182.2879368244835
 31
0.0
  0
CIRCLE
  8
SIZE
  6
CONTINUOUS
 62
    30
 10
-149.49999999999969
 20
182.2879368244835
 30
0.0
 40
6.0
  0
LINE
  8
SIZE
  6
CONTINUOUS
 62
    30
 10
-149.49999999999969
 20
182.2879368244835
 30
0.0
 11
-137.49999999999969
 21
182.2879368244835
 31
0.0
  0
CIRCLE
  8
SIZE
  6
CONTINUOUS
 62
    30
 10
149.50000000000031
 20
182.2879368244835
 30
0.0
 40
6.0
  0
LINE
  8
SIZE
  6
CONTINUOUS
 62
    30
 10
149.50000000000031
 20
182.2879368244835
 30
0.0
 11
137.50000000000031
 21
182.2879368244835
 31
0.0
  0
TEXT
  8
SIZE
  6
CONTINUOUS
 62
    30
 10
-71.286723067734755
 20
207.2879368244835
 30
0.0
 40
64.0
  1
299
 41
0.9
 72
     1
 11
1.3989912179795281
 21
207.2879368244835
 31
0.0
  0
POINT
  8
DEFPOINTS
  6
CONTINUOUS
 62
    30
 10
-149.49999999999969
 20
-80.419388964318046
 30
0.0
  0
POINT
  8
DEFPOINTS
  6
CONTINUOUS
 62
    30
 10
149.50000000000031
 20
-80.419388964318046
 30
0.0
  0
POINT
  8
DEFPOINTS
  6
CONTINUOUS
 62
    30
 10
149.50000000000031
 20
182.2879368244835
 30
0.0
  0
LINE
  8
SIZE
  6
CONTINUOUS
 62
    30
 10
170.37645490273931
 20
-87.742491908168518
 30
0.0
 11
170.37645490273931
 21
344.29712452501138
 31
0.0
  0
LINE
  8
SIZE
  6
CONTINUOUS
 62
    30
 10
-169.69984670253339
 20
-87.742491908168518
 30
0.0
 11
-169.69984670253331
 21
344.29712452501138
 31
0.0
  0
LINE
  8
SIZE
  6
CONTINUOUS
 62
    30
 10
158.37645490273931
 20
324.29712452501138
 30
0.0
 11
-157.69984670253331
 21
324.29712452501138
 31
0.0
  0
CIRCLE
  8
SIZE
  6
CONTINUOUS
 62
    30
 10
170.37645490273931
 20
324.29712452501138
 30
0.0
 40
6.0
  0
LINE
  8
SIZE
  6
CONTINUOUS
 62
    30
 10
170.37645490273931
 20
324.29712452501138
 30
0.0
 11
158.37645490273931
 21
324.29712452501138
 31
0.0
  0
CIRCLE
  8
SIZE
  6
CONTINUOUS
 62
    30
 10
-169.69984670253331
 20
324.29712452501138
 30
0.0
 40
6.0
  0
LINE
  8
SIZE
  6
CONTINUOUS
 62
    30
 10
-169.69984670253331
 20
324.29712452501138
 30
0.0
 11
-157.69984670253331
 21
324.29712452501138
 31
0.0
  0
TEXT
  8
SIZE
  6
CONTINUOUS
 62
    30
 10
-73.718838757039833
 20
349.29712452501138
 30
0.0
 40
64.0
  1
340
 41
0.9
 72
     1
 11
0.3383041001030165
 21
349.29712452501138
 31
0.0
  0
POINT
  8
DEFPOINTS
  6
CONTINUOUS
 62
    30
 10
170.37645490273931
 20
-107.7424919081685
 30
0.0
  0
POINT
  8
DEFPOINTS
  6
CONTINUOUS
 62
    30
 10
-169.69984670253339
 20
-107.7424919081685
 30
0.0
  0
POINT
  8
DEFPOINTS
  6
CONTINUOUS
 62
    30
 10
-169.69984670253331
 20
324.29712452501138
 30
0.0
  0
LINE
  8
SIZE
  6
CONTINUOUS
 62
    30
 10
167.68831455220291
 20
-244.5343532063039
 30
0.0
 11
167.68831455220291
 21
-550.45944544619624
 31
0.0
  0
LINE
  8
SIZE
  6
CONTINUOUS
 62
    30
 10
-167.5
 20
-244.53435320630399
 30
0.0
 11
-167.5
 21
-550.45944544619624
 31
0.0
  0
LINE
  8
SIZE
  6
CONTINUOUS
 62
    30
 10
155.68831455220291
 20
-530.45944544619624
 30
0.0
 11
-155.5
 21
-530.45944544619624
 31
0.0
  0
CIRCLE
  8
SIZE
  6
CONTINUOUS
 62
    30
 10
167.68831455220291
 20
-530.45944544619624
 30
0.0
 40
6.0
  0
LINE
  8
SIZE
  6
CONTINUOUS
 62
    30
 10
167.68831455220291
 20
-530.45944544619624
 30
0.0
 11
155.68831455220291
 21
-530.45944544619624
 31
0.0
  0
CIRCLE
  8
SIZE
  6
CONTINUOUS
 62
    30
 10
-167.5
 20
-530.45944544619624
 30
0.0
 40
6.0
  0
LINE
  8
SIZE
  6
CONTINUOUS
 62
    30
 10
-167.5
 20
-530.45944544619624
 30
0.0
 11
-155.5
 21
-530.45944544619624
 31
0.0
  0
TEXT
  8
SIZE
  6
CONTINUOUS
 62
    30
 10
-73.868828304939882
 20
-505.45944544619618
 30
0.0
 40
64.0
  1
335
 41
0.9
 72
     1
 11
0.1883145522029679
 21
-505.45944544619618
 31
0.0
  0
POINT
  8
DEFPOINTS
  6
CONTINUOUS
 62
    30
 10
167.68831455220291
 20
-224.5343532063039
 30
0.0
  0
POINT
  8
DEFPOINTS
  6
CONTINUOUS
 62
    30
 10
-167.5
 20
-224.53435320630399
 30
0.0
  0
POINT
  8
DEFPOINTS
  6
CONTINUOUS
 62
    30
 10
-167.5
 20
-530.45944544619624
 30
0.0
  0
LINE
  8
SIZE
  6
CONTINUOUS
 62
    30
 10
227.6841824886707
 20
-181.48876747653611
 30
0.0
 11
227.6841824886707
 21
-550.45944544619624
 31
0.0
  0
LINE
  8
SIZE
  6
CONTINUOUS
 62
    30
 10
167.68831455220291
 20
-244.5343532063039
 30
0.0
 11
167.68831455220291
 21
-550.45944544619624
 31
0.0
  0
LINE
  8
SIZE
  6
CONTINUOUS
 62
    30
 10
155.68831455220291
 20
-530.45944544619624
 30
0.0
 11
143.68831455220291
 21
-530.45944544619624
 31
0.0
  0
LINE
  8
SIZE
  6
CONTINUOUS
 62
    30
 10
239.6841824886707
 20
-530.45944544619624
 30
0.0
 11
395.37962247784981
 21
-530.45944544619624
 31
0.0
  0
LINE
  8
SIZE
  6
CONTINUOUS
 62
    30
 10
167.68831455220291
 20
-530.45944544619624
 30
0.0
 11
227.6841824886707
 21
-530.45944544619624
 31
0.0
  0
CIRCLE
  8
SIZE
  6
CONTINUOUS
 62
    30
 10
167.68831455220291
 20
-530.45944544619624
 30
0.0
 40
6.0
  0
LINE
  8
SIZE
  6
CONTINUOUS
 62
    30
 10
167.68831455220291
 20
-530.45944544619624
 30
0.0
 11
155.68831455220291
 21
-530.45944544619624
 31
0.0
  0
CIRCLE
  8
SIZE
  6
CONTINUOUS
 62
    30
 10
227.6841824886707
 20
-530.45944544619624
 30
0.0
 40
6.0
  0
LINE
  8
SIZE
  6
CONTINUOUS
 62
    30
 10
227.6841824886707
 20
-530.45944544619624
 30
0.0
 11
239.6841824886707
 21
-530.45944544619624
 31
0.0
  0
TEXT
  8
SIZE
  6
CONTINUOUS
 62
    30
 10
277.122479620707
 20
-505.45944544619618
 30
0.0
 40
64.0
  1
60
 41
0.9
 72
     1
 11
323.75105104927837
 21
-505.45944544619618
 31
0.0
  0
POINT
  8
DEFPOINTS
  6
CONTINUOUS
 62
    30
 10
227.6841824886707
 20
-161.48876747653611
 30
0.0
  0
POINT
  8
DEFPOINTS
  6
CONTINUOUS
 62
    30
 10
167.68831455220291
 20
-224.5343532063039
 30
0.0
  0
POINT
  8
DEFPOINTS
  6
CONTINUOUS
 62
    30
 10
167.68831455220291
 20
-530.45944544619624
 30
0.0
  0
LINE
  8
SIZE
  6
CONTINUOUS
 62
    30
 10
-167.5
 20
-244.53435320630399
 30
0.0
 11
-167.5
 21
-550.45944544619624
 31
0.0
  0
LINE
  8
SIZE
  6
CONTINUOUS
 62
    30
 10
-227.23416506850401
 20
-181.18876747653599
 30
0.0
 11
-227.23416506850401
 21
-550.45944544619624
 31
0.0
  0
LINE
  8
SIZE
  6
CONTINUOUS
 62
    30
 10
-155.5
 20
-530.45944544619624
 30
0.0
 11
-143.5
 21
-530.45944544619624
 31
0.0
  0
LINE
  8
SIZE
  6
CONTINUOUS
 62
    30
 10
-239.23416506850401
 20
-530.45944544619624
 30
0.0
 11
-394.49130792564682
 21
-530.45944544619624
 31
0.0
  0
LINE
  8
SIZE
  6
CONTINUOUS
 62
    30
 10
-167.5
 20
-530.45944544619624
 30
0.0
 11
-227.23416506850401
 21
-530.45944544619624
 31
0.0
  0
CIRCLE
  8
SIZE
  6
CONTINUOUS
 62
    30
 10
-167.5
 20
-530.45944544619624
 30
0.0
 40
6.0
  0
LINE
  8
SIZE
  6
CONTINUOUS
 62
    30
 10
-167.5
 20
-530.45944544619624
 30
0.0
 11
-155.5
 21
-530.45944544619624
 31
0.0
  0
CIRCLE
  8
SIZE
  6
CONTINUOUS
 62
    30
 10
-227.23416506850401
 20
-530.45944544619624
 30
0.0
 40
6.0
  0
LINE
  8
SIZE
  6
CONTINUOUS
 62
    30
 10
-227.23416506850401
 20
-530.45944544619624
 30
0.0
 11
-239.23416506850401
 21
-530.45944544619624
 31
0.0
  0
TEXT
  8
SIZE
  6
CONTINUOUS
 62
    30
 10
-369.49130792564682
 20
-505.45944544619618
 30
0.0
 40
64.0
  1
60
 41
0.9
 72
     1
 11
-322.86273649707539
 21
-505.45944544619618
 31
0.0
  0
POINT
  8
DEFPOINTS
  6
CONTINUOUS
 62
    30
 10
-167.5
 20
-224.53435320630399
 30
0.0
  0
POINT
  8
DEFPOINTS
  6
CONTINUOUS
 62
    30
 10
-227.23416506850401
 20
-161.18876747653599
 30
0.0
  0
POINT
  8
DEFPOINTS
  6
CONTINUOUS
 62
    30
 10
-227.23416506850401
 20
-530.45944544619624
 30
0.0
  0
LINE
  8
SIZE
  6
CONTINUOUS
 62
    30
 10
246.02262595010669
 20
-65.145439400367934
 30
0.0
 11
574.16261421509262
 21
-65.145439400368048
 31
0.0
  0
LINE
  8
SIZE
  6
CONTINUOUS
 62
    30
 10
246.02262595010669
 20
-163.18864901940279
 30
0.0
 11
574.16261421509262
 21
-163.1886490194029
 31
0.0
  0
LINE
  8
SIZE
  6
CONTINUOUS
 62
    30
 10
554.16261421509262
 20
-77.145439400368048
 30
0.0
 11
554.16261421509262
 21
-151.1886490194029
 31
0.0
  0
LINE
  8
SIZE
  6
CONTINUOUS
 62
    30
 10
554.16261421509262
 20
-163.1886490194029
 30
0.0
 11
554.1626142150925
 21
-378.78864901940312
 31
0.0
  0
CIRCLE
  8
SIZE
  6
CONTINUOUS
 62
    30
 10
554.16261421509262
 20
-65.145439400368048
 30
0.0
 40
6.0
  0
LINE
  8
SIZE
  6
CONTINUOUS
 62
    30
 10
554.16261421509262
 20
-65.145439400368048
 30
0.0
 11
554.16261421509262
 21
-77.145439400368048
 31
0.0
  0
CIRCLE
  8
SIZE
  6
CONTINUOUS
 62
    30
 10
554.16261421509262
 20
-163.1886490194029
 30
0.0
 40
6.0
  0
LINE
  8
SIZE
  6
CONTINUOUS
 62
    30
 10
554.16261421509262
 20
-163.1886490194029
 30
0.0
 11
554.16261421509262
 21
-151.1886490194029
 31
0.0
  0
TEXT
  8
SIZE
  6
CONTINUOUS
 62
    30
 10
518.49594754842599
 20
-363.93722044797431
 30
0.0
 40
64.0
  1
φ98
 50
90.0
 41
0.9
 72
     1
 11
518.49594754842599
 21
-276.98864901940289
 31
0.0
  0
POINT
  8
DEFPOINTS
  6
CONTINUOUS
 62
    30
 10
226.02262595010669
 20
-65.145439400367934
 30
0.0
  0
POINT
  8
DEFPOINTS
  6
CONTINUOUS
 62
    30
 10
226.02262595010669
 20
-163.18864901940279
 30
0.0
  0
POINT
  8
DEFPOINTS
  6
CONTINUOUS
 62
    30
 10
554.16261421509262
 20
-163.1886490194029
 30
0.0
  0
LINE
  8
SIZE
  6
CONTINUOUS
 62
    30
 10
197.47596017000521
 20
-59.295867936467523
 30
0.0
 11
720.82021310125117
 21
-59.295867936467687
 31
0.0
  0
LINE
  8
SIZE
  6
CONTINUOUS
 62
    30
 10
197.47596017000581
 20
-169.0882169992698
 30
0.0
 11
720.82021310125117
 21
-169.08821699926989
 31
0.0
  0
LINE
  8
SIZE
  6
CONTINUOUS
 62
    30
 10
700.82021310125117
 20
-71.295867936467687
 30
0.0
 11
700.82021310125117
 21
-157.08821699926989
 31
0.0
  0
LINE
  8
SIZE
  6
CONTINUOUS
 62
    30
 10
700.82021310125117
 20
-169.08821699926989
 30
0.0
 11
700.82021310125117
 21
-417.60250271355568
 31
0.0
  0
CIRCLE
  8
SIZE
  6
CONTINUOUS
 62
    30
 10
700.82021310125117
 20
-59.295867936467687
 30
0.0
 40
6.0
  0
LINE
  8
SIZE
  6
CONTINUOUS
 62
    30
 10
700.82021310125117
 20
-59.295867936467687
 30
0.0
 11
700.82021310125117
 21
-71.295867936467687
 31
0.0
  0
CIRCLE
  8
SIZE
  6
CONTINUOUS
 62
    30
 10
700.82021310125117
 20
-169.08821699926989
 30
0.0
 40
6.0
  0
LINE
  8
SIZE
  6
CONTINUOUS
 62
    30
 10
700.82021310125117
 20
-169.08821699926989
 30
0.0
 11
700.82021310125117
 21
-157.08821699926989
 31
0.0
  0
TEXT
  8
SIZE
  6
CONTINUOUS
 62
    30
 10
665.15354643458477
 20
-402.75107414212681
 30
0.0
 40
64.0
  1
φ110
 50
90.0
 41
0.9
 72
     1
 11
665.15354643458477
 21
-299.34535985641247
 31
0.0
  0
POINT
  8
DEFPOINTS
  6
CONTINUOUS
 62
    30
 10
177.47596017000521
 20
-59.295867936467523
 30
0.0
  0
POINT
  8
DEFPOINTS
  6
CONTINUOUS
 62
    30
 10
177.47596017000581
 20
-169.0882169992698
 30
0.0
  0
POINT
  8
DEFPOINTS
  6
CONTINUOUS
 62
    30
 10
700.82021310125117
 20
-169.08821699926989
 30
0.0
  0
LINE
  8
SIZE
  6
CONTINUOUS
 62
    30
 10
-184.7001951058667
 20
-1.299909415133357
 30
0.0
 11
-414.27613371357802
 21
-1.2999094151332999
 31
0.0
  0
LINE
  8
SIZE
  6
CONTINUOUS
 62
    30
 10
-184.7001951058667
 20
-227.0341790046372
 30
0.0
 11
-414.27613371357802
 21
-227.03417900463711
 31
0.0
  0
LINE
  8
SIZE
  6
CONTINUOUS
 62
    30
 10
-394.27613371357802
 20
-13.2999094151333
 30
0.0
 11
-394.27613371357802
 21
-215.03417900463711
 31
0.0
  0
CIRCLE
  8
SIZE
  6
CONTINUOUS
 62
    30
 10
-394.27613371357802
 20
-1.2999094151332999
 30
0.0
 40
6.0
  0
LINE
  8
SIZE
  6
CONTINUOUS
 62
    30
 10
-394.27613371357802
 20
-1.2999094151332999
 30
0.0
 11
-394.27613371357802
 21
-13.2999094151333
 31
0.0
  0
CIRCLE
  8
SIZE
  6
CONTINUOUS
 62
    30
 10
-394.27613371357802
 20
-227.03417900463711
 30
0.0
 40
6.0
  0
LINE
  8
SIZE
  6
CONTINUOUS
 62
    30
 10
-394.27613371357802
 20
-227.03417900463711
 30
0.0
 11
-394.27613371357802
 21
-215.03417900463711
 31
0.0
  0
TEXT
  8
SIZE
  6
CONTINUOUS
 62
    30
 10
-419.27613371357802
 20
-186.8527584955996
 30
0.0
 40
64.0
  1
226
 50
90.0
 41
0.9
 72
     1
 11
-419.27613371357802
 21
-114.1670442098853
 31
0.0
  0
POINT
  8
DEFPOINTS
  6
CONTINUOUS
 62
    30
 10
-164.7001951058667
 20
-1.299909415133357
 30
0.0
  0
POINT
  8
DEFPOINTS
  6
CONTINUOUS
 62
    30
 10
-164.7001951058667
 20
-227.0341790046372
 30
0.0
  0
POINT
  8
DEFPOINTS
  6
CONTINUOUS
 62
    30
 10
-394.27613371357802
 20
-227.03417900463711
 30
0.0
  0
LINE
  8
OUTLINE
  6
CONTINUOUS
 62
     3
 10
-225.13431139790379
 20
-65.445439400367832
 30
0.0
 11
-225.93425565337071
 21
-65.445439400367832
 31
0.0
  0
LINE
  8
OUTLINE
  6
CONTINUOUS
 62
     3
 10
-225.93425565337071
 20
-65.445439400367832
 30
0.0
 11
-226.43422081303751
 21
-65.645425464234449
 31
0.0
  0
LINE
  8
OUTLINE
  6
CONTINUOUS
 62
     3
 10
-226.43422081303751
 20
-65.645425464234449
 30
0.0
 11
-226.6342068769041
 21
-66.245383655834303
 31
0.0
  0
LINE
  8
OUTLINE
  6
CONTINUOUS
 62
     3
 10
-226.6342068769041
 20
-66.245383655834303
 30
0.0
 11
-226.93418597270431
 21
-66.745348815501075
 31
0.0
  0
LINE
  8
OUTLINE
  6
CONTINUOUS
 62
     3
 10
-226.93418597270431
 20
-66.745348815501075
 30
0.0
 11
-227.23416506850401
 21
-67.14532094323431
 31
0.0
  0
LINE
  8
OUTLINE
  6
CONTINUOUS
 62
     3
 10
-227.23416506850401
 20
-114.2420389838353
 30
0.0
 11
-227.23416506850401
 21
-161.18876747653599
 31
0.0
  0
LINE
  8
OUTLINE
  6
CONTINUOUS
 62
     3
 10
-167.98829364800309
 20
-171.1880706698696
 30
0.0
 11
-167.98829364800309
 21
-170.6881055102028
 31
0.0
  0
LINE
  8
OUTLINE
  6
CONTINUOUS
 62
     3
 10
-167.98829364800309
 20
-170.6881055102028
 30
0.0
 11
-168.18827971186971
 21
-169.88816125473639
 31
0.0
  0
LINE
  8
OUTLINE
  6
CONTINUOUS
 62
     3
 10
-168.18827971186971
 20
-169.88816125473639
 30
0.0
 11
-168.78823790346959
 21
-169.58818215893621
 31
0.0
  0
LINE
  8
OUTLINE
  6
CONTINUOUS
 62
     3
 10
-168.78823790346959
 20
-169.58818215893621
 30
0.0
 11
-169.1882100312028
 21
-169.08821699926969
 31
0.0
  0
LINE
  8
OUTLINE
  6
CONTINUOUS
 62
     3
 10
-169.1882100312028
 20
-169.08821699926969
 30
0.0
 11
-169.9881542866697
 21
-169.08821699926969
 31
0.0
  0
LINE
  8
OUTLINE
  6
CONTINUOUS
 62
     3
 10
-227.23416506850401
 20
-161.18876747653599
 30
0.0
 11
-226.93418597270431
 21
-161.58873960426939
 31
0.0
  0
LINE
  8
OUTLINE
  6
CONTINUOUS
 62
     3
 10
-226.93418597270431
 20
-161.58873960426939
 30
0.0
 11
-226.6342068769041
 21
-162.08870476393619
 31
0.0
  0
LINE
  8
OUTLINE
  6
CONTINUOUS
 62
     3
 10
-226.6342068769041
 20
-162.08870476393619
 30
0.0
 11
-226.43422081303751
 21
-162.6886629555361
 31
0.0
  0
LINE
  8
OUTLINE
  6
CONTINUOUS
 62
     3
 10
-226.43422081303751
 20
-162.6886629555361
 30
0.0
 11
-225.93425565337071
 21
-162.88864901940269
 31
0.0
  0
LINE
  8
OUTLINE
  6
CONTINUOUS
 62
     3
 10
-225.93425565337071
 20
-162.88864901940269
 30
0.0
 11
-225.13431139790379
 21
-162.88864901940269
 31
0.0
  0
LINE
  8
OUTLINE
  6
CONTINUOUS
 62
     3
 10
-225.13431139790379
 20
-65.445439400367832
 30
0.0
 11
-216.63490368357051
 21
-65.445439400367832
 31
0.0
  0
LINE
  8
OUTLINE
  6
CONTINUOUS
 62
     3
 10
-169.9881542866697
 20
-59.295867936467403
 30
0.0
 11
-169.1882100312028
 21
-59.295867936467403
 31
0.0
  0
LINE
  8
OUTLINE
  6
CONTINUOUS
 62
     3
 10
-169.1882100312028
 20
-59.295867936467403
 30
0.0
 11
-168.78823790346959
 21
-58.995888840667703
 31
0.0
  0
LINE
  8
OUTLINE
  6
CONTINUOUS
 62
     3
 10
-168.78823790346959
 20
-58.995888840667703
 30
0.0
 11
-168.18827971186971
 21
-58.495923681000932
 31
0.0
  0
LINE
  8
OUTLINE
  6
CONTINUOUS
 62
     3
 10
-168.18827971186971
 20
-58.495923681000932
 30
0.0
 11
-167.98829364800309
 21
-57.99595852133416
 31
0.0
  0
LINE
  8
OUTLINE
  6
CONTINUOUS
 62
     3
 10
-167.98829364800309
 20
-57.99595852133416
 30
0.0
 11
-167.98829364800309
 21
-57.196014265867689
 31
0.0
  0
LINE
  8
OUTLINE
  6
CONTINUOUS
 62
     3
 10
-227.23416506850401
 20
-114.2420389838353
 30
0.0
 11
-227.23416506850401
 21
-67.14532094323431
 31
0.0
  0
LINE
  8
OUTLINE
  6
CONTINUOUS
 62
     3
 10
-167.98829364800309
 20
-46.796738944800843
 30
0.0
 11
-167.98829364800309
 21
-57.196014265867689
 31
0.0
  0
LINE
  8
OUTLINE
  6
CONTINUOUS
 62
     3
 10
-169.9881542866697
 20
-59.295867936467403
 30
0.0
 11
-177.28764561780289
 21
-59.295867936467403
 31
0.0
  0
LINE
  8
OUTLINE
  6
CONTINUOUS
 62
     3
 10
-167.68831455220291
 20
-46.796738944800843
 30
0.0
 11
-167.98829364800309
 21
-46.796738944800843
 31
0.0
  0
LINE
  8
OUTLINE
  6
CONTINUOUS
 62
     3
 10
-177.28764561780289
 20
-59.295867936467403
 30
0.0
 11
-216.63490368357051
 21
-65.445439400367832
 31
0.0
  0
LINE
  8
OUTLINE
  6
CONTINUOUS
 62
     3
 10
-225.13431139790379
 20
-162.88864901940269
 30
0.0
 11
-216.63490368357051
 21
-162.88864901940269
 31
0.0
  0
LINE
  8
OUTLINE
  6
CONTINUOUS
 62
     3
 10
-177.28764561780289
 20
-169.08821699926969
 30
0.0
 11
-216.63490368357051
 21
-162.88864901940269
 31
0.0
  0
LINE
  8
OUTLINE
  6
CONTINUOUS
 62
     3
 10
-169.9881542866697
 20
-169.08821699926969
 30
0.0
 11
-177.28764561780289
 21
-169.08821699926969
 31
0.0
  0
LINE
  8
OUTLINE
  6
CONTINUOUS
 62
     3
 10
-167.68831455220291
 20
-181.58734599093651
 30
0.0
 11
-167.98829364800309
 21
-181.58734599093651
 31
0.0
  0
LINE
  8
OUTLINE
  6
CONTINUOUS
 62
     3
 10
227.6841824886707
 20
-67.14532094323431
 30
0.0
 11
227.6841824886707
 21
-66.745348815501075
 31
0.0
  0
LINE
  8
OUTLINE
  6
CONTINUOUS
 62
     3
 10
227.6841824886707
 20
-66.745348815501075
 30
0.0
 11
227.38420339287049
 21
-66.245383655834303
 31
0.0
  0
LINE
  8
OUTLINE
  6
CONTINUOUS
 62
     3
 10
227.38420339287049
 20
-66.245383655834303
 30
0.0
 11
226.88423823320369
 21
-65.645425464234449
 31
0.0
  0
LINE
  8
OUTLINE
  6
CONTINUOUS
 62
     3
 10
226.88423823320369
 20
-65.645425464234449
 30
0.0
 11
226.3842730735374
 21
-65.445439400367832
 31
0.0
  0
LINE
  8
OUTLINE
  6
CONTINUOUS
 62
     3
 10
226.3842730735374
 20
-65.445439400367832
 30
0.0
 11
225.8843079138708
 21
-65.445439400367832
 31
0.0
  0
LINE
  8
OUTLINE
  6
CONTINUOUS
 62
     3
 10
227.6841824886707
 20
-114.2420389838353
 30
0.0
 11
227.6841824886707
 21
-161.18876747653599
 31
0.0
  0
LINE
  8
OUTLINE
  6
CONTINUOUS
 62
     3
 10
169.8881612547361
 20
-169.08821699926969
 30
0.0
 11
169.18821003120311
 21
-169.08821699926969
 31
0.0
  0
LINE
  8
OUTLINE
  6
CONTINUOUS
 62
     3
 10
169.18821003120311
 20
-169.08821699926969
 30
0.0
 11
168.6882448715364
 21
-169.58818215893621
 31
0.0
  0
LINE
  8
OUTLINE
  6
CONTINUOUS
 62
     3
 10
168.6882448715364
 20
-169.58818215893621
 30
0.0
 11
168.1882797118696
 21
-169.88816125473639
 31
0.0
  0
LINE
  8
OUTLINE
  6
CONTINUOUS
 62
     3
 10
168.1882797118696
 20
-169.88816125473639
 30
0.0
 11
167.98829364800301
 21
-170.6881055102028
 31
0.0
  0
LINE
  8
OUTLINE
  6
CONTINUOUS
 62
     3
 10
167.98829364800301
 20
-170.6881055102028
 30
0.0
 11
167.98829364800301
 21
-171.1880706698696
 31
0.0
  0
LINE
  8
OUTLINE
  6
CONTINUOUS
 62
     3
 10
225.8843079138708
 20
-162.88864901940269
 30
0.0
 11
226.3842730735374
 21
-162.88864901940269
 31
0.0
  0
LINE
  8
OUTLINE
  6
CONTINUOUS
 62
     3
 10
226.3842730735374
 20
-162.88864901940269
 30
0.0
 11
226.88423823320369
 21
-162.6886629555361
 31
0.0
  0
LINE
  8
OUTLINE
  6
CONTINUOUS
 62
     3
 10
226.88423823320369
 20
-162.6886629555361
 30
0.0
 11
227.38420339287049
 21
-162.08870476393619
 31
0.0
  0
LINE
  8
OUTLINE
  6
CONTINUOUS
 62
     3
 10
227.38420339287049
 20
-162.08870476393619
 30
0.0
 11
227.6841824886707
 21
-161.58873960426939
 31
0.0
  0
LINE
  8
OUTLINE
  6
CONTINUOUS
 62
     3
 10
227.6841824886707
 20
-161.58873960426939
 30
0.0
 11
227.6841824886707
 21
-161.18876747653599
 31
0.0
  0
LINE
  8
OUTLINE
  6
CONTINUOUS
 62
     3
 10
225.8843079138708
 20
-65.445439400367832
 30
0.0
 11
217.18491413567031
 21
-65.445439400367832
 31
0.0
  0
LINE
  8
OUTLINE
  6
CONTINUOUS
 62
     3
 10
167.98829364800301
 20
-57.196014265867689
 30
0.0
 11
167.98829364800301
 21
-57.99595852133416
 31
0.0
  0
LINE
  8
OUTLINE
  6
CONTINUOUS
 62
     3
 10
167.98829364800301
 20
-57.99595852133416
 30
0.0
 11
168.1882797118696
 21
-58.495923681000932
 31
0.0
  0
LINE
  8
OUTLINE
  6
CONTINUOUS
 62
     3
 10
168.1882797118696
 20
-58.495923681000932
 30
0.0
 11
168.6882448715364
 21
-58.995888840667703
 31
0.0
  0
LINE
  8
OUTLINE
  6
CONTINUOUS
 62
     3
 10
168.6882448715364
 20
-58.995888840667703
 30
0.0
 11
169.18821003120311
 21
-59.295867936467403
 31
0.0
  0
LINE
  8
OUTLINE
  6
CONTINUOUS
 62
     3
 10
169.18821003120311
 20
-59.295867936467403
 30
0.0
 11
169.8881612547361
 21
-59.295867936467403
 31
0.0
  0
LINE
  8
OUTLINE
  6
CONTINUOUS
 62
     3
 10
227.6841824886707
 20
-114.2420389838353
 30
0.0
 11
227.6841824886707
 21
-67.14532094323431
 31
0.0
  0
LINE
  8
OUTLINE
  6
CONTINUOUS
 62
     3
 10
167.98829364800301
 20
-46.796738944800843
 30
0.0
 11
167.98829364800301
 21
-57.196014265867689
 31
0.0
  0
LINE
  8
OUTLINE
  6
CONTINUOUS
 62
     3
 10
169.8881612547361
 20
-59.295867936467403
 30
0.0
 11
176.98766652200311
 21
-59.295867936467403
 31
0.0
  0
LINE
  8
OUTLINE
  6
CONTINUOUS
 62
     3
 10
167.6883145522028
 20
-46.796738944800843
 30
0.0
 11
167.98829364800301
 21
-46.796738944800843
 31
0.0
  0
LINE
  8
OUTLINE
  6
CONTINUOUS
 62
     3
 10
176.98766652200311
 20
-59.295867936467403
 30
0.0
 11
217.18491413567031
 21
-65.445439400367832
 31
0.0
  0
LINE
  8
OUTLINE
  6
CONTINUOUS
 62
     3
 10
225.8843079138708
 20
-162.88864901940269
 30
0.0
 11
217.18491413567031
 21
-162.88864901940269
 31
0.0
  0
LINE
  8
OUTLINE
  6
CONTINUOUS
 62
     3
 10
176.98766652200311
 20
-169.08821699926969
 30
0.0
 11
217.18491413567031
 21
-162.88864901940269
 31
0.0
  0
LINE
  8
OUTLINE
  6
CONTINUOUS
 62
     3
 10
169.8881612547361
 20
-169.08821699926969
 30
0.0
 11
176.98766652200311
 21
-169.08821699926969
 31
0.0
  0
LINE
  8
OUTLINE
  6
CONTINUOUS
 62
     3
 10
167.6883145522028
 20
-181.58734599093651
 30
0.0
 11
167.98829364800301
 21
-181.58734599093651
 31
0.0
  0
LINE
  8
OUTLINE
  6
CONTINUOUS
 62
     3
 10
107.7424919081686
 20
-1.7998745748000149
 30
0.0
 11
105.5426452056349
 21
-1.7998745748000149
 31
0.0
  0
LINE
  8
OUTLINE
  6
CONTINUOUS
 62
     3
 10
-88.243850681168198
 20
-1.7998745748000149
 30
0.0
 11
-90.243711319834858
 21
-1.7998745748000149
 31
0.0
  0
LINE
  8
OUTLINE
  6
CONTINUOUS
 62
     3
 10
-90.243711319834858
 20
-226.53421384497051
 30
0.0
 11
-88.243850681168198
 21
-226.53421384497051
 31
0.0
  0
LINE
  8
OUTLINE
  6
CONTINUOUS
 62
     3
 10
105.5426452056349
 20
-226.53421384497051
 30
0.0
 11
107.7424919081686
 21
-226.53421384497051
 31
0.0
  0
LINE
  8
OUTLINE
  6
CONTINUOUS
 62
     3
 10
-167.68831455220291
 20
-104.2427357905017
 30
0.0
 11
-167.68831455220291
 21
-3.7997352134666471
 31
0.0
  0
LINE
  8
OUTLINE
  6
CONTINUOUS
 62
     3
 10
-90.243711319834858
 20
-3.7997352134666471
 30
0.0
 11
-90.243711319834858
 21
-1.2999094151332431
 31
0.0
  0
LINE
  8
OUTLINE
  6
CONTINUOUS
 62
     3
 10
-90.243711319834858
 20
-227.03417900463711
 30
0.0
 11
-90.243711319834858
 21
-224.5343532063039
 31
0.0
  0
LINE
  8
OUTLINE
  6
CONTINUOUS
 62
     3
 10
-90.243711319834858
 20
-227.03417900463711
 30
0.0
 11
-165.18848875386951
 21
-227.03417900463711
 31
0.0
  0
LINE
  8
OUTLINE
  6
CONTINUOUS
 62
     3
 10
-90.243711319834858
 20
-1.2999094151332431
 30
0.0
 11
-165.18848875386951
 21
-1.2999094151332431
 31
0.0
  0
LINE
  8
OUTLINE
  6
CONTINUOUS
 62
     3
 10
-165.18848875386951
 20
-3.7997352134666471
 30
0.0
 11
-167.68831455220291
 21
-3.7997352134666471
 31
0.0
  0
LINE
  8
OUTLINE
  6
CONTINUOUS
 62
     3
 10
-165.18848875386951
 20
-3.7997352134666471
 30
0.0
 11
-165.18848875386951
 21
-1.2999094151332431
 31
0.0
  0
LINE
  8
OUTLINE
  6
CONTINUOUS
 62
     3
 10
-165.18848875386951
 20
-227.03417900463711
 30
0.0
 11
-165.18848875386951
 21
-224.5343532063039
 31
0.0
  0
LINE
  8
OUTLINE
  6
CONTINUOUS
 62
     3
 10
-165.18848875386951
 20
-224.5343532063039
 30
0.0
 11
-167.68831455220291
 21
-224.5343532063039
 31
0.0
  0
LINE
  8
OUTLINE
  6
CONTINUOUS
 62
     3
 10
-167.68831455220291
 20
-224.5343532063039
 30
0.0
 11
-167.68831455220291
 21
-136.89046071673559
 31
0.0
  0
LINE
  8
OUTLINE
  6
CONTINUOUS
 62
     3
 10
167.6883145522028
 20
-104.2427357905017
 30
0.0
 11
167.6883145522028
 21
-3.7997352134666471
 31
0.0
  0
LINE
  8
OUTLINE
  6
CONTINUOUS
 62
     3
 10
107.7424919081686
 20
-227.03417900463711
 30
0.0
 11
107.7424919081686
 21
-223.83440198277049
 31
0.0
  0
LINE
  8
OUTLINE
  6
CONTINUOUS
 62
     3
 10
107.7424919081686
 20
-227.03417900463711
 30
0.0
 11
164.88850965806969
 21
-227.03417900463711
 31
0.0
  0
LINE
  8
OUTLINE
  6
CONTINUOUS
 62
     3
 10
164.88850965806969
 20
-224.5343532063039
 30
0.0
 11
167.6883145522028
 21
-224.5343532063039
 31
0.0
  0
LINE
  8
OUTLINE
  6
CONTINUOUS
 62
     3
 10
164.88850965806969
 20
-224.5343532063039
 30
0.0
 11
164.88850965806969
 21
-227.03417900463711
 31
0.0
  0
LINE
  8
OUTLINE
  6
CONTINUOUS
 62
     3
 10
164.88850965806969
 20
-1.2999094151332431
 30
0.0
 11
164.88850965806969
 21
-3.7997352134666471
 31
0.0
  0
LINE
  8
OUTLINE
  6
CONTINUOUS
 62
     3
 10
107.7424919081686
 20
-4.4996864370000367
 30
0.0
 11
107.7424919081686
 21
-1.2999094151332431
 31
0.0
  0
LINE
  8
OUTLINE
  6
CONTINUOUS
 62
     3
 10
107.7424919081686
 20
-1.2999094151332431
 30
0.0
 11
164.88850965806969
 21
-1.2999094151332431
 31
0.0
  0
LINE
  8
OUTLINE
  6
CONTINUOUS
 62
     3
 10
164.88850965806969
 20
-3.7997352134666471
 30
0.0
 11
167.6883145522028
 21
-3.7997352134666471
 31
0.0
  0
LINE
  8
OUTLINE
  6
CONTINUOUS
 62
     3
 10
167.6883145522028
 20
-224.5343532063039
 30
0.0
 11
167.6883145522028
 21
-106.7425615888351
 31
0.0
  0
LINE
  8
OUTLINE
  6
CONTINUOUS
 62
     3
 10
105.5426452056349
 20
-4.4996864370000367
 30
0.0
 11
105.5426452056349
 21
0.0
 31
0.0
  0
LINE
  8
OUTLINE
  6
CONTINUOUS
 62
     3
 10
105.5426452056349
 20
0.0
 30
0.0
 11
-88.243850681168198
 21
0.0
 31
0.0
  0
LINE
  8
OUTLINE
  6
CONTINUOUS
 62
     3
 10
105.5426452056349
 20
-228.3340884197705
 30
0.0
 11
105.5426452056349
 21
-223.83440198277049
 31
0.0
  0
LINE
  8
OUTLINE
  6
CONTINUOUS
 62
     3
 10
105.5426452056349
 20
-228.3340884197705
 30
0.0
 11
-88.243850681168198
 21
-228.3340884197705
 31
0.0
  0
LINE
  8
OUTLINE
  6
CONTINUOUS
 62
     3
 10
-88.243850681168198
 20
-223.83440198277049
 30
0.0
 11
-88.243850681168198
 21
-228.3340884197705
 31
0.0
  0
LINE
  8
OUTLINE
  6
CONTINUOUS
 62
     3
 10
-88.243850681168198
 20
-4.4996864370000367
 30
0.0
 11
-88.243850681168198
 21
0.0
 31
0.0
  0
LINE
  8
DETAIL
  6
CONTINUOUS
 62
     5
 10
-167.98829364800309
 20
-137.3904258764023
 30
0.0
 11
-167.98829364800309
 21
-106.94254765270171
 31
0.0
  0
LINE
  8
DETAIL
  6
CONTINUOUS
 62
     5
 10
-167.98829364800309
 20
-104.2427357905017
 30
0.0
 11
-167.98829364800309
 21
-57.196014265867568
 31
0.0
  0
LINE
  8
DETAIL
  6
CONTINUOUS
 62
     5
 10
167.98829364800301
 20
-137.3904258764023
 30
0.0
 11
167.98829364800301
 21
-106.94254765270171
 31
0.0
  0
LINE
  8
DETAIL
  6
CONTINUOUS
 62
     5
 10
167.98829364800301
 20
-104.2427357905017
 30
0.0
 11
167.98829364800301
 21
-57.196014265867568
 31
0.0
  0
LINE
  8
DETAIL
  6
CONTINUOUS
 62
     5
 10
-177.28764561780301
 20
-114.2420389838353
 30
0.0
 11
-177.28764561780301
 21
-59.295867936467523
 31
0.0
  0
LINE
  8
DETAIL
  6
CONTINUOUS
 62
     5
 10
-216.6349036835704
 20
-114.2420389838353
 30
0.0
 11
-216.6349036835704
 21
-162.88864901940269
 31
0.0
  0
LINE
  8
DETAIL
  6
CONTINUOUS
 62
     5
 10
-216.6349036835704
 20
-114.2420389838353
 30
0.0
 11
-216.6349036835704
 21
-65.445439400367718
 31
0.0
  0
LINE
  8
DETAIL
  6
CONTINUOUS
 62
     5
 10
-167.98829364800309
 20
-181.58734599093651
 30
0.0
 11
-167.98829364800309
 21
-152.8893458260693
 31
0.0
  0
LINE
  8
DETAIL
  6
CONTINUOUS
 62
     5
 10
-225.1343113979039
 20
-65.445439400367718
 30
0.0
 11
-225.9342556533706
 21
-65.445439400367718
 31
0.0
  0
LINE
  8
DETAIL
  6
CONTINUOUS
 62
     5
 10
-225.9342556533706
 20
-65.445439400367718
 30
0.0
 11
-226.4342208130374
 21
-65.645425464234449
 31
0.0
  0
LINE
  8
DETAIL
  6
CONTINUOUS
 62
     5
 10
-226.4342208130374
 20
-65.645425464234449
 30
0.0
 11
-226.63420687690399
 21
-66.245383655834416
 31
0.0
  0
LINE
  8
DETAIL
  6
CONTINUOUS
 62
     5
 10
-226.63420687690399
 20
-66.245383655834416
 30
0.0
 11
-226.934185972704
 21
-66.745348815501075
 31
0.0
  0
LINE
  8
DETAIL
  6
CONTINUOUS
 62
     5
 10
-226.934185972704
 20
-66.745348815501075
 30
0.0
 11
-227.2341650685041
 21
-67.145320943234424
 31
0.0
  0
LINE
  8
DETAIL
  6
CONTINUOUS
 62
     5
 10
-227.2341650685041
 20
-114.2420389838353
 30
0.0
 11
-227.2341650685041
 21
-161.18876747653599
 31
0.0
  0
LINE
  8
DETAIL
  6
CONTINUOUS
 62
     5
 10
-167.98829364800309
 20
-171.1880706698696
 30
0.0
 11
-167.98829364800309
 21
-170.6881055102028
 31
0.0
  0
LINE
  8
DETAIL
  6
CONTINUOUS
 62
     5
 10
-167.98829364800309
 20
-170.6881055102028
 30
0.0
 11
-168.1882797118696
 21
-169.88816125473639
 31
0.0
  0
LINE
  8
DETAIL
  6
CONTINUOUS
 62
     5
 10
-168.1882797118696
 20
-169.88816125473639
 30
0.0
 11
-168.78823790346959
 21
-169.58818215893621
 31
0.0
  0
LINE
  8
DETAIL
  6
CONTINUOUS
 62
     5
 10
-168.78823790346959
 20
-169.58818215893621
 30
0.0
 11
-169.188210031203
 21
-169.08821699926969
 31
0.0
  0
LINE
  8
DETAIL
  6
CONTINUOUS
 62
     5
 10
-169.188210031203
 20
-169.08821699926969
 30
0.0
 11
-169.98815428666961
 21
-169.08821699926969
 31
0.0
  0
LINE
  8
DETAIL
  6
CONTINUOUS
 62
     5
 10
-227.2341650685041
 20
-161.18876747653599
 30
0.0
 11
-226.934185972704
 21
-161.58873960426939
 31
0.0
  0
LINE
  8
DETAIL
  6
CONTINUOUS
 62
     5
 10
-226.934185972704
 20
-161.58873960426939
 30
0.0
 11
-226.63420687690399
 21
-162.08870476393619
 31
0.0
  0
LINE
  8
DETAIL
  6
CONTINUOUS
 62
     5
 10
-226.63420687690399
 20
-162.08870476393619
 30
0.0
 11
-226.4342208130374
 21
-162.6886629555361
 31
0.0
  0
LINE
  8
DETAIL
  6
CONTINUOUS
 62
     5
 10
-226.4342208130374
 20
-162.6886629555361
 30
0.0
 11
-225.9342556533706
 21
-162.88864901940269
 31
0.0
  0
LINE
  8
DETAIL
  6
CONTINUOUS
 62
     5
 10
-225.9342556533706
 20
-162.88864901940269
 30
0.0
 11
-225.1343113979039
 21
-162.88864901940269
 31
0.0
  0
LINE
  8
DETAIL
  6
CONTINUOUS
 62
     5
 10
-225.1343113979039
 20
-65.445439400367718
 30
0.0
 11
-216.6349036835704
 21
-65.445439400367718
 31
0.0
  0
LINE
  8
DETAIL
  6
CONTINUOUS
 62
     5
 10
-169.98815428666961
 20
-59.295867936467523
 30
0.0
 11
-169.188210031203
 21
-59.295867936467523
 31
0.0
  0
LINE
  8
DETAIL
  6
CONTINUOUS
 62
     5
 10
-169.188210031203
 20
-59.295867936467523
 30
0.0
 11
-168.78823790346959
 21
-58.99588884066759
 31
0.0
  0
LINE
  8
DETAIL
  6
CONTINUOUS
 62
     5
 10
-168.78823790346959
 20
-58.99588884066759
 30
0.0
 11
-168.1882797118696
 21
-58.495923681000932
 31
0.0
  0
LINE
  8
DETAIL
  6
CONTINUOUS
 62
     5
 10
-168.1882797118696
 20
-58.495923681000932
 30
0.0
 11
-167.98829364800309
 21
-57.995958521334273
 31
0.0
  0
LINE
  8
DETAIL
  6
CONTINUOUS
 62
     5
 10
-167.98829364800309
 20
-57.995958521334273
 30
0.0
 11
-167.98829364800309
 21
-57.196014265867568
 31
0.0
  0
LINE
  8
DETAIL
  6
CONTINUOUS
 62
     5
 10
-227.2341650685041
 20
-114.2420389838353
 30
0.0
 11
-227.2341650685041
 21
-67.145320943234424
 31
0.0
  0
LINE
  8
DETAIL
  6
CONTINUOUS
 62
     5
 10
-167.98829364800309
 20
-46.796738944800722
 30
0.0
 11
-167.98829364800309
 21
-57.196014265867568
 31
0.0
  0
LINE
  8
DETAIL
  6
CONTINUOUS
 62
     5
 10
-169.98815428666961
 20
-59.295867936467523
 30
0.0
 11
-177.28764561780301
 21
-59.295867936467523
 31
0.0
  0
LINE
  8
DETAIL
  6
CONTINUOUS
 62
     5
 10
-167.68831455220291
 20
-46.796738944800722
 30
0.0
 11
-167.98829364800309
 21
-46.796738944800722
 31
0.0
  0
LINE
  8
DETAIL
  6
CONTINUOUS
 62
     5
 10
-177.28764561780301
 20
-59.295867936467523
 30
0.0
 11
-216.6349036835704
 21
-65.445439400367718
 31
0.0
  0
LINE
  8
DETAIL
  6
CONTINUOUS
 62
     5
 10
-225.1343113979039
 20
-162.88864901940269
 30
0.0
 11
-216.6349036835704
 21
-162.88864901940269
 31
0.0
  0
LINE
  8
DETAIL
  6
CONTINUOUS
 62
     5
 10
-177.28764561780301
 20
-169.08821699926969
 30
0.0
 11
-216.6349036835704
 21
-162.88864901940269
 31
0.0
  0
LINE
  8
DETAIL
  6
CONTINUOUS
 62
     5
 10
-169.98815428666961
 20
-169.08821699926969
 30
0.0
 11
-177.28764561780301
 21
-169.08821699926969
 31
0.0
  0
LINE
  8
DETAIL
  6
CONTINUOUS
 62
     5
 10
-177.28764561780301
 20
-114.2420389838353
 30
0.0
 11
-177.28764561780301
 21
-169.08821699926969
 31
0.0
  0
LINE
  8
DETAIL
  6
CONTINUOUS
 62
     5
 10
-167.68831455220291
 20
-181.58734599093651
 30
0.0
 11
-167.98829364800309
 21
-181.58734599093651
 31
0.0
  0
LINE
  8
DETAIL
  6
CONTINUOUS
 62
     5
 10
176.9876665220032
 20
-114.2420389838353
 30
0.0
 11
176.9876665220032
 21
-59.295867936467523
 31
0.0
  0
LINE
  8
DETAIL
  6
CONTINUOUS
 62
     5
 10
217.1849141356704
 20
-114.2420389838353
 30
0.0
 11
217.1849141356704
 21
-162.88864901940269
 31
0.0
  0
LINE
  8
DETAIL
  6
CONTINUOUS
 62
     5
 10
217.1849141356704
 20
-114.2420389838353
 30
0.0
 11
217.1849141356704
 21
-65.445439400367718
 31
0.0
  0
LINE
  8
DETAIL
  6
CONTINUOUS
 62
     5
 10
167.98829364800301
 20
-181.58734599093651
 30
0.0
 11
167.98829364800301
 21
-152.8893458260693
 31
0.0
  0
LINE
  8
DETAIL
  6
CONTINUOUS
 62
     5
 10
227.6841824886707
 20
-67.145320943234424
 30
0.0
 11
227.6841824886707
 21
-66.745348815501075
 31
0.0
  0
LINE
  8
DETAIL
  6
CONTINUOUS
 62
     5
 10
227.6841824886707
 20
-66.745348815501075
 30
0.0
 11
227.3842033928706
 21
-66.245383655834416
 31
0.0
  0
LINE
  8
DETAIL
  6
CONTINUOUS
 62
     5
 10
227.3842033928706
 20
-66.245383655834416
 30
0.0
 11
226.884238233204
 21
-65.645425464234449
 31
0.0
  0
LINE
  8
DETAIL
  6
CONTINUOUS
 62
     5
 10
226.884238233204
 20
-65.645425464234449
 30
0.0
 11
226.38427307353729
 21
-65.445439400367718
 31
0.0
  0
LINE
  8
DETAIL
  6
CONTINUOUS
 62
     5
 10
226.38427307353729
 20
-65.445439400367718
 30
0.0
 11
225.8843079138704
 21
-65.445439400367718
 31
0.0
  0
LINE
  8
DETAIL
  6
CONTINUOUS
 62
     5
 10
227.6841824886707
 20
-114.2420389838353
 30
0.0
 11
227.6841824886707
 21
-161.18876747653599
 31
0.0
  0
LINE
  8
DETAIL
  6
CONTINUOUS
 62
     5
 10
169.8881612547363
 20
-169.08821699926969
 30
0.0
 11
169.188210031203
 21
-169.08821699926969
 31
0.0
  0
LINE
  8
DETAIL
  6
CONTINUOUS
 62
     5
 10
169.188210031203
 20
-169.08821699926969
 30
0.0
 11
168.68824487153631
 21
-169.58818215893621
 31
0.0
  0
LINE
  8
DETAIL
  6
CONTINUOUS
 62
     5
 10
168.68824487153631
 20
-169.58818215893621
 30
0.0
 11
168.1882797118696
 21
-169.88816125473639
 31
0.0
  0
LINE
  8
DETAIL
  6
CONTINUOUS
 62
     5
 10
168.1882797118696
 20
-169.88816125473639
 30
0.0
 11
167.98829364800301
 21
-170.6881055102028
 31
0.0
  0
LINE
  8
DETAIL
  6
CONTINUOUS
 62
     5
 10
167.98829364800301
 20
-170.6881055102028
 30
0.0
 11
167.98829364800301
 21
-171.1880706698696
 31
0.0
  0
LINE
  8
DETAIL
  6
CONTINUOUS
 62
     5
 10
225.8843079138704
 20
-162.88864901940269
 30
0.0
 11
226.38427307353729
 21
-162.88864901940269
 31
0.0
  0
LINE
  8
DETAIL
  6
CONTINUOUS
 62
     5
 10
226.38427307353729
 20
-162.88864901940269
 30
0.0
 11
226.884238233204
 21
-162.6886629555361
 31
0.0
  0
LINE
  8
DETAIL
  6
CONTINUOUS
 62
     5
 10
226.884238233204
 20
-162.6886629555361
 30
0.0
 11
227.3842033928706
 21
-162.08870476393619
 31
0.0
  0
LINE
  8
DETAIL
  6
CONTINUOUS
 62
     5
 10
227.3842033928706
 20
-162.08870476393619
 30
0.0
 11
227.6841824886707
 21
-161.58873960426939
 31
0.0
  0
LINE
  8
DETAIL
  6
CONTINUOUS
 62
     5
 10
227.6841824886707
 20
-161.58873960426939
 30
0.0
 11
227.6841824886707
 21
-161.18876747653599
 31
0.0
  0
LINE
  8
DETAIL
  6
CONTINUOUS
 62
     5
 10
225.8843079138704
 20
-65.445439400367718
 30
0.0
 11
217.1849141356704
 21
-65.445439400367718
 31
0.0
  0
LINE
  8
DETAIL
  6
CONTINUOUS
 62
     5
 10
167.98829364800301
 20
-57.196014265867568
 30
0.0
 11
167.98829364800301
 21
-57.995958521334273
 31
0.0
  0
LINE
  8
DETAIL
  6
CONTINUOUS
 62
     5
 10
167.98829364800301
 20
-57.995958521334273
 30
0.0
 11
168.1882797118696
 21
-58.495923681000932
 31
0.0
  0
LINE
  8
DETAIL
  6
CONTINUOUS
 62
     5
 10
168.1882797118696
 20
-58.495923681000932
 30
0.0
 11
168.68824487153631
 21
-58.99588884066759
 31
0.0
  0
LINE
  8
DETAIL
  6
CONTINUOUS
 62
     5
 10
168.68824487153631
 20
-58.99588884066759
 30
0.0
 11
169.188210031203
 21
-59.295867936467523
 31
0.0
  0
LINE
  8
DETAIL
  6
CONTINUOUS
 62
     5
 10
169.188210031203
 20
-59.295867936467523
 30
0.0
 11
169.8881612547363
 21
-59.295867936467523
 31
0.0
  0
LINE
  8
DETAIL
  6
CONTINUOUS
 62
     5
 10
227.6841824886707
 20
-114.2420389838353
 30
0.0
 11
227.6841824886707
 21
-67.145320943234424
 31
0.0
  0
LINE
  8
DETAIL
  6
CONTINUOUS
 62
     5
 10
167.98829364800301
 20
-46.796738944800722
 30
0.0
 11
167.98829364800301
 21
-57.196014265867568
 31
0.0
  0
LINE
  8
DETAIL
  6
CONTINUOUS
 62
     5
 10
169.8881612547363
 20
-59.295867936467523
 30
0.0
 11
176.9876665220032
 21
-59.295867936467523
 31
0.0
  0
LINE
  8
DETAIL
  6
CONTINUOUS
 62
     5
 10
167.68831455220291
 20
-46.796738944800722
 30
0.0
 11
167.98829364800301
 21
-46.796738944800722
 31
0.0
  0
LINE
  8
DETAIL
  6
CONTINUOUS
 62
     5
 10
176.9876665220032
 20
-59.295867936467523
 30
0.0
 11
217.1849141356704
 21
-65.445439400367718
 31
0.0
  0
LINE
  8
DETAIL
  6
CONTINUOUS
 62
     5
 10
225.8843079138704
 20
-162.88864901940269
 30
0.0
 11
217.1849141356704
 21
-162.88864901940269
 31
0.0
  0
LINE
  8
DETAIL
  6
CONTINUOUS
 62
     5
 10
176.9876665220032
 20
-169.08821699926969
 30
0.0
 11
217.1849141356704
 21
-162.88864901940269
 31
0.0
  0
LINE
  8
DETAIL
  6
CONTINUOUS
 62
     5
 10
169.8881612547363
 20
-169.08821699926969
 30
0.0
 11
176.9876665220032
 21
-169.08821699926969
 31
0.0
  0
LINE
  8
DETAIL
  6
CONTINUOUS
 62
     5
 10
176.9876665220032
 20
-114.2420389838353
 30
0.0
 11
176.9876665220032
 21
-169.08821699926969
 31
0.0
  0
LINE
  8
DETAIL
  6
CONTINUOUS
 62
     5
 10
167.68831455220291
 20
-181.58734599093651
 30
0.0
 11
167.98829364800301
 21
-181.58734599093651
 31
0.0
  0
LINE
  8
DETAIL
  6
CONTINUOUS
 62
     5
 10
-17.448784072367001
 20
-151.88941550673599
 30
0.0
 11
-20.34858199843362
 21
-151.88941550673599
 31
0.0
  0
LINE
  8
DETAIL
  6
CONTINUOUS
 62
     5
 10
-20.34858199843362
 20
-104.9426870140352
 30
0.0
 11
-17.448784072367001
 21
-104.9426870140352
 31
0.0
  0
LINE
  8
DETAIL
  6
CONTINUOUS
 62
     5
 10
-20.34858199843362
 20
-145.88983359073589
 30
0.0
 11
-20.148595934566998
 21
-146.88976391006921
 31
0.0
  0
LINE
  8
DETAIL
  6
CONTINUOUS
 62
     5
 10
-20.148595934566998
 20
-146.88976391006921
 30
0.0
 11
-19.948609870700299
 21
-147.6897081655359
 31
0.0
  0
LINE
  8
DETAIL
  6
CONTINUOUS
 62
     5
 10
-19.948609870700299
 20
-147.6897081655359
 30
0.0
 11
-19.14866561523371
 21
-148.38965938906929
 31
0.0
  0
LINE
  8
DETAIL
  6
CONTINUOUS
 62
     5
 10
-19.14866561523371
 20
-148.38965938906929
 30
0.0
 11
-18.348721359767008
 21
-148.88962454873581
 31
0.0
  0
LINE
  8
DETAIL
  6
CONTINUOUS
 62
     5
 10
-18.348721359767008
 20
-108.1424640359019
 30
0.0
 11
-19.14866561523371
 21
-108.74242222750181
 31
0.0
  0
LINE
  8
DETAIL
  6
CONTINUOUS
 62
     5
 10
-19.14866561523371
 20
-108.74242222750181
 30
0.0
 11
-19.948609870700299
 21
-109.24238738716851
 31
0.0
  0
LINE
  8
DETAIL
  6
CONTINUOUS
 62
     5
 10
-19.948609870700299
 20
-109.24238738716851
 30
0.0
 11
-20.148595934566998
 21
-110.24231770650179
 31
0.0
  0
LINE
  8
DETAIL
  6
CONTINUOUS
 62
     5
 10
-20.148595934566998
 20
-110.24231770650179
 30
0.0
 11
-20.34858199843362
 21
-110.9422689300352
 31
0.0
  0
LINE
  8
DETAIL
  6
CONTINUOUS
 62
     5
 10
-20.34858199843362
 20
-151.88941550673599
 30
0.0
 11
-20.34858199843362
 21
-104.9426870140352
 31
0.0
  0
LINE
  8
DETAIL
  6
CONTINUOUS
 62
     5
 10
-17.448784072367001
 20
-151.88941550673599
 30
0.0
 11
-17.448784072367001
 21
-104.9426870140352
 31
0.0
  0
LINE
  8
DETAIL
  6
CONTINUOUS
 62
     5
 10
-17.448784072367001
 20
-148.88962454873581
 30
0.0
 11
-20.34858199843362
 21
-148.88962454873581
 31
0.0
  0
LINE
  8
DETAIL
  6
CONTINUOUS
 62
     5
 10
-17.448784072367001
 20
-108.1424640359019
 30
0.0
 11
-20.34858199843362
 21
-108.1424640359019
 31
0.0
  0
LINE
  8
DETAIL
  6
CONTINUOUS
 62
     5
 10
-154.1892552412028
 20
-227.33415810043721
 30
0.0
 11
-154.1892552412028
 21
-227.03417900463711
 31
0.0
  0
LINE
  8
DETAIL
  6
CONTINUOUS
 62
     5
 10
-149.18960364453591
 20
-227.33415810043721
 30
0.0
 11
-149.18960364453591
 21
-227.03417900463711
 31
0.0
  0
LINE
  8
DETAIL
  6
CONTINUOUS
 62
     5
 10
-166.28841210513619
 20
-224.5343532063039
 30
0.0
 11
-166.28841210513619
 21
-226.13424171723699
 31
0.0
  0
LINE
  8
DETAIL
  6
CONTINUOUS
 62
     5
 10
-167.28834242446959
 20
-224.5343532063039
 30
0.0
 11
-167.28834242446959
 21
-226.13424171723699
 31
0.0
  0
LINE
  8
DETAIL
  6
CONTINUOUS
 62
     5
 10
-165.18848875386959
 20
-2.499825798333291
 30
0.0
 11
-165.98843300933621
 21
-2.499825798333291
 31
0.0
  0
LINE
  8
DETAIL
  6
CONTINUOUS
 62
     5
 10
-165.18848875386959
 20
-1.7998745748000149
 30
0.0
 11
-165.98843300933621
 21
-1.7998745748000149
 31
0.0
  0
LINE
  8
DETAIL
  6
CONTINUOUS
 62
     5
 10
107.7424919081686
 20
-2.499825798333291
 30
0.0
 11
105.5426452056351
 21
-2.499825798333291
 31
0.0
  0
LINE
  8
DETAIL
  6
CONTINUOUS
 62
     5
 10
107.7424919081686
 20
-1.7998745748000149
 30
0.0
 11
105.5426452056351
 21
-1.7998745748000149
 31
0.0
  0
LINE
  8
DETAIL
  6
CONTINUOUS
 62
     5
 10
-167.28834242446959
 20
-226.13424171723699
 30
0.0
 11
-166.28841210513619
 21
-226.13424171723699
 31
0.0
  0
LINE
  8
DETAIL
  6
CONTINUOUS
 62
     5
 10
165.4884678496696
 20
-2.499825798333291
 30
0.0
 11
165.4884678496696
 21
-1.7998745748000149
 31
0.0
  0
LINE
  8
DETAIL
  6
CONTINUOUS
 62
     5
 10
-165.98843300933621
 20
-1.7998745748000149
 30
0.0
 11
-166.28841210513619
 21
-1.7998745748000149
 31
0.0
  0
LINE
  8
DETAIL
  6
CONTINUOUS
 62
     5
 10
-166.28841210513619
 20
-1.7998745748000149
 30
0.0
 11
-166.68838423286959
 21
-1.999860638666519
 31
0.0
  0
LINE
  8
DETAIL
  6
CONTINUOUS
 62
     5
 10
-166.68838423286959
 20
-1.999860638666519
 30
0.0
 11
-166.98836332866969
 21
-2.1998467025332502
 31
0.0
  0
LINE
  8
DETAIL
  6
CONTINUOUS
 62
     5
 10
-166.98836332866969
 20
-2.1998467025332502
 30
0.0
 11
-166.98836332866969
 21
-2.499825798333291
 31
0.0
  0
LINE
  8
DETAIL
  6
CONTINUOUS
 62
     5
 10
-166.98836332866969
 20
-2.499825798333291
 30
0.0
 11
-167.28834242446959
 21
-2.9997909579999491
 31
0.0
  0
LINE
  8
DETAIL
  6
CONTINUOUS
 62
     5
 10
-165.98843300933621
 20
-2.499825798333291
 30
0.0
 11
-166.28841210513619
 21
-2.9997909579999491
 31
0.0
  0
LINE
  8
DETAIL
  6
CONTINUOUS
 62
     5
 10
165.4884678496696
 20
-1.7998745748000149
 30
0.0
 11
164.88850965806961
 21
-1.7998745748000149
 31
0.0
  0
LINE
  8
DETAIL
  6
CONTINUOUS
 62
     5
 10
-167.28834242446959
 20
-226.13424171723699
 30
0.0
 11
-166.98836332866969
 21
-226.53421384497051
 31
0.0
  0
LINE
  8
DETAIL
  6
CONTINUOUS
 62
     5
 10
-166.98836332866969
 20
-226.53421384497051
 30
0.0
 11
-166.98836332866969
 21
-226.83419294077069
 31
0.0
  0
LINE
  8
DETAIL
  6
CONTINUOUS
 62
     5
 10
-166.98836332866969
 20
-226.83419294077069
 30
0.0
 11
-166.68838423286959
 21
-227.03417900463711
 31
0.0
  0
LINE
  8
DETAIL
  6
CONTINUOUS
 62
     5
 10
-166.68838423286959
 20
-227.03417900463711
 30
0.0
 11
-166.28841210513619
 21
-227.33415810043721
 31
0.0
  0
LINE
  8
DETAIL
  6
CONTINUOUS
 62
     5
 10
-166.28841210513619
 20
-227.33415810043721
 30
0.0
 11
-165.98843300933621
 21
-227.33415810043721
 31
0.0
  0
LINE
  8
DETAIL
  6
CONTINUOUS
 62
     5
 10
-167.28834242446959
 20
-2.9997909579999491
 30
0.0
 11
-167.28834242446959
 21
-3.7997352134666471
 31
0.0
  0
LINE
  8
DETAIL
  6
CONTINUOUS
 62
     5
 10
-166.28841210513619
 20
-226.13424171723699
 30
0.0
 11
-165.98843300933621
 21
-226.53421384497051
 31
0.0
  0
LINE
  8
DETAIL
  6
CONTINUOUS
 62
     5
 10
-165.98843300933621
 20
-227.33415810043721
 30
0.0
 11
-149.18960364453591
 21
-227.33415810043721
 31
0.0
  0
LINE
  8
DETAIL
  6
CONTINUOUS
 62
     5
 10
-165.98843300933621
 20
-226.53421384497051
 30
0.0
 11
-165.18848875386959
 21
-226.53421384497051
 31
0.0
  0
LINE
  8
DETAIL
  6
CONTINUOUS
 62
     5
 10
-166.28841210513619
 20
-2.9997909579999491
 30
0.0
 11
-166.28841210513619
 21
-3.7997352134666471
 31
0.0
  0
LINE
  8
DETAIL
  6
CONTINUOUS
 62
     5
 10
165.4884678496696
 20
-2.499825798333291
 30
0.0
 11
164.88850965806961
 21
-2.499825798333291
 31
0.0
  0
LINE
  8
DETAIL
  6
CONTINUOUS
 62
     5
 10
-88.243850681168198
 20
-1.7998745748000149
 30
0.0
 11
-90.243711319834972
 21
-1.7998745748000149
 31
0.0
  0
LINE
  8
DETAIL
  6
CONTINUOUS
 62
     5
 10
-88.243850681168198
 20
-2.499825798333291
 30
0.0
 11
-90.243711319834972
 21
-2.499825798333291
 31
0.0
  0
LINE
  8
DETAIL
  6
CONTINUOUS
 62
     5
 10
-90.243711319834972
 20
-226.53421384497051
 30
0.0
 11
-88.243850681168198
 21
-226.53421384497051
 31
0.0
  0
LINE
  8
DETAIL
  6
CONTINUOUS
 62
     5
 10
-90.243711319834972
 20
-225.83426262143709
 30
0.0
 11
-88.243850681168198
 21
-225.83426262143709
 31
0.0
  0
LINE
  8
DETAIL
  6
CONTINUOUS
 62
     5
 10
154.03926569330281
 20
-0.9999303193333162
 30
0.0
 11
154.03926569330281
 21
-1.2999094151332431
 31
0.0
  0
LINE
  8
DETAIL
  6
CONTINUOUS
 62
     5
 10
149.03961409663589
 20
-0.9999303193333162
 30
0.0
 11
149.03961409663589
 21
-1.2999094151332431
 31
0.0
  0
LINE
  8
DETAIL
  6
CONTINUOUS
 62
     5
 10
166.98836332866949
 20
-3.7997352134666471
 30
0.0
 11
166.98836332866949
 21
-2.1998467025332502
 31
0.0
  0
LINE
  8
DETAIL
  6
CONTINUOUS
 62
     5
 10
166.18841907320291
 20
-3.7997352134666471
 30
0.0
 11
166.18841907320291
 21
-2.1998467025332502
 31
0.0
  0
LINE
  8
DETAIL
  6
CONTINUOUS
 62
     5
 10
164.88850965806961
 20
-226.53421384497051
 30
0.0
 11
165.88843997740281
 21
-226.53421384497051
 31
0.0
  0
LINE
  8
DETAIL
  6
CONTINUOUS
 62
     5
 10
164.88850965806961
 20
-225.83426262143709
 30
0.0
 11
165.88843997740281
 21
-225.83426262143709
 31
0.0
  0
LINE
  8
DETAIL
  6
CONTINUOUS
 62
     5
 10
-165.4884678496696
 20
-225.83426262143709
 30
0.0
 11
-165.18848875386959
 21
-225.83426262143709
 31
0.0
  0
LINE
  8
DETAIL
  6
CONTINUOUS
 62
     5
 10
166.18841907320291
 20
-225.3342974617706
 30
0.0
 11
166.18841907320291
 21
-224.5343532063039
 31
0.0
  0
LINE
  8
DETAIL
  6
CONTINUOUS
 62
     5
 10
165.88843997740281
 20
-1.7998745748000149
 30
0.0
 11
164.88850965806961
 21
-1.7998745748000149
 31
0.0
  0
LINE
  8
DETAIL
  6
CONTINUOUS
 62
     5
 10
165.88843997740281
 20
-0.9999303193333162
 30
0.0
 11
149.03961409663589
 21
-0.9999303193333162
 31
0.0
  0
LINE
  8
DETAIL
  6
CONTINUOUS
 62
     5
 10
166.98836332866949
 20
-225.3342974617706
 30
0.0
 11
166.98836332866949
 21
-224.5343532063039
 31
0.0
  0
LINE
  8
DETAIL
  6
CONTINUOUS
 62
     5
 10
-165.4884678496696
 20
-226.53421384497051
 30
0.0
 11
-165.18848875386959
 21
-226.53421384497051
 31
0.0
  0
LINE
  8
DETAIL
  6
CONTINUOUS
 62
     5
 10
166.18841907320291
 20
-2.1998467025332502
 30
0.0
 11
165.88843997740281
 21
-1.7998745748000149
 31
0.0
  0
LINE
  8
DETAIL
  6
CONTINUOUS
 62
     5
 10
166.98836332866949
 20
-2.1998467025332502
 30
0.0
 11
166.98836332866949
 21
-1.7998745748000149
 31
0.0
  0
LINE
  8
DETAIL
  6
CONTINUOUS
 62
     5
 10
166.98836332866949
 20
-1.7998745748000149
 30
0.0
 11
166.98836332866949
 21
-1.4998954789999741
 31
0.0
  0
LINE
  8
DETAIL
  6
CONTINUOUS
 62
     5
 10
166.98836332866949
 20
-1.4998954789999741
 30
0.0
 11
166.48839816900281
 21
-1.2999094151332431
 31
0.0
  0
LINE
  8
DETAIL
  6
CONTINUOUS
 62
     5
 10
166.48839816900281
 20
-1.2999094151332431
 30
0.0
 11
166.18841907320291
 21
-0.9999303193333162
 31
0.0
  0
LINE
  8
DETAIL
  6
CONTINUOUS
 62
     5
 10
166.18841907320291
 20
-0.9999303193333162
 30
0.0
 11
165.88843997740281
 21
-0.9999303193333162
 31
0.0
  0
LINE
  8
DETAIL
  6
CONTINUOUS
 62
     5
 10
165.88843997740281
 20
-225.83426262143709
 30
0.0
 11
166.18841907320291
 21
-225.3342974617706
 31
0.0
  0
LINE
  8
DETAIL
  6
CONTINUOUS
 62
     5
 10
165.88843997740281
 20
-226.53421384497051
 30
0.0
 11
166.18841907320291
 21
-226.53421384497051
 31
0.0
  0
LINE
  8
DETAIL
  6
CONTINUOUS
 62
     5
 10
166.18841907320291
 20
-226.53421384497051
 30
0.0
 11
166.48839816900281
 21
-226.33422778110389
 31
0.0
  0
LINE
  8
DETAIL
  6
CONTINUOUS
 62
     5
 10
166.48839816900281
 20
-226.33422778110389
 30
0.0
 11
166.98836332866949
 21
-226.13424171723699
 31
0.0
  0
LINE
  8
DETAIL
  6
CONTINUOUS
 62
     5
 10
166.98836332866949
 20
-226.13424171723699
 30
0.0
 11
166.98836332866949
 21
-225.83426262143709
 31
0.0
  0
LINE
  8
DETAIL
  6
CONTINUOUS
 62
     5
 10
166.98836332866949
 20
-225.83426262143709
 30
0.0
 11
166.98836332866949
 21
-225.3342974617706
 31
0.0
  0
LINE
  8
DETAIL
  6
CONTINUOUS
 62
     5
 10
-165.4884678496696
 20
-225.83426262143709
 30
0.0
 11
-165.4884678496696
 21
-226.53421384497051
 31
0.0
  0
LINE
  8
DETAIL
  6
CONTINUOUS
 62
     5
 10
166.98836332866949
 20
-2.1998467025332502
 30
0.0
 11
166.18841907320291
 21
-2.1998467025332502
 31
0.0
  0
LINE
  8
DETAIL
  6
CONTINUOUS
 62
     5
 10
105.5426452056351
 20
-225.83426262143709
 30
0.0
 11
107.7424919081686
 21
-225.83426262143709
 31
0.0
  0
LINE
  8
DETAIL
  6
CONTINUOUS
 62
     5
 10
105.5426452056351
 20
-226.53421384497051
 30
0.0
 11
107.7424919081686
 21
-226.53421384497051
 31
0.0
  0
LINE
  8
DETAIL
  6
CONTINUOUS
 62
     5
 10
-165.68845391353619
 20
-103.742770630835
 30
0.0
 11
-165.68845391353619
 21
-3.7997352134666471
 31
0.0
  0
LINE
  8
DETAIL
  6
CONTINUOUS
 62
     5
 10
-167.68831455220291
 20
-104.2427357905017
 30
0.0
 11
-167.68831455220291
 21
-3.7997352134666471
 31
0.0
  0
LINE
  8
DETAIL
  6
CONTINUOUS
 62
     5
 10
-90.243711319834972
 20
-3.7997352134666471
 30
0.0
 11
-90.243711319834972
 21
-1.2999094151332431
 31
0.0
  0
LINE
  8
DETAIL
  6
CONTINUOUS
 62
     5
 10
-90.243711319834972
 20
-227.03417900463711
 30
0.0
 11
-90.243711319834972
 21
-224.5343532063039
 31
0.0
  0
LINE
  8
DETAIL
  6
CONTINUOUS
 62
     5
 10
-90.243711319834972
 20
-227.03417900463711
 30
0.0
 11
-165.18848875386959
 21
-227.03417900463711
 31
0.0
  0
LINE
  8
DETAIL
  6
CONTINUOUS
 62
     5
 10
-90.243711319834972
 20
-1.2999094151332431
 30
0.0
 11
-165.18848875386959
 21
-1.2999094151332431
 31
0.0
  0
LINE
  8
DETAIL
  6
CONTINUOUS
 62
     5
 10
-90.243711319834972
 20
-3.1997770218666801
 30
0.0
 11
-165.18848875386959
 21
-3.1997770218666801
 31
0.0
  0
LINE
  8
DETAIL
  6
CONTINUOUS
 62
     5
 10
-90.243711319834972
 20
-225.13431139790401
 30
0.0
 11
-165.18848875386959
 21
-225.13431139790401
 31
0.0
  0
LINE
  8
DETAIL
  6
CONTINUOUS
 62
     5
 10
-165.18848875386959
 20
-3.7997352134666471
 30
0.0
 11
-167.68831455220291
 21
-3.7997352134666471
 31
0.0
  0
LINE
  8
DETAIL
  6
CONTINUOUS
 62
     5
 10
-165.18848875386959
 20
-3.7997352134666471
 30
0.0
 11
-165.18848875386959
 21
-1.2999094151332431
 31
0.0
  0
LINE
  8
DETAIL
  6
CONTINUOUS
 62
     5
 10
-165.18848875386959
 20
-227.03417900463711
 30
0.0
 11
-165.18848875386959
 21
-224.5343532063039
 31
0.0
  0
LINE
  8
DETAIL
  6
CONTINUOUS
 62
     5
 10
-165.18848875386959
 20
-224.5343532063039
 30
0.0
 11
-167.68831455220291
 21
-224.5343532063039
 31
0.0
  0
LINE
  8
DETAIL
  6
CONTINUOUS
 62
     5
 10
-167.68831455220291
 20
-224.5343532063039
 30
0.0
 11
-167.68831455220291
 21
-136.89046071673559
 31
0.0
  0
LINE
  8
DETAIL
  6
CONTINUOUS
 62
     5
 10
-165.68845391353619
 20
-224.5343532063039
 30
0.0
 11
-165.68845391353619
 21
-105.64263823756851
 31
0.0
  0
LINE
  8
DETAIL
  6
CONTINUOUS
 62
     5
 10
-167.68831455220291
 20
-136.89046071673559
 30
0.0
 11
-167.68831455220291
 21
-106.7425615888352
 31
0.0
  0
LINE
  8
DETAIL
  6
CONTINUOUS
 62
     5
 10
-88.243850681168198
 20
-224.5343532063039
 30
0.0
 11
-90.243711319834972
 21
-224.5343532063039
 31
0.0
  0
LINE
  8
DETAIL
  6
CONTINUOUS
 62
     5
 10
-88.243850681168198
 20
-3.7997352134666471
 30
0.0
 11
-90.243711319834972
 21
-3.7997352134666471
 31
0.0
  0
LINE
  8
DETAIL
  6
CONTINUOUS
 62
     5
 10
167.68831455220291
 20
-104.2427357905017
 30
0.0
 11
167.68831455220291
 21
-3.7997352134666471
 31
0.0
  0
LINE
  8
DETAIL
  6
CONTINUOUS
 62
     5
 10
165.68845391353631
 20
-103.742770630835
 30
0.0
 11
165.68845391353631
 21
-3.7997352134666471
 31
0.0
  0
LINE
  8
DETAIL
  6
CONTINUOUS
 62
     5
 10
107.7424919081686
 20
-227.03417900463711
 30
0.0
 11
107.7424919081686
 21
-223.83440198277049
 31
0.0
  0
LINE
  8
DETAIL
  6
CONTINUOUS
 62
     5
 10
107.7424919081686
 20
-227.03417900463711
 30
0.0
 11
164.88850965806961
 21
-227.03417900463711
 31
0.0
  0
LINE
  8
DETAIL
  6
CONTINUOUS
 62
     5
 10
107.7424919081686
 20
-225.13431139790401
 30
0.0
 11
164.88850965806961
 21
-225.13431139790401
 31
0.0
  0
LINE
  8
DETAIL
  6
CONTINUOUS
 62
     5
 10
164.88850965806961
 20
-224.5343532063039
 30
0.0
 11
167.68831455220291
 21
-224.5343532063039
 31
0.0
  0
LINE
  8
DETAIL
  6
CONTINUOUS
 62
     5
 10
164.88850965806961
 20
-224.5343532063039
 30
0.0
 11
164.88850965806961
 21
-227.03417900463711
 31
0.0
  0
LINE
  8
DETAIL
  6
CONTINUOUS
 62
     5
 10
164.88850965806961
 20
-1.2999094151332431
 30
0.0
 11
164.88850965806961
 21
-3.7997352134666471
 31
0.0
  0
LINE
  8
DETAIL
  6
CONTINUOUS
 62
     5
 10
107.7424919081686
 20
-4.499686436999923
 30
0.0
 11
107.7424919081686
 21
-1.2999094151332431
 31
0.0
  0
LINE
  8
DETAIL
  6
CONTINUOUS
 62
     5
 10
107.7424919081686
 20
-1.2999094151332431
 30
0.0
 11
164.88850965806961
 21
-1.2999094151332431
 31
0.0
  0
LINE
  8
DETAIL
  6
CONTINUOUS
 62
     5
 10
107.7424919081686
 20
-3.1997770218666801
 30
0.0
 11
164.88850965806961
 21
-3.1997770218666801
 31
0.0
  0
LINE
  8
DETAIL
  6
CONTINUOUS
 62
     5
 10
164.88850965806961
 20
-3.7997352134666471
 30
0.0
 11
167.68831455220291
 21
-3.7997352134666471
 31
0.0
  0
LINE
  8
DETAIL
  6
CONTINUOUS
 62
     5
 10
165.68845391353631
 20
-224.5343532063039
 30
0.0
 11
165.68845391353631
 21
-105.64263823756851
 31
0.0
  0
LINE
  8
DETAIL
  6
CONTINUOUS
 62
     5
 10
167.68831455220291
 20
-224.5343532063039
 30
0.0
 11
167.68831455220291
 21
-106.7425615888352
 31
0.0
  0
LINE
  8
DETAIL
  6
CONTINUOUS
 62
     5
 10
124.7413073368355
 20
-180.38742960773629
 30
0.0
 11
124.5413212729688
 21
-179.5874853522696
 31
0.0
  0
LINE
  8
DETAIL
  6
CONTINUOUS
 62
     5
 10
124.5413212729688
 20
-108.74242222750181
 30
0.0
 11
124.7413073368355
 21
-107.7424919081684
 31
0.0
  0
LINE
  8
DETAIL
  6
CONTINUOUS
 62
     5
 10
119.7416557401688
 20
-4.499686436999923
 30
0.0
 11
105.5426452056351
 21
-4.499686436999923
 31
0.0
  0
LINE
  8
DETAIL
  6
CONTINUOUS
 62
     5
 10
105.5426452056351
 20
-4.499686436999923
 30
0.0
 11
105.5426452056351
 21
0.0
 31
0.0
  0
LINE
  8
DETAIL
  6
CONTINUOUS
 62
     5
 10
105.5426452056351
 20
-3.1997770218666801
 30
0.0
 11
-88.243850681168198
 21
-3.1997770218666801
 31
0.0
  0
LINE
  8
DETAIL
  6
CONTINUOUS
 62
     5
 10
105.5426452056351
 20
0.0
 30
0.0
 11
-88.243850681168198
 21
0.0
 31
0.0
  0
LINE
  8
DETAIL
  6
CONTINUOUS
 62
     5
 10
105.5426452056351
 20
-228.3340884197705
 30
0.0
 11
105.5426452056351
 21
-223.83440198277049
 31
0.0
  0
LINE
  8
DETAIL
  6
CONTINUOUS
 62
     5
 10
119.7416557401688
 20
-223.83440198277049
 30
0.0
 11
105.5426452056351
 21
-223.83440198277049
 31
0.0
  0
LINE
  8
DETAIL
  6
CONTINUOUS
 62
     5
 10
105.5426452056351
 20
-225.13431139790401
 30
0.0
 11
-88.243850681168198
 21
-225.13431139790401
 31
0.0
  0
LINE
  8
DETAIL
  6
CONTINUOUS
 62
     5
 10
105.5426452056351
 20
-228.3340884197705
 30
0.0
 11
-88.243850681168198
 21
-228.3340884197705
 31
0.0
  0
LINE
  8
DETAIL
  6
CONTINUOUS
 62
     5
 10
-88.243850681168198
 20
-223.83440198277049
 30
0.0
 11
-88.243850681168198
 21
-228.3340884197705
 31
0.0
  0
LINE
  8
DETAIL
  6
CONTINUOUS
 62
     5
 10
-88.243850681168198
 20
-223.83440198277049
 30
0.0
 11
-108.8424152594352
 21
-223.83440198277049
 31
0.0
  0
LINE
  8
DETAIL
  6
CONTINUOUS
 62
     5
 10
-88.243850681168198
 20
-4.499686436999923
 30
0.0
 11
-108.8424152594352
 21
-4.499686436999923
 31
0.0
  0
LINE
  8
DETAIL
  6
CONTINUOUS
 62
     5
 10
-88.243850681168198
 20
-4.499686436999923
 30
0.0
 11
-88.243850681168198
 21
0.0
 31
0.0
  0
LINE
  8
DETAIL
  6
CONTINUOUS
 62
     5
 10
124.7413073368355
 20
-107.7424919081684
 30
0.0
 11
124.7413073368355
 21
-9.4993380336668451
 31
0.0
  0
LINE
  8
DETAIL
  6
CONTINUOUS
 62
     5
 10
-108.8424152594352
 20
-114.2420389838353
 30
0.0
 11
-108.8424152594352
 21
-223.83440198277049
 31
0.0
  0
LINE
  8
DETAIL
  6
CONTINUOUS
 62
     5
 10
-105.2426661098352
 20
-114.2420389838353
 30
0.0
 11
-105.2426661098352
 21
-223.83440198277049
 31
0.0
  0
LINE
  8
DETAIL
  6
CONTINUOUS
 62
     5
 10
124.7413073368355
 20
-218.83475038610371
 30
0.0
 11
124.7413073368355
 21
-180.38742960773629
 31
0.0
  0
LINE
  8
DETAIL
  6
CONTINUOUS
 62
     5
 10
119.7416557401688
 20
-223.83440198277049
 30
0.0
 11
121.2415512191688
 21
-223.6344159189039
 31
0.0
  0
LINE
  8
DETAIL
  6
CONTINUOUS
 62
     5
 10
121.2415512191688
 20
-223.6344159189039
 30
0.0
 11
122.7414466981688
 21
-222.8344716634372
 31
0.0
  0
LINE
  8
DETAIL
  6
CONTINUOUS
 62
     5
 10
122.7414466981688
 20
-222.8344716634372
 30
0.0
 11
123.7413770175021
 21
-221.8345413441036
 31
0.0
  0
LINE
  8
DETAIL
  6
CONTINUOUS
 62
     5
 10
123.7413770175021
 20
-221.8345413441036
 30
0.0
 11
124.5413212729688
 21
-220.33464586510379
 31
0.0
  0
LINE
  8
DETAIL
  6
CONTINUOUS
 62
     5
 10
124.5413212729688
 20
-220.33464586510379
 30
0.0
 11
124.7413073368355
 21
-218.83475038610371
 31
0.0
  0
LINE
  8
DETAIL
  6
CONTINUOUS
 62
     5
 10
124.7413073368355
 20
-9.4993380336668451
 30
0.0
 11
124.5413212729688
 21
-7.9994425546666426
 31
0.0
  0
LINE
  8
DETAIL
  6
CONTINUOUS
 62
     5
 10
124.5413212729688
 20
-7.9994425546666426
 30
0.0
 11
123.7413770175021
 21
-6.7995261714667086
 31
0.0
  0
LINE
  8
DETAIL
  6
CONTINUOUS
 62
     5
 10
123.7413770175021
 20
-6.7995261714667086
 30
0.0
 11
122.7414466981688
 21
-5.4996167563333529
 31
0.0
  0
LINE
  8
DETAIL
  6
CONTINUOUS
 62
     5
 10
122.7414466981688
 20
-5.4996167563333529
 30
0.0
 11
121.2415512191688
 21
-4.6996725008666536
 31
0.0
  0
LINE
  8
DETAIL
  6
CONTINUOUS
 62
     5
 10
121.2415512191688
 20
-4.6996725008666536
 30
0.0
 11
119.7416557401688
 21
-4.499686436999923
 31
0.0
  0
LINE
  8
DETAIL
  6
CONTINUOUS
 62
     5
 10
-108.8424152594352
 20
-114.2420389838353
 30
0.0
 11
-108.8424152594352
 21
-4.499686436999923
 31
0.0
  0
LINE
  8
DETAIL
  6
CONTINUOUS
 62
     5
 10
-105.2426661098352
 20
-114.2420389838353
 30
0.0
 11
-105.2426661098352
 21
-4.499686436999923
 31
0.0
  0
LINE
  8
DETAIL
  6
CONTINUOUS
 62
     5
 10
124.7413073368355
 20
-171.58804279760309
 30
0.0
 11
124.7413073368355
 21
-170.8880915740697
 31
0.0
  0
LINE
  8
DETAIL
  6
CONTINUOUS
 62
     5
 10
124.7413073368355
 20
-170.8880915740697
 30
0.0
 11
124.5413212729688
 21
-170.3881264144029
 31
0.0
  0
LINE
  8
DETAIL
  6
CONTINUOUS
 62
     5
 10
124.5413212729688
 20
-157.88899742273611
 30
0.0
 11
124.7413073368355
 21
-157.38903226306931
 31
0.0
  0
LINE
  8
DETAIL
  6
CONTINUOUS
 62
     5
 10
124.7413073368355
 20
-157.38903226306931
 30
0.0
 11
124.7413073368355
 21
-156.68908103953589
 31
0.0
  0
LINE
  8
DETAIL
  6
CONTINUOUS
 62
     5
 10
124.7413073368355
 20
-156.68908103953589
 30
0.0
 11
124.7413073368355
 21
-107.7424919081684
 31
0.0
  0
LINE
  8
DETAIL
  6
CONTINUOUS
 62
     5
 10
124.7413073368355
 20
-171.58804279760309
 30
0.0
 11
124.7413073368355
 21
-180.38742960773629
 31
0.0
  0
LINE
  8
DETAIL
  6
CONTINUOUS
 62
     5
 10
124.7413073368355
 20
-180.38742960773629
 30
0.0
 11
124.5413212729688
 21
-180.38742960773629
 31
0.0
  0
LINE
  8
DETAIL
  6
CONTINUOUS
 62
     5
 10
124.7413073368355
 20
-63.445578761700972
 30
0.0
 11
124.5413212729688
 21
-61.945683282700998
 31
0.0
  0
LINE
  8
DETAIL
  6
CONTINUOUS
 62
     5
 10
124.5413212729688
 20
-61.945683282700998
 30
0.0
 11
123.7413770175021
 21
-60.695770383534303
 31
0.0
  0
LINE
  8
DETAIL
  6
CONTINUOUS
 62
     5
 10
123.7413770175021
 20
-60.695770383534303
 30
0.0
 11
122.7414466981688
 21
-59.495854000334248
 31
0.0
  0
LINE
  8
DETAIL
  6
CONTINUOUS
 62
     5
 10
122.7414466981688
 20
-59.495854000334248
 30
0.0
 11
121.2415512191688
 21
-58.795902776800972
 31
0.0
  0
LINE
  8
DETAIL
  6
CONTINUOUS
 62
     5
 10
121.2415512191688
 20
-58.795902776800972
 30
0.0
 11
119.7416557401688
 21
-58.495923681000932
 31
0.0
  0
LINE
  8
DETAIL
  6
CONTINUOUS
 62
     5
 10
-23.098390376600431
 20
-58.495923681000932
 30
0.0
 11
-24.598285855600381
 21
-58.795902776800972
 31
0.0
  0
LINE
  8
DETAIL
  6
CONTINUOUS
 62
     5
 10
-24.598285855600381
 20
-58.795902776800972
 30
0.0
 11
-25.79820223880057
 21
-59.495854000334248
 31
0.0
  0
LINE
  8
DETAIL
  6
CONTINUOUS
 62
     5
 10
-25.79820223880057
 20
-59.495854000334248
 30
0.0
 11
-27.09811165393381
 21
-60.695770383534303
 31
0.0
  0
LINE
  8
DETAIL
  6
CONTINUOUS
 62
     5
 10
-27.09811165393381
 20
-60.695770383534303
 30
0.0
 11
-27.798062877467061
 21
-61.945683282700998
 31
0.0
  0
LINE
  8
DETAIL
  6
CONTINUOUS
 62
     5
 10
-27.798062877467061
 20
-61.945683282700998
 30
0.0
 11
-28.098041973267129
 21
-63.445578761700972
 31
0.0
  0
LINE
  8
DETAIL
  6
CONTINUOUS
 62
     5
 10
-28.098041973267129
 20
-196.3363182011033
 30
0.0
 11
-27.798062877467061
 21
-197.83621368010341
 31
0.0
  0
LINE
  8
DETAIL
  6
CONTINUOUS
 62
     5
 10
-27.798062877467061
 20
-197.83621368010341
 30
0.0
 11
-27.09811165393381
 21
-199.33610915910339
 31
0.0
  0
LINE
  8
DETAIL
  6
CONTINUOUS
 62
     5
 10
-27.09811165393381
 20
-199.33610915910339
 30
0.0
 11
-25.79820223880057
 21
-200.33603947843679
 31
0.0
  0
LINE
  8
DETAIL
  6
CONTINUOUS
 62
     5
 10
-25.79820223880057
 20
-200.33603947843679
 30
0.0
 11
-24.598285855600381
 21
-201.13598373390349
 31
0.0
  0
LINE
  8
DETAIL
  6
CONTINUOUS
 62
     5
 10
-24.598285855600381
 20
-201.13598373390349
 30
0.0
 11
-23.098390376600431
 21
-201.3359697977701
 31
0.0
  0
LINE
  8
DETAIL
  6
CONTINUOUS
 62
     5
 10
119.7416557401688
 20
-201.3359697977701
 30
0.0
 11
121.2415512191688
 21
-201.13598373390349
 31
0.0
  0
LINE
  8
DETAIL
  6
CONTINUOUS
 62
     5
 10
121.2415512191688
 20
-201.13598373390349
 30
0.0
 11
122.7414466981688
 21
-200.33603947843679
 31
0.0
  0
LINE
  8
DETAIL
  6
CONTINUOUS
 62
     5
 10
122.7414466981688
 20
-200.33603947843679
 30
0.0
 11
123.7413770175021
 21
-199.33610915910339
 31
0.0
  0
LINE
  8
DETAIL
  6
CONTINUOUS
 62
     5
 10
123.7413770175021
 20
-199.33610915910339
 30
0.0
 11
124.5413212729688
 21
-197.83621368010341
 31
0.0
  0
LINE
  8
DETAIL
  6
CONTINUOUS
 62
     5
 10
124.5413212729688
 20
-197.83621368010341
 30
0.0
 11
124.7413073368355
 21
-196.3363182011033
 31
0.0
  0
LINE
  8
DETAIL
  6
CONTINUOUS
 62
     5
 10
124.7413073368355
 20
-183.3872205657365
 30
0.0
 11
124.7413073368355
 21
-182.8872554060699
 31
0.0
  0
LINE
  8
DETAIL
  6
CONTINUOUS
 62
     5
 10
124.7413073368355
 20
-182.8872554060699
 30
0.0
 11
124.5413212729688
 21
-182.38729024640321
 31
0.0
  0
LINE
  8
DETAIL
  6
CONTINUOUS
 62
     5
 10
124.5413212729688
 20
-182.38729024640321
 30
0.0
 11
124.2413421771689
 21
-182.087311150603
 31
0.0
  0
LINE
  8
DETAIL
  6
CONTINUOUS
 62
     5
 10
-23.098390376600431
 20
-58.495923681000932
 30
0.0
 11
119.7416557401688
 21
-58.495923681000932
 31
0.0
  0
LINE
  8
DETAIL
  6
CONTINUOUS
 62
     5
 10
124.7413073368355
 20
-183.3872205657365
 30
0.0
 11
124.7413073368355
 21
-186.83698016743639
 31
0.0
  0
LINE
  8
DETAIL
  6
CONTINUOUS
 62
     5
 10
124.7413073368355
 20
-63.445578761700972
 30
0.0
 11
124.7413073368355
 21
-69.945125837367868
 31
0.0
  0
LINE
  8
DETAIL
  6
CONTINUOUS
 62
     5
 10
119.7416557401688
 20
-201.3359697977701
 30
0.0
 11
-23.098390376600431
 21
-201.3359697977701
 31
0.0
  0
LINE
  8
DETAIL
  6
CONTINUOUS
 62
     5
 10
-28.098041973267129
 20
-63.445578761700972
 30
0.0
 11
-28.098041973267129
 21
-69.945125837367868
 31
0.0
  0
LINE
  8
DETAIL
  6
CONTINUOUS
 62
     5
 10
58.295937617134371
 20
-71.445021316367843
 30
0.0
 11
58.095951553267639
 21
-69.945125837367868
 31
0.0
  0
LINE
  8
DETAIL
  6
CONTINUOUS
 62
     5
 10
58.095951553267639
 20
-69.945125837367868
 30
0.0
 11
57.296007297800941
 21
-68.44523035836778
 31
0.0
  0
LINE
  8
DETAIL
  6
CONTINUOUS
 62
     5
 10
57.296007297800941
 20
-68.44523035836778
 30
0.0
 11
55.996097882667698
 21
-67.44530003903435
 31
0.0
  0
LINE
  8
DETAIL
  6
CONTINUOUS
 62
     5
 10
55.996097882667698
 20
-67.44530003903435
 30
0.0
 11
54.596195435601032
 21
-66.745348815501075
 31
0.0
  0
LINE
  8
DETAIL
  6
CONTINUOUS
 62
     5
 10
54.596195435601032
 20
-66.745348815501075
 30
0.0
 11
53.096299956600937
 21
-66.445369719701148
 31
0.0
  0
LINE
  8
DETAIL
  6
CONTINUOUS
 62
     5
 10
53.096299956600937
 20
-66.445369719701148
 30
0.0
 11
51.296425381800823
 21
-66.945334879367806
 31
0.0
  0
LINE
  8
DETAIL
  6
CONTINUOUS
 62
     5
 10
51.296425381800823
 20
-66.945334879367806
 30
0.0
 11
49.996515966667573
 21
-67.945265198701122
 31
0.0
  0
LINE
  8
DETAIL
  6
CONTINUOUS
 62
     5
 10
49.996515966667573
 20
-67.945265198701122
 30
0.0
 11
49.096578679267573
 21
-69.245174613834479
 31
0.0
  0
LINE
  8
DETAIL
  6
CONTINUOUS
 62
     5
 10
49.096578679267573
 20
-69.245174613834479
 30
0.0
 11
48.496620487667599
 21
-70.645077060901144
 31
0.0
  0
LINE
  8
DETAIL
  6
CONTINUOUS
 62
     5
 10
48.496620487667599
 20
-70.645077060901144
 30
0.0
 11
48.496620487667599
 21
-72.444951635701273
 31
0.0
  0
LINE
  8
DETAIL
  6
CONTINUOUS
 62
     5
 10
48.496620487667599
 20
-72.444951635701273
 30
0.0
 11
49.096578679267573
 21
-73.944847114701247
 31
0.0
  0
LINE
  8
DETAIL
  6
CONTINUOUS
 62
     5
 10
49.096578679267573
 20
-73.944847114701247
 30
0.0
 11
49.996515966667573
 21
-75.24475652983449
 31
0.0
  0
LINE
  8
DETAIL
  6
CONTINUOUS
 62
     5
 10
49.996515966667573
 20
-75.24475652983449
 30
0.0
 11
51.296425381800823
 21
-76.24468684916792
 31
0.0
  0
LINE
  8
DETAIL
  6
CONTINUOUS
 62
     5
 10
51.296425381800823
 20
-76.24468684916792
 30
0.0
 11
53.096299956600937
 21
-76.444672913034651
 31
0.0
  0
LINE
  8
DETAIL
  6
CONTINUOUS
 62
     5
 10
53.096299956600937
 20
-76.444672913034651
 30
0.0
 11
54.596195435601032
 21
-76.444672913034651
 31
0.0
  0
LINE
  8
DETAIL
  6
CONTINUOUS
 62
     5
 10
54.596195435601032
 20
-76.444672913034651
 30
0.0
 11
55.996097882667698
 21
-75.644728657567953
 31
0.0
  0
LINE
  8
DETAIL
  6
CONTINUOUS
 62
     5
 10
55.996097882667698
 20
-75.644728657567953
 30
0.0
 11
57.296007297800941
 21
-74.644798338234523
 31
0.0
  0
LINE
  8
DETAIL
  6
CONTINUOUS
 62
     5
 10
57.296007297800941
 20
-74.644798338234523
 30
0.0
 11
58.095951553267639
 21
-73.144902859234548
 31
0.0
  0
LINE
  8
DETAIL
  6
CONTINUOUS
 62
     5
 10
58.095951553267639
 20
-73.144902859234548
 30
0.0
 11
58.295937617134371
 21
-71.445021316367843
 31
0.0
  0
LINE
  8
DETAIL
  6
CONTINUOUS
 62
     5
 10
-28.098041973267129
 20
-69.945125837367868
 30
0.0
 11
-27.598076813600471
 21
-69.945125837367868
 31
0.0
  0
LINE
  8
DETAIL
  6
CONTINUOUS
 62
     5
 10
-28.098041973267129
 20
-76.944638072701196
 30
0.0
 11
-27.598076813600471
 21
-76.944638072701196
 31
0.0
  0
LINE
  8
DETAIL
  6
CONTINUOUS
 62
     5
 10
-27.598076813600471
 20
-71.944986476034501
 30
0.0
 11
-27.598076813600471
 21
-74.944777434034563
 31
0.0
  0
LINE
  8
DETAIL
  6
CONTINUOUS
 62
     5
 10
-27.598076813600471
 20
-71.944986476034501
 30
0.0
 11
-27.39809074973385
 21
-71.944986476034501
 31
0.0
  0
LINE
  8
DETAIL
  6
CONTINUOUS
 62
     5
 10
-27.39809074973385
 20
-71.944986476034501
 30
0.0
 11
-26.798132558133769
 21
-71.944986476034501
 31
0.0
  0
LINE
  8
DETAIL
  6
CONTINUOUS
 62
     5
 10
-26.798132558133769
 20
-71.944986476034501
 30
0.0
 11
-26.798132558133769
 21
-71.745000412167769
 31
0.0
  0
LINE
  8
DETAIL
  6
CONTINUOUS
 62
     5
 10
-26.798132558133769
 20
-71.745000412167769
 30
0.0
 11
-26.598146494267159
 21
-71.445021316367843
 31
0.0
  0
LINE
  8
DETAIL
  6
CONTINUOUS
 62
     5
 10
-26.598146494267159
 20
-71.445021316367843
 30
0.0
 11
-26.598146494267159
 21
-70.945056156701071
 31
0.0
  0
LINE
  8
DETAIL
  6
CONTINUOUS
 62
     5
 10
-26.598146494267159
 20
-70.945056156701071
 30
0.0
 11
-26.598146494267159
 21
-70.645077060901144
 31
0.0
  0
LINE
  8
DETAIL
  6
CONTINUOUS
 62
     5
 10
-26.598146494267159
 20
-70.645077060901144
 30
0.0
 11
-26.798132558133769
 21
-70.445090997034526
 31
0.0
  0
LINE
  8
DETAIL
  6
CONTINUOUS
 62
     5
 10
-26.798132558133769
 20
-70.445090997034526
 30
0.0
 11
-26.798132558133769
 21
-70.245104933167795
 31
0.0
  0
LINE
  8
DETAIL
  6
CONTINUOUS
 62
     5
 10
-26.798132558133769
 20
-70.245104933167795
 30
0.0
 11
-27.39809074973385
 21
-69.945125837367868
 31
0.0
  0
LINE
  8
DETAIL
  6
CONTINUOUS
 62
     5
 10
-27.39809074973385
 20
-69.945125837367868
 30
0.0
 11
-27.598076813600471
 21
-69.945125837367868
 31
0.0
  0
LINE
  8
DETAIL
  6
CONTINUOUS
 62
     5
 10
-27.598076813600471
 20
-76.944638072701196
 30
0.0
 11
-27.39809074973385
 21
-76.944638072701196
 31
0.0
  0
LINE
  8
DETAIL
  6
CONTINUOUS
 62
     5
 10
-27.39809074973385
 20
-76.944638072701196
 30
0.0
 11
-26.798132558133769
 21
-76.944638072701196
 31
0.0
  0
LINE
  8
DETAIL
  6
CONTINUOUS
 62
     5
 10
-26.798132558133769
 20
-76.944638072701196
 30
0.0
 11
-26.798132558133769
 21
-76.744652008834692
 31
0.0
  0
LINE
  8
DETAIL
  6
CONTINUOUS
 62
     5
 10
-26.798132558133769
 20
-76.744652008834692
 30
0.0
 11
-26.598146494267159
 21
-76.444672913034651
 31
0.0
  0
LINE
  8
DETAIL
  6
CONTINUOUS
 62
     5
 10
-26.598146494267159
 20
-76.444672913034651
 30
0.0
 11
-26.598146494267159
 21
-75.944707753367993
 31
0.0
  0
LINE
  8
DETAIL
  6
CONTINUOUS
 62
     5
 10
-26.598146494267159
 20
-75.944707753367993
 30
0.0
 11
-26.598146494267159
 21
-75.644728657567953
 31
0.0
  0
LINE
  8
DETAIL
  6
CONTINUOUS
 62
     5
 10
-26.598146494267159
 20
-75.644728657567953
 30
0.0
 11
-26.798132558133769
 21
-75.444742593701221
 31
0.0
  0
LINE
  8
DETAIL
  6
CONTINUOUS
 62
     5
 10
-26.798132558133769
 20
-75.444742593701221
 30
0.0
 11
-26.798132558133769
 21
-75.24475652983449
 31
0.0
  0
LINE
  8
DETAIL
  6
CONTINUOUS
 62
     5
 10
-26.798132558133769
 20
-75.24475652983449
 30
0.0
 11
-27.39809074973385
 21
-74.944777434034563
 31
0.0
  0
LINE
  8
DETAIL
  6
CONTINUOUS
 62
     5
 10
-27.39809074973385
 20
-74.944777434034563
 30
0.0
 11
-27.598076813600471
 21
-74.944777434034563
 31
0.0
  0
LINE
  8
DETAIL
  6
CONTINUOUS
 62
     5
 10
-28.098041973267129
 20
-76.944638072701196
 30
0.0
 11
-28.098041973267129
 21
-186.83698016743639
 31
0.0
  0
LINE
  8
DETAIL
  6
CONTINUOUS
 62
     5
 10
124.7413073368355
 20
-69.945125837367868
 30
0.0
 11
124.2413421771689
 21
-69.945125837367868
 31
0.0
  0
LINE
  8
DETAIL
  6
CONTINUOUS
 62
     5
 10
124.2413421771689
 20
-69.945125837367868
 30
0.0
 11
124.0413561133023
 21
-70.245104933167795
 31
0.0
  0
LINE
  8
DETAIL
  6
CONTINUOUS
 62
     5
 10
124.0413561133023
 20
-70.245104933167795
 30
0.0
 11
123.7413770175021
 21
-70.245104933167795
 31
0.0
  0
LINE
  8
DETAIL
  6
CONTINUOUS
 62
     5
 10
123.7413770175021
 20
-70.245104933167795
 30
0.0
 11
123.4413979217022
 21
-70.445090997034526
 31
0.0
  0
LINE
  8
DETAIL
  6
CONTINUOUS
 62
     5
 10
123.4413979217022
 20
-70.445090997034526
 30
0.0
 11
123.2414118578356
 21
-70.945056156701071
 31
0.0
  0
LINE
  8
DETAIL
  6
CONTINUOUS
 62
     5
 10
123.2414118578356
 20
-70.945056156701071
 30
0.0
 11
123.2414118578356
 21
-71.245035252501111
 31
0.0
  0
LINE
  8
DETAIL
  6
CONTINUOUS
 62
     5
 10
123.2414118578356
 20
-71.245035252501111
 30
0.0
 11
123.4413979217022
 21
-71.445021316367843
 31
0.0
  0
LINE
  8
DETAIL
  6
CONTINUOUS
 62
     5
 10
123.4413979217022
 20
-71.445021316367843
 30
0.0
 11
123.7413770175021
 21
-71.745000412167769
 31
0.0
  0
LINE
  8
DETAIL
  6
CONTINUOUS
 62
     5
 10
123.7413770175021
 20
-71.745000412167769
 30
0.0
 11
124.0413561133023
 21
-71.944986476034501
 31
0.0
  0
LINE
  8
DETAIL
  6
CONTINUOUS
 62
     5
 10
124.0413561133023
 20
-71.944986476034501
 30
0.0
 11
124.2413421771689
 21
-71.944986476034501
 31
0.0
  0
LINE
  8
DETAIL
  6
CONTINUOUS
 62
     5
 10
124.2413421771689
 20
-71.944986476034501
 30
0.0
 11
124.2413421771689
 21
-74.944777434034563
 31
0.0
  0
LINE
  8
DETAIL
  6
CONTINUOUS
 62
     5
 10
124.7413073368355
 20
-76.944638072701196
 30
0.0
 11
124.2413421771689
 21
-76.944638072701196
 31
0.0
  0
LINE
  8
DETAIL
  6
CONTINUOUS
 62
     5
 10
124.2413421771689
 20
-74.944777434034563
 30
0.0
 11
124.0413561133023
 21
-75.24475652983449
 31
0.0
  0
LINE
  8
DETAIL
  6
CONTINUOUS
 62
     5
 10
124.0413561133023
 20
-75.24475652983449
 30
0.0
 11
123.7413770175021
 21
-75.24475652983449
 31
0.0
  0
LINE
  8
DETAIL
  6
CONTINUOUS
 62
     5
 10
123.7413770175021
 20
-75.24475652983449
 30
0.0
 11
123.4413979217022
 21
-75.444742593701221
 31
0.0
  0
LINE
  8
DETAIL
  6
CONTINUOUS
 62
     5
 10
123.4413979217022
 20
-75.444742593701221
 30
0.0
 11
123.2414118578356
 21
-75.944707753367993
 31
0.0
  0
LINE
  8
DETAIL
  6
CONTINUOUS
 62
     5
 10
123.2414118578356
 20
-75.944707753367993
 30
0.0
 11
123.2414118578356
 21
-76.24468684916792
 31
0.0
  0
LINE
  8
DETAIL
  6
CONTINUOUS
 62
     5
 10
123.2414118578356
 20
-76.24468684916792
 30
0.0
 11
123.4413979217022
 21
-76.444672913034651
 31
0.0
  0
LINE
  8
DETAIL
  6
CONTINUOUS
 62
     5
 10
123.4413979217022
 20
-76.444672913034651
 30
0.0
 11
123.7413770175021
 21
-76.744652008834692
 31
0.0
  0
LINE
  8
DETAIL
  6
CONTINUOUS
 62
     5
 10
123.7413770175021
 20
-76.744652008834692
 30
0.0
 11
124.0413561133023
 21
-76.944638072701196
 31
0.0
  0
LINE
  8
DETAIL
  6
CONTINUOUS
 62
     5
 10
124.0413561133023
 20
-76.944638072701196
 30
0.0
 11
124.2413421771689
 21
-76.944638072701196
 31
0.0
  0
LINE
  8
DETAIL
  6
CONTINUOUS
 62
     5
 10
124.7413073368355
 20
-76.944638072701196
 30
0.0
 11
124.7413073368355
 21
-104.642707918235
 31
0.0
  0
LINE
  8
DETAIL
  6
CONTINUOUS
 62
     5
 10
-28.098041973267129
 20
-193.83649240276989
 30
0.0
 11
-27.598076813600471
 21
-193.83649240276989
 31
0.0
  0
LINE
  8
DETAIL
  6
CONTINUOUS
 62
     5
 10
-27.598076813600471
 20
-193.83649240276989
 30
0.0
 11
-27.39809074973385
 21
-193.83649240276989
 31
0.0
  0
LINE
  8
DETAIL
  6
CONTINUOUS
 62
     5
 10
-27.39809074973385
 20
-193.83649240276989
 30
0.0
 11
-26.798132558133769
 21
-193.83649240276989
 31
0.0
  0
LINE
  8
DETAIL
  6
CONTINUOUS
 62
     5
 10
-26.798132558133769
 20
-193.83649240276989
 30
0.0
 11
-26.798132558133769
 21
-193.63650633890319
 31
0.0
  0
LINE
  8
DETAIL
  6
CONTINUOUS
 62
     5
 10
-26.798132558133769
 20
-193.63650633890319
 30
0.0
 11
-26.598146494267159
 21
-193.33652724310329
 31
0.0
  0
LINE
  8
DETAIL
  6
CONTINUOUS
 62
     5
 10
-26.598146494267159
 20
-193.33652724310329
 30
0.0
 11
-26.598146494267159
 21
-192.83656208343649
 31
0.0
  0
LINE
  8
DETAIL
  6
CONTINUOUS
 62
     5
 10
-26.598146494267159
 20
-192.83656208343649
 30
0.0
 11
-26.598146494267159
 21
-192.6365760195699
 31
0.0
  0
LINE
  8
DETAIL
  6
CONTINUOUS
 62
     5
 10
-26.598146494267159
 20
-192.6365760195699
 30
0.0
 11
-26.798132558133769
 21
-192.33659692377
 31
0.0
  0
LINE
  8
DETAIL
  6
CONTINUOUS
 62
     5
 10
-26.798132558133769
 20
-192.33659692377
 30
0.0
 11
-26.798132558133769
 21
-192.03661782796971
 31
0.0
  0
LINE
  8
DETAIL
  6
CONTINUOUS
 62
     5
 10
-26.798132558133769
 20
-192.03661782796971
 30
0.0
 11
-27.39809074973385
 21
-191.8366317641032
 31
0.0
  0
LINE
  8
DETAIL
  6
CONTINUOUS
 62
     5
 10
-27.39809074973385
 20
-191.8366317641032
 30
0.0
 11
-27.598076813600471
 21
-191.8366317641032
 31
0.0
  0
LINE
  8
DETAIL
  6
CONTINUOUS
 62
     5
 10
-27.598076813600471
 20
-191.8366317641032
 30
0.0
 11
-27.598076813600471
 21
-188.83684080610331
 31
0.0
  0
LINE
  8
DETAIL
  6
CONTINUOUS
 62
     5
 10
-28.098041973267129
 20
-186.83698016743639
 30
0.0
 11
-27.598076813600471
 21
-186.83698016743639
 31
0.0
  0
LINE
  8
DETAIL
  6
CONTINUOUS
 62
     5
 10
-27.598076813600471
 20
-188.83684080610331
 30
0.0
 11
-27.39809074973385
 21
-188.83684080610331
 31
0.0
  0
LINE
  8
DETAIL
  6
CONTINUOUS
 62
     5
 10
-27.39809074973385
 20
-188.83684080610331
 30
0.0
 11
-26.798132558133769
 21
-188.83684080610331
 31
0.0
  0
LINE
  8
DETAIL
  6
CONTINUOUS
 62
     5
 10
-26.798132558133769
 20
-188.83684080610331
 30
0.0
 11
-26.798132558133769
 21
-188.63685474223641
 31
0.0
  0
LINE
  8
DETAIL
  6
CONTINUOUS
 62
     5
 10
-26.798132558133769
 20
-188.63685474223641
 30
0.0
 11
-26.598146494267159
 21
-188.33687564643651
 31
0.0
  0
LINE
  8
DETAIL
  6
CONTINUOUS
 62
     5
 10
-26.598146494267159
 20
-188.33687564643651
 30
0.0
 11
-26.598146494267159
 21
-187.83691048676971
 31
0.0
  0
LINE
  8
DETAIL
  6
CONTINUOUS
 62
     5
 10
-26.598146494267159
 20
-187.83691048676971
 30
0.0
 11
-26.598146494267159
 21
-187.63692442290329
 31
0.0
  0
LINE
  8
DETAIL
  6
CONTINUOUS
 62
     5
 10
-26.598146494267159
 20
-187.63692442290329
 30
0.0
 11
-26.798132558133769
 21
-187.33694532710319
 31
0.0
  0
LINE
  8
DETAIL
  6
CONTINUOUS
 62
     5
 10
-26.798132558133769
 20
-187.33694532710319
 30
0.0
 11
-26.798132558133769
 21
-187.0369662313033
 31
0.0
  0
LINE
  8
DETAIL
  6
CONTINUOUS
 62
     5
 10
-26.798132558133769
 20
-187.0369662313033
 30
0.0
 11
-27.39809074973385
 21
-186.83698016743639
 31
0.0
  0
LINE
  8
DETAIL
  6
CONTINUOUS
 62
     5
 10
-27.39809074973385
 20
-186.83698016743639
 30
0.0
 11
-27.598076813600471
 21
-186.83698016743639
 31
0.0
  0
LINE
  8
DETAIL
  6
CONTINUOUS
 62
     5
 10
124.7413073368355
 20
-193.83649240276989
 30
0.0
 11
124.2413421771689
 21
-193.83649240276989
 31
0.0
  0
LINE
  8
DETAIL
  6
CONTINUOUS
 62
     5
 10
124.7413073368355
 20
-186.83698016743639
 30
0.0
 11
124.2413421771689
 21
-186.83698016743639
 31
0.0
  0
LINE
  8
DETAIL
  6
CONTINUOUS
 62
     5
 10
124.2413421771689
 20
-191.8366317641032
 30
0.0
 11
124.0413561133023
 21
-192.03661782796971
 31
0.0
  0
LINE
  8
DETAIL
  6
CONTINUOUS
 62
     5
 10
124.0413561133023
 20
-192.03661782796971
 30
0.0
 11
123.7413770175021
 21
-192.03661782796971
 31
0.0
  0
LINE
  8
DETAIL
  6
CONTINUOUS
 62
     5
 10
123.7413770175021
 20
-192.03661782796971
 30
0.0
 11
123.4413979217022
 21
-192.33659692377
 31
0.0
  0
LINE
  8
DETAIL
  6
CONTINUOUS
 62
     5
 10
123.4413979217022
 20
-192.33659692377
 30
0.0
 11
123.2414118578356
 21
-192.83656208343649
 31
0.0
  0
LINE
  8
DETAIL
  6
CONTINUOUS
 62
     5
 10
123.2414118578356
 20
-192.83656208343649
 30
0.0
 11
123.2414118578356
 21
-193.1365411792367
 31
0.0
  0
LINE
  8
DETAIL
  6
CONTINUOUS
 62
     5
 10
123.2414118578356
 20
-193.1365411792367
 30
0.0
 11
123.4413979217022
 21
-193.33652724310329
 31
0.0
  0
LINE
  8
DETAIL
  6
CONTINUOUS
 62
     5
 10
123.4413979217022
 20
-193.33652724310329
 30
0.0
 11
123.7413770175021
 21
-193.63650633890319
 31
0.0
  0
LINE
  8
DETAIL
  6
CONTINUOUS
 62
     5
 10
123.7413770175021
 20
-193.63650633890319
 30
0.0
 11
124.0413561133023
 21
-193.83649240276989
 31
0.0
  0
LINE
  8
DETAIL
  6
CONTINUOUS
 62
     5
 10
124.0413561133023
 20
-193.83649240276989
 30
0.0
 11
124.2413421771689
 21
-193.83649240276989
 31
0.0
  0
LINE
  8
DETAIL
  6
CONTINUOUS
 62
     5
 10
124.2413421771689
 20
-191.8366317641032
 30
0.0
 11
124.2413421771689
 21
-188.83684080610331
 31
0.0
  0
LINE
  8
DETAIL
  6
CONTINUOUS
 62
     5
 10
124.2413421771689
 20
-186.83698016743639
 30
0.0
 11
124.0413561133023
 21
-187.0369662313033
 31
0.0
  0
LINE
  8
DETAIL
  6
CONTINUOUS
 62
     5
 10
124.0413561133023
 20
-187.0369662313033
 30
0.0
 11
123.7413770175021
 21
-187.0369662313033
 31
0.0
  0
LINE
  8
DETAIL
  6
CONTINUOUS
 62
     5
 10
123.7413770175021
 20
-187.0369662313033
 30
0.0
 11
123.4413979217022
 21
-187.33694532710319
 31
0.0
  0
LINE
  8
DETAIL
  6
CONTINUOUS
 62
     5
 10
123.4413979217022
 20
-187.33694532710319
 30
0.0
 11
123.2414118578356
 21
-187.83691048676971
 31
0.0
  0
LINE
  8
DETAIL
  6
CONTINUOUS
 62
     5
 10
123.2414118578356
 20
-187.83691048676971
 30
0.0
 11
123.2414118578356
 21
-188.13688958256989
 31
0.0
  0
LINE
  8
DETAIL
  6
CONTINUOUS
 62
     5
 10
123.2414118578356
 20
-188.13688958256989
 30
0.0
 11
123.4413979217022
 21
-188.33687564643651
 31
0.0
  0
LINE
  8
DETAIL
  6
CONTINUOUS
 62
     5
 10
123.4413979217022
 20
-188.33687564643651
 30
0.0
 11
123.7413770175021
 21
-188.63685474223641
 31
0.0
  0
LINE
  8
DETAIL
  6
CONTINUOUS
 62
     5
 10
123.7413770175021
 20
-188.63685474223641
 30
0.0
 11
124.0413561133023
 21
-188.83684080610331
 31
0.0
  0
LINE
  8
DETAIL
  6
CONTINUOUS
 62
     5
 10
124.0413561133023
 20
-188.83684080610331
 30
0.0
 11
124.2413421771689
 21
-188.83684080610331
 31
0.0
  0
LINE
  8
DETAIL
  6
CONTINUOUS
 62
     5
 10
124.7413073368355
 20
-193.83649240276989
 30
0.0
 11
124.7413073368355
 21
-196.3363182011033
 31
0.0
  0
LINE
  8
DETAIL
  6
CONTINUOUS
 62
     5
 10
-28.098041973267129
 20
-193.83649240276989
 30
0.0
 11
-28.098041973267129
 21
-196.3363182011033
 31
0.0
  0
LINE
  8
DETAIL
  6
CONTINUOUS
 62
     5
 10
44.096927082600757
 20
-71.445021316367843
 30
0.0
 11
43.796947986800717
 21
-69.945125837367868
 31
0.0
  0
LINE
  8
DETAIL
  6
CONTINUOUS
 62
     5
 10
43.796947986800717
 20
-69.945125837367868
 30
0.0
 11
43.096996763267441
 21
-68.745209454167821
 31
0.0
  0
LINE
  8
DETAIL
  6
CONTINUOUS
 62
     5
 10
43.096996763267441
 20
-68.745209454167821
 30
0.0
 11
42.097066443934011
 21
-67.745279134834391
 31
0.0
  0
LINE
  8
DETAIL
  6
CONTINUOUS
 62
     5
 10
42.097066443934011
 20
-67.745279134834391
 30
0.0
 11
40.597170964934037
 21
-66.945334879367806
 31
0.0
  0
LINE
  8
DETAIL
  6
CONTINUOUS
 62
     5
 10
40.597170964934037
 20
-66.945334879367806
 30
0.0
 11
39.147272001900717
 21
-66.945334879367806
 31
0.0
  0
LINE
  8
DETAIL
  6
CONTINUOUS
 62
     5
 10
39.147272001900717
 20
-66.945334879367806
 30
0.0
 11
37.54738349096732
 21
-67.145320943234424
 31
0.0
  0
LINE
  8
DETAIL
  6
CONTINUOUS
 62
     5
 10
37.54738349096732
 20
-67.145320943234424
 30
0.0
 11
36.347467107767272
 21
-67.945265198701122
 31
0.0
  0
LINE
  8
DETAIL
  6
CONTINUOUS
 62
     5
 10
36.347467107767272
 20
-67.945265198701122
 30
0.0
 11
35.347536788433843
 21
-69.245174613834479
 31
0.0
  0
LINE
  8
DETAIL
  6
CONTINUOUS
 62
     5
 10
35.347536788433843
 20
-69.245174613834479
 30
0.0
 11
34.847571628767298
 21
-70.645077060901144
 31
0.0
  0
LINE
  8
DETAIL
  6
CONTINUOUS
 62
     5
 10
34.847571628767298
 20
-70.645077060901144
 30
0.0
 11
34.847571628767298
 21
-72.144972539901232
 31
0.0
  0
LINE
  8
DETAIL
  6
CONTINUOUS
 62
     5
 10
34.847571628767298
 20
-72.144972539901232
 30
0.0
 11
35.347536788433843
 21
-73.744861050834515
 31
0.0
  0
LINE
  8
DETAIL
  6
CONTINUOUS
 62
     5
 10
35.347536788433843
 20
-73.744861050834515
 30
0.0
 11
36.347467107767272
 21
-74.944777434034563
 31
0.0
  0
LINE
  8
DETAIL
  6
CONTINUOUS
 62
     5
 10
36.347467107767272
 20
-74.944777434034563
 30
0.0
 11
37.54738349096732
 21
-75.644728657567953
 31
0.0
  0
LINE
  8
DETAIL
  6
CONTINUOUS
 62
     5
 10
37.54738349096732
 20
-75.644728657567953
 30
0.0
 11
39.147272001900717
 21
-76.24468684916792
 31
0.0
  0
LINE
  8
DETAIL
  6
CONTINUOUS
 62
     5
 10
39.147272001900717
 20
-76.24468684916792
 30
0.0
 11
40.597170964934037
 21
-75.944707753367993
 31
0.0
  0
LINE
  8
DETAIL
  6
CONTINUOUS
 62
     5
 10
40.597170964934037
 20
-75.944707753367993
 30
0.0
 11
42.097066443934011
 21
-75.444742593701221
 31
0.0
  0
LINE
  8
DETAIL
  6
CONTINUOUS
 62
     5
 10
42.097066443934011
 20
-75.444742593701221
 30
0.0
 11
43.096996763267441
 21
-74.444812274367905
 31
0.0
  0
LINE
  8
DETAIL
  6
CONTINUOUS
 62
     5
 10
43.096996763267441
 20
-74.444812274367905
 30
0.0
 11
43.796947986800717
 21
-72.944916795367817
 31
0.0
  0
LINE
  8
DETAIL
  6
CONTINUOUS
 62
     5
 10
43.796947986800717
 20
-72.944916795367817
 30
0.0
 11
44.096927082600757
 21
-71.445021316367843
 31
0.0
  0
LINE
  8
DETAIL
  6
CONTINUOUS
 62
     5
 10
62.495644958334367
 20
-73.944847114701247
 30
0.0
 11
111.54222712163519
 21
-73.944847114701247
 31
0.0
  0
LINE
  8
DETAIL
  6
CONTINUOUS
 62
     5
 10
-14.9489582740336
 20
-73.944847114701247
 30
0.0
 11
-14.34900008243352
 21
-73.944847114701247
 31
0.0
  0
LINE
  8
DETAIL
  6
CONTINUOUS
 62
     5
 10
6.049578431966836
 20
-192.83656208343649
 30
0.0
 11
111.54222712163519
 21
-192.83656208343649
 31
0.0
  0
LINE
  8
DETAIL
  6
CONTINUOUS
 62
     5
 10
54.096230275934261
 20
-79.944429030701372
 30
0.0
 11
55.796111818800973
 21
-79.644449934901331
 31
0.0
  0
LINE
  8
DETAIL
  6
CONTINUOUS
 62
     5
 10
55.796111818800973
 20
-79.644449934901331
 30
0.0
 11
57.495993361667672
 21
-78.944498711367942
 31
0.0
  0
LINE
  8
DETAIL
  6
CONTINUOUS
 62
     5
 10
57.495993361667672
 20
-78.944498711367942
 30
0.0
 11
58.795902776801029
 21
-77.744582328167894
 31
0.0
  0
LINE
  8
DETAIL
  6
CONTINUOUS
 62
     5
 10
58.795902776801029
 20
-77.744582328167894
 30
0.0
 11
59.595847032267727
 21
-75.944707753367993
 31
0.0
  0
LINE
  8
DETAIL
  6
CONTINUOUS
 62
     5
 10
35.047557692633923
 20
-79.944429030701372
 30
0.0
 11
54.096230275934261
 21
-79.944429030701372
 31
0.0
  0
LINE
  8
DETAIL
  6
CONTINUOUS
 62
     5
 10
29.347954872433949
 20
-75.944707753367993
 30
0.0
 11
30.347885191767151
 21
-77.744582328167894
 31
0.0
  0
LINE
  8
DETAIL
  6
CONTINUOUS
 62
     5
 10
30.347885191767151
 20
-77.744582328167894
 30
0.0
 11
31.647794606900622
 21
-78.944498711367942
 31
0.0
  0
LINE
  8
DETAIL
  6
CONTINUOUS
 62
     5
 10
31.647794606900622
 20
-78.944498711367942
 30
0.0
 11
33.347676149767317
 21
-79.644449934901331
 31
0.0
  0
LINE
  8
DETAIL
  6
CONTINUOUS
 62
     5
 10
33.347676149767317
 20
-79.644449934901331
 30
0.0
 11
35.047557692633923
 21
-79.944429030701372
 31
0.0
  0
LINE
  8
DETAIL
  6
CONTINUOUS
 62
     5
 10
-24.898264951400449
 20
-106.94254765270171
 30
0.0
 11
-20.34858199843362
 21
-106.94254765270171
 31
0.0
  0
LINE
  8
DETAIL
  6
CONTINUOUS
 62
     5
 10
-27.798062877467061
 20
-103.9427566947018
 30
0.0
 11
-27.598076813600471
 21
-104.9426870140352
 31
0.0
  0
LINE
  8
DETAIL
  6
CONTINUOUS
 62
     5
 10
-27.598076813600471
 20
-104.9426870140352
 30
0.0
 11
-27.39809074973385
 21
-105.64263823756851
 31
0.0
  0
LINE
  8
DETAIL
  6
CONTINUOUS
 62
     5
 10
-27.39809074973385
 20
-105.64263823756851
 30
0.0
 11
-26.598146494267159
 21
-106.4425824930352
 31
0.0
  0
LINE
  8
DETAIL
  6
CONTINUOUS
 62
     5
 10
-26.598146494267159
 20
-106.4425824930352
 30
0.0
 11
-25.79820223880057
 21
-106.94254765270171
 31
0.0
  0
LINE
  8
DETAIL
  6
CONTINUOUS
 62
     5
 10
-25.79820223880057
 20
-106.94254765270171
 30
0.0
 11
-24.898264951400449
 21
-106.94254765270171
 31
0.0
  0
LINE
  8
DETAIL
  6
CONTINUOUS
 62
     5
 10
-27.798062877467061
 20
-86.943941266034813
 30
0.0
 11
-27.798062877467061
 21
-103.9427566947018
 31
0.0
  0
LINE
  8
DETAIL
  6
CONTINUOUS
 62
     5
 10
-24.898264951400449
 20
-149.8895548680691
 30
0.0
 11
-20.34858199843362
 21
-149.8895548680691
 31
0.0
  0
LINE
  8
DETAIL
  6
CONTINUOUS
 62
     5
 10
-24.898264951400449
 20
-149.8895548680691
 30
0.0
 11
-25.79820223880057
 21
-150.18953396386931
 31
0.0
  0
LINE
  8
DETAIL
  6
CONTINUOUS
 62
     5
 10
-25.79820223880057
 20
-150.18953396386931
 30
0.0
 11
-26.598146494267159
 21
-150.58950609160249
 31
0.0
  0
LINE
  8
DETAIL
  6
CONTINUOUS
 62
     5
 10
-26.598146494267159
 20
-150.58950609160249
 30
0.0
 11
-27.39809074973385
 21
-151.1894642832026
 31
0.0
  0
LINE
  8
DETAIL
  6
CONTINUOUS
 62
     5
 10
-27.39809074973385
 20
-151.1894642832026
 30
0.0
 11
-27.598076813600471
 21
-152.0894015706026
 31
0.0
  0
LINE
  8
DETAIL
  6
CONTINUOUS
 62
     5
 10
-27.598076813600471
 20
-152.0894015706026
 30
0.0
 11
-27.798062877467061
 21
-152.8893458260693
 31
0.0
  0
LINE
  8
DETAIL
  6
CONTINUOUS
 62
     5
 10
-27.798062877467061
 20
-152.8893458260693
 30
0.0
 11
-27.798062877467061
 21
-175.88774317073629
 31
0.0
  0
LINE
  8
DETAIL
  6
CONTINUOUS
 62
     5
 10
4.6496759849000568
 20
-179.88746444806969
 30
0.0
 11
-14.34900008243352
 21
-160.88878838073609
 31
0.0
  0
LINE
  8
DETAIL
  6
CONTINUOUS
 62
     5
 10
124.5413212729688
 20
-86.943941266034813
 30
0.0
 11
124.5413212729688
 21
-179.88746444806969
 31
0.0
  0
LINE
  8
DETAIL
  6
CONTINUOUS
 62
     5
 10
124.5413212729688
 20
-86.943941266034813
 30
0.0
 11
123.7413770175021
 21
-82.94421998870132
 31
0.0
  0
LINE
  8
DETAIL
  6
CONTINUOUS
 62
     5
 10
123.7413770175021
 20
-82.94421998870132
 30
0.0
 11
122.0414954746355
 21
-79.4444638710346
 31
0.0
  0
LINE
  8
DETAIL
  6
CONTINUOUS
 62
     5
 10
122.0414954746355
 20
-79.4444638710346
 30
0.0
 11
119.04170451663541
 21
-76.444672913034651
 31
0.0
  0
LINE
  8
DETAIL
  6
CONTINUOUS
 62
     5
 10
119.04170451663541
 20
-76.444672913034651
 30
0.0
 11
115.5419483989687
 21
-74.644798338234523
 31
0.0
  0
LINE
  8
DETAIL
  6
CONTINUOUS
 62
     5
 10
115.5419483989687
 20
-74.644798338234523
 30
0.0
 11
111.54222712163519
 21
-73.944847114701247
 31
0.0
  0
LINE
  8
DETAIL
  6
CONTINUOUS
 62
     5
 10
111.54222712163519
 20
-192.83656208343649
 30
0.0
 11
115.5419483989687
 21
-192.33659692377
 31
0.0
  0
LINE
  8
DETAIL
  6
CONTINUOUS
 62
     5
 10
115.5419483989687
 20
-192.33659692377
 30
0.0
 11
119.04170451663541
 21
-190.33673628510309
 31
0.0
  0
LINE
  8
DETAIL
  6
CONTINUOUS
 62
     5
 10
119.04170451663541
 20
-190.33673628510309
 30
0.0
 11
122.0414954746355
 21
-187.63692442290329
 31
0.0
  0
LINE
  8
DETAIL
  6
CONTINUOUS
 62
     5
 10
122.0414954746355
 20
-187.63692442290329
 30
0.0
 11
123.7413770175021
 21
-183.88718572540299
 31
0.0
  0
LINE
  8
DETAIL
  6
CONTINUOUS
 62
     5
 10
123.7413770175021
 20
-183.88718572540299
 30
0.0
 11
124.5413212729688
 21
-179.88746444806969
 31
0.0
  0
LINE
  8
DETAIL
  6
CONTINUOUS
 62
     5
 10
-14.9489582740336
 20
-73.944847114701247
 30
0.0
 11
-18.948679551366951
 21
-74.644798338234523
 31
0.0
  0
LINE
  8
DETAIL
  6
CONTINUOUS
 62
     5
 10
-18.948679551366951
 20
-74.644798338234523
 30
0.0
 11
-22.648421732900431
 21
-76.444672913034651
 31
0.0
  0
LINE
  8
DETAIL
  6
CONTINUOUS
 62
     5
 10
-22.648421732900431
 20
-76.444672913034651
 30
0.0
 11
-25.29823707913377
 21
-79.4444638710346
 31
0.0
  0
LINE
  8
DETAIL
  6
CONTINUOUS
 62
     5
 10
-25.29823707913377
 20
-79.4444638710346
 30
0.0
 11
-27.09811165393381
 21
-82.94421998870132
 31
0.0
  0
LINE
  8
DETAIL
  6
CONTINUOUS
 62
     5
 10
-27.09811165393381
 20
-82.94421998870132
 30
0.0
 11
-27.798062877467061
 21
-86.943941266034813
 31
0.0
  0
LINE
  8
DETAIL
  6
CONTINUOUS
 62
     5
 10
4.6496759849000568
 20
-179.88746444806969
 30
0.0
 11
6.8495226874334207
 21
-181.58734599093651
 31
0.0
  0
LINE
  8
DETAIL
  6
CONTINUOUS
 62
     5
 10
6.8495226874334207
 20
-181.58734599093651
 30
0.0
 11
9.1493624219002072
 21
-182.68726934220311
 31
0.0
  0
LINE
  8
DETAIL
  6
CONTINUOUS
 62
     5
 10
9.1493624219002072
 20
-182.68726934220311
 30
0.0
 11
11.849174284100229
 21
-182.8872554060699
 31
0.0
  0
LINE
  8
DETAIL
  6
CONTINUOUS
 62
     5
 10
-17.448784072367001
 20
-153.88927614540259
 30
0.0
 11
-17.148804976566961
 21
-156.38910194373599
 31
0.0
  0
LINE
  8
DETAIL
  6
CONTINUOUS
 62
     5
 10
-17.148804976566961
 20
-156.38910194373599
 30
0.0
 11
-16.14887465723362
 21
-158.8889277420694
 31
0.0
  0
LINE
  8
DETAIL
  6
CONTINUOUS
 62
     5
 10
-16.14887465723362
 20
-158.8889277420694
 30
0.0
 11
-14.34900008243352
 21
-160.88878838073609
 31
0.0
  0
LINE
  8
DETAIL
  6
CONTINUOUS
 62
     5
 10
92.093582410601641
 20
-86.943941266034813
 30
0.0
 11
89.793742676134855
 21
-85.444045787034725
 31
0.0
  0
LINE
  8
DETAIL
  6
CONTINUOUS
 62
     5
 10
89.793742676134855
 20
-85.444045787034725
 30
0.0
 11
87.493902941668182
 21
-84.444115467701408
 31
0.0
  0
LINE
  8
DETAIL
  6
CONTINUOUS
 62
     5
 10
87.493902941668182
 20
-84.444115467701408
 30
0.0
 11
84.794091079468217
 21
-83.94415030803475
 31
0.0
  0
LINE
  8
DETAIL
  6
CONTINUOUS
 62
     5
 10
114.0420529199688
 20
-113.1421156325686
 30
0.0
 11
113.4420947283687
 21
-110.6422898342352
 31
0.0
  0
LINE
  8
DETAIL
  6
CONTINUOUS
 62
     5
 10
113.4420947283687
 20
-110.6422898342352
 30
0.0
 11
112.7421435048353
 21
-108.1424640359019
 31
0.0
  0
LINE
  8
DETAIL
  6
CONTINUOUS
 62
     5
 10
112.7421435048353
 20
-108.1424640359019
 30
0.0
 11
110.9422689300353
 21
-106.2425964291684
 31
0.0
  0
LINE
  8
DETAIL
  6
CONTINUOUS
 62
     5
 10
-7.4494808790333877
 20
-83.94415030803475
 30
0.0
 11
84.794091079468217
 21
-83.94415030803475
 31
0.0
  0
LINE
  8
DETAIL
  6
CONTINUOUS
 62
     5
 10
114.0420529199688
 20
-113.1421156325686
 30
0.0
 11
114.0420529199688
 21
-172.88795221273631
 31
0.0
  0
LINE
  8
DETAIL
  6
CONTINUOUS
 62
     5
 10
110.9422689300353
 20
-106.2425964291684
 30
0.0
 11
92.093582410601641
 21
-86.943941266034813
 31
0.0
  0
LINE
  8
DETAIL
  6
CONTINUOUS
 62
     5
 10
11.849174284100229
 20
-182.8872554060699
 30
0.0
 11
104.04274972663509
 21
-182.8872554060699
 31
0.0
  0
LINE
  8
DETAIL
  6
CONTINUOUS
 62
     5
 10
-17.448784072367001
 20
-93.94345350136814
 30
0.0
 11
-17.448784072367001
 21
-153.88927614540259
 31
0.0
  0
LINE
  8
DETAIL
  6
CONTINUOUS
 62
     5
 10
104.04274972663509
 20
-182.8872554060699
 30
0.0
 11
107.0425406846352
 21
-182.38729024640321
 31
0.0
  0
LINE
  8
DETAIL
  6
CONTINUOUS
 62
     5
 10
107.0425406846352
 20
-182.38729024640321
 30
0.0
 11
109.74235254683531
 21
-181.18737386320319
 31
0.0
  0
LINE
  8
DETAIL
  6
CONTINUOUS
 62
     5
 10
109.74235254683531
 20
-181.18737386320319
 30
0.0
 11
112.04219228130199
 21
-178.88753412873641
 31
0.0
  0
LINE
  8
DETAIL
  6
CONTINUOUS
 62
     5
 10
112.04219228130199
 20
-178.88753412873641
 30
0.0
 11
113.4420947283687
 21
-176.18772226653641
 31
0.0
  0
LINE
  8
DETAIL
  6
CONTINUOUS
 62
     5
 10
113.4420947283687
 20
-176.18772226653641
 30
0.0
 11
114.0420529199688
 21
-172.88795221273631
 31
0.0
  0
LINE
  8
DETAIL
  6
CONTINUOUS
 62
     5
 10
-7.4494808790333877
 20
-83.94415030803475
 30
0.0
 11
-10.349278805100139
 21
-84.444115467701408
 31
0.0
  0
LINE
  8
DETAIL
  6
CONTINUOUS
 62
     5
 10
-10.349278805100139
 20
-84.444115467701408
 30
0.0
 11
-13.149083699233559
 21
-85.944010946701496
 31
0.0
  0
LINE
  8
DETAIL
  6
CONTINUOUS
 62
     5
 10
-13.149083699233559
 20
-85.944010946701496
 30
0.0
 11
-15.34893040176695
 21
-88.143857649234747
 31
0.0
  0
LINE
  8
DETAIL
  6
CONTINUOUS
 62
     5
 10
-15.34893040176695
 20
-88.143857649234747
 30
0.0
 11
-16.848825880767009
 21
-90.943662543368191
 31
0.0
  0
LINE
  8
DETAIL
  6
CONTINUOUS
 62
     5
 10
-16.848825880767009
 20
-90.943662543368191
 30
0.0
 11
-17.448784072367001
 21
-93.94345350136814
 31
0.0
  0
LINE
  8
DETAIL
  6
CONTINUOUS
 62
     5
 10
62.495644958334367
 20
-73.944847114701247
 30
0.0
 11
61.59570767093436
 21
-74.244826210501174
 31
0.0
  0
LINE
  8
DETAIL
  6
CONTINUOUS
 62
     5
 10
61.59570767093436
 20
-74.244826210501174
 30
0.0
 11
60.795763415467661
 21
-74.644798338234523
 31
0.0
  0
LINE
  8
DETAIL
  6
CONTINUOUS
 62
     5
 10
60.795763415467661
 20
-74.644798338234523
 30
0.0
 11
59.995819160000963
 21
-75.24475652983449
 31
0.0
  0
LINE
  8
DETAIL
  6
CONTINUOUS
 62
     5
 10
59.995819160000963
 20
-75.24475652983449
 30
0.0
 11
59.595847032267727
 21
-75.944707753367993
 31
0.0
  0
LINE
  8
DETAIL
  6
CONTINUOUS
 62
     5
 10
29.347954872433949
 20
-75.944707753367993
 30
0.0
 11
28.84798971276717
 21
-75.24475652983449
 31
0.0
  0
LINE
  8
DETAIL
  6
CONTINUOUS
 62
     5
 10
28.84798971276717
 20
-75.24475652983449
 30
0.0
 11
28.34802455310054
 21
-74.644798338234523
 31
0.0
  0
LINE
  8
DETAIL
  6
CONTINUOUS
 62
     5
 10
28.34802455310054
 20
-74.644798338234523
 30
0.0
 11
27.54808029763382
 21
-74.244826210501174
 31
0.0
  0
LINE
  8
DETAIL
  6
CONTINUOUS
 62
     5
 10
27.54808029763382
 20
-74.244826210501174
 30
0.0
 11
26.648143010233809
 21
-73.944847114701247
 31
0.0
  0
LINE
  8
DETAIL
  6
CONTINUOUS
 62
     5
 10
-7.8494530067668222
 20
-73.944847114701247
 30
0.0
 11
-8.9493763580334758
 21
-74.944777434034563
 31
0.0
  0
LINE
  8
DETAIL
  6
CONTINUOUS
 62
     5
 10
-13.349069763100291
 20
-74.944777434034563
 30
0.0
 11
-8.9493763580334758
 21
-74.944777434034563
 31
0.0
  0
LINE
  8
DETAIL
  6
CONTINUOUS
 62
     5
 10
-13.349069763100291
 20
-74.944777434034563
 30
0.0
 11
-14.34900008243352
 21
-73.944847114701247
 31
0.0
  0
LINE
  8
DETAIL
  6
CONTINUOUS
 62
     5
 10
-7.8494530067668222
 20
-73.944847114701247
 30
0.0
 11
26.648143010233809
 21
-73.944847114701247
 31
0.0
  0
LINE
  8
DETAIL
  6
CONTINUOUS
 62
     5
 10
-0.1499895479000202
 20
-189.33680596577011
 30
0.0
 11
-1.149919867233308
 21
-187.83691048676971
 31
0.0
  0
LINE
  8
DETAIL
  6
CONTINUOUS
 62
     5
 10
-1.149919867233308
 20
-187.83691048676971
 30
0.0
 11
-2.649815346233424
 21
-186.83698016743639
 31
0.0
  0
LINE
  8
DETAIL
  6
CONTINUOUS
 62
     5
 10
-2.649815346233424
 20
-186.83698016743639
 30
0.0
 11
-4.3496968890999881
 21
-186.13702894390329
 31
0.0
  0
LINE
  8
DETAIL
  6
CONTINUOUS
 62
     5
 10
-4.3496968890999881
 20
-186.13702894390329
 30
0.0
 11
-6.1495714639001449
 21
-185.83704984810331
 31
0.0
  0
LINE
  8
DETAIL
  6
CONTINUOUS
 62
     5
 10
-6.1495714639001449
 20
-185.83704984810331
 30
0.0
 11
-17.84875620010024
 21
-185.83704984810331
 31
0.0
  0
LINE
  8
DETAIL
  6
CONTINUOUS
 62
     5
 10
-27.798062877467061
 20
-175.88774317073629
 30
0.0
 11
-27.39809074973385
 21
-179.08752019260311
 31
0.0
  0
LINE
  8
DETAIL
  6
CONTINUOUS
 62
     5
 10
-27.39809074973385
 20
-179.08752019260311
 30
0.0
 11
-25.79820223880057
 21
-181.88732508673641
 31
0.0
  0
LINE
  8
DETAIL
  6
CONTINUOUS
 62
     5
 10
-25.79820223880057
 20
-181.88732508673641
 30
0.0
 11
-23.598355536267089
 21
-184.08717178926989
 31
0.0
  0
LINE
  8
DETAIL
  6
CONTINUOUS
 62
     5
 10
-23.598355536267089
 20
-184.08717178926989
 30
0.0
 11
-20.848547158100391
 21
-185.3870812044031
 31
0.0
  0
LINE
  8
DETAIL
  6
CONTINUOUS
 62
     5
 10
-20.848547158100391
 20
-185.3870812044031
 30
0.0
 11
-17.84875620010024
 21
-185.83704984810331
 31
0.0
  0
LINE
  8
DETAIL
  6
CONTINUOUS
 62
     5
 10
-0.1499895479000202
 20
-189.33680596577011
 30
0.0
 11
1.0499268353000559
 21
-190.83670144476989
 31
0.0
  0
LINE
  8
DETAIL
  6
CONTINUOUS
 62
     5
 10
1.0499268353000559
 20
-190.83670144476989
 30
0.0
 11
2.5498223143000018
 21
-191.8366317641032
 31
0.0
  0
LINE
  8
DETAIL
  6
CONTINUOUS
 62
     5
 10
2.5498223143000018
 20
-191.8366317641032
 30
0.0
 11
4.1497108252333987
 21
-192.6365760195699
 31
0.0
  0
LINE
  8
DETAIL
  6
CONTINUOUS
 62
     5
 10
4.1497108252333987
 20
-192.6365760195699
 30
0.0
 11
6.049578431966836
 21
-192.83656208343649
 31
0.0
  0
LINE
  8
DETAIL
  6
CONTINUOUS
 62
     5
 10
156.7390775555028
 20
-112.7421435048353
 30
0.0
 11
159.73886851350269
 21
-115.64194143090199
 31
0.0
  0
LINE
  8
DETAIL
  6
CONTINUOUS
 62
     5
 10
159.73886851350269
 20
-112.7421435048353
 30
0.0
 11
156.7390775555028
 21
-115.64194143090199
 31
0.0
  0
LINE
  8
DETAIL
  6
CONTINUOUS
 62
     5
 10
138.74033180750251
 20
-112.7421435048353
 30
0.0
 11
141.74012276550249
 21
-115.64194143090199
 31
0.0
  0
LINE
  8
DETAIL
  6
CONTINUOUS
 62
     5
 10
141.74012276550249
 20
-112.7421435048353
 30
0.0
 11
138.74033180750251
 21
-115.64194143090199
 31
0.0
  0
LINE
  8
DETAIL
  6
CONTINUOUS
 62
     5
 10
163.0386385673028
 20
-114.2420389838353
 30
0.0
 11
162.73865947150301
 21
-112.7421435048353
 31
0.0
  0
LINE
  8
DETAIL
  6
CONTINUOUS
 62
     5
 10
162.73865947150301
 20
-112.7421435048353
 30
0.0
 11
162.0387082479694
 21
-111.4422340897019
 31
0.0
  0
LINE
  8
DETAIL
  6
CONTINUOUS
 62
     5
 10
162.0387082479694
 20
-111.4422340897019
 30
0.0
 11
160.93878489670291
 21
-110.24231770650179
 31
0.0
  0
LINE
  8
DETAIL
  6
CONTINUOUS
 62
     5
 10
160.93878489670291
 20
-110.24231770650179
 30
0.0
 11
159.53888244963611
 21
-109.6423595149018
 31
0.0
  0
LINE
  8
DETAIL
  6
CONTINUOUS
 62
     5
 10
159.53888244963611
 20
-109.6423595149018
 30
0.0
 11
158.0389869706361
 21
-109.4423734510351
 31
0.0
  0
LINE
  8
DETAIL
  6
CONTINUOUS
 62
     5
 10
158.0389869706361
 20
-109.4423734510351
 30
0.0
 11
156.53909149163599
 21
-109.9423386107019
 31
0.0
  0
LINE
  8
DETAIL
  6
CONTINUOUS
 62
     5
 10
156.53909149163599
 20
-109.9423386107019
 30
0.0
 11
155.23918207650269
 21
-110.6422898342352
 31
0.0
  0
LINE
  8
DETAIL
  6
CONTINUOUS
 62
     5
 10
155.23918207650269
 20
-110.6422898342352
 30
0.0
 11
154.2392517571694
 21
-111.9421992493685
 31
0.0
  0
LINE
  8
DETAIL
  6
CONTINUOUS
 62
     5
 10
154.2392517571694
 20
-111.9421992493685
 30
0.0
 11
153.7392865975028
 21
-113.4420947283686
 31
0.0
  0
LINE
  8
DETAIL
  6
CONTINUOUS
 62
     5
 10
153.7392865975028
 20
-113.4420947283686
 30
0.0
 11
153.7392865975028
 21
-114.9419902073686
 31
0.0
  0
LINE
  8
DETAIL
  6
CONTINUOUS
 62
     5
 10
153.7392865975028
 20
-114.9419902073686
 30
0.0
 11
154.2392517571694
 21
-116.44188568636859
 31
0.0
  0
LINE
  8
DETAIL
  6
CONTINUOUS
 62
     5
 10
154.2392517571694
 20
-116.44188568636859
 30
0.0
 11
155.23918207650269
 21
-117.74179510150201
 31
0.0
  0
LINE
  8
DETAIL
  6
CONTINUOUS
 62
     5
 10
155.23918207650269
 20
-117.74179510150201
 30
0.0
 11
156.53909149163599
 21
-118.4417463250353
 31
0.0
  0
LINE
  8
DETAIL
  6
CONTINUOUS
 62
     5
 10
156.53909149163599
 20
-118.4417463250353
 30
0.0
 11
158.0389869706361
 21
-118.941711484702
 31
0.0
  0
LINE
  8
DETAIL
  6
CONTINUOUS
 62
     5
 10
158.0389869706361
 20
-118.941711484702
 30
0.0
 11
159.53888244963611
 21
-118.74172542083519
 31
0.0
  0
LINE
  8
DETAIL
  6
CONTINUOUS
 62
     5
 10
159.53888244963611
 20
-118.74172542083519
 30
0.0
 11
160.93878489670291
 21
-118.1417672292353
 31
0.0
  0
LINE
  8
DETAIL
  6
CONTINUOUS
 62
     5
 10
160.93878489670291
 20
-118.1417672292353
 30
0.0
 11
162.0387082479694
 21
-117.1418369099019
 31
0.0
  0
LINE
  8
DETAIL
  6
CONTINUOUS
 62
     5
 10
162.0387082479694
 20
-117.1418369099019
 30
0.0
 11
162.73865947150301
 21
-115.64194143090199
 31
0.0
  0
LINE
  8
DETAIL
  6
CONTINUOUS
 62
     5
 10
162.73865947150301
 20
-115.64194143090199
 30
0.0
 11
163.0386385673028
 21
-114.2420389838353
 31
0.0
  0
LINE
  8
DETAIL
  6
CONTINUOUS
 62
     5
 10
144.93989978736909
 20
-114.2420389838353
 30
0.0
 11
144.7399137235025
 21
-112.7421435048353
 31
0.0
  0
LINE
  8
DETAIL
  6
CONTINUOUS
 62
     5
 10
144.7399137235025
 20
-112.7421435048353
 30
0.0
 11
144.03996249996919
 21
-111.4422340897019
 31
0.0
  0
LINE
  8
DETAIL
  6
CONTINUOUS
 62
     5
 10
144.03996249996919
 20
-111.4422340897019
 30
0.0
 11
143.04003218063579
 21
-110.24231770650179
 31
0.0
  0
LINE
  8
DETAIL
  6
CONTINUOUS
 62
     5
 10
143.04003218063579
 20
-110.24231770650179
 30
0.0
 11
141.5401367016357
 21
-109.6423595149018
 31
0.0
  0
LINE
  8
DETAIL
  6
CONTINUOUS
 62
     5
 10
141.5401367016357
 20
-109.6423595149018
 30
0.0
 11
139.94024819070239
 21
-109.4423734510351
 31
0.0
  0
LINE
  8
DETAIL
  6
CONTINUOUS
 62
     5
 10
139.94024819070239
 20
-109.4423734510351
 30
0.0
 11
138.4403527117025
 21
-109.9423386107019
 31
0.0
  0
LINE
  8
DETAIL
  6
CONTINUOUS
 62
     5
 10
138.4403527117025
 20
-109.9423386107019
 30
0.0
 11
137.24043632850231
 21
-110.6422898342352
 31
0.0
  0
LINE
  8
DETAIL
  6
CONTINUOUS
 62
     5
 10
137.24043632850231
 20
-110.6422898342352
 30
0.0
 11
136.24050600916911
 21
-111.9421992493685
 31
0.0
  0
LINE
  8
DETAIL
  6
CONTINUOUS
 62
     5
 10
136.24050600916911
 20
-111.9421992493685
 30
0.0
 11
135.74054084950231
 21
-113.4420947283686
 31
0.0
  0
LINE
  8
DETAIL
  6
CONTINUOUS
 62
     5
 10
135.74054084950231
 20
-113.4420947283686
 30
0.0
 11
135.74054084950231
 21
-114.9419902073686
 31
0.0
  0
LINE
  8
DETAIL
  6
CONTINUOUS
 62
     5
 10
135.74054084950231
 20
-114.9419902073686
 30
0.0
 11
136.24050600916911
 21
-116.44188568636859
 31
0.0
  0
LINE
  8
DETAIL
  6
CONTINUOUS
 62
     5
 10
136.24050600916911
 20
-116.44188568636859
 30
0.0
 11
137.24043632850231
 21
-117.74179510150201
 31
0.0
  0
LINE
  8
DETAIL
  6
CONTINUOUS
 62
     5
 10
137.24043632850231
 20
-117.74179510150201
 30
0.0
 11
138.4403527117025
 21
-118.4417463250353
 31
0.0
  0
LINE
  8
DETAIL
  6
CONTINUOUS
 62
     5
 10
138.4403527117025
 20
-118.4417463250353
 30
0.0
 11
139.94024819070239
 21
-118.941711484702
 31
0.0
  0
LINE
  8
DETAIL
  6
CONTINUOUS
 62
     5
 10
139.94024819070239
 20
-118.941711484702
 30
0.0
 11
141.5401367016357
 21
-118.74172542083519
 31
0.0
  0
LINE
  8
DETAIL
  6
CONTINUOUS
 62
     5
 10
141.5401367016357
 20
-118.74172542083519
 30
0.0
 11
143.04003218063579
 21
-118.1417672292353
 31
0.0
  0
LINE
  8
DETAIL
  6
CONTINUOUS
 62
     5
 10
143.04003218063579
 20
-118.1417672292353
 30
0.0
 11
144.03996249996919
 21
-117.1418369099019
 31
0.0
  0
LINE
  8
DETAIL
  6
CONTINUOUS
 62
     5
 10
144.03996249996919
 20
-117.1418369099019
 30
0.0
 11
144.7399137235025
 21
-115.64194143090199
 31
0.0
  0
LINE
  8
DETAIL
  6
CONTINUOUS
 62
     5
 10
144.7399137235025
 20
-115.64194143090199
 30
0.0
 11
144.93989978736909
 21
-114.2420389838353
 31
0.0
  0
LINE
  8
DETAIL
  6
CONTINUOUS
 62
     5
 10
-159.78886502946949
 20
-112.7421435048353
 30
0.0
 11
-156.68908103953609
 21
-115.64194143090199
 31
0.0
  0
LINE
  8
DETAIL
  6
CONTINUOUS
 62
     5
 10
-138.84032483943571
 20
-112.7421435048353
 30
0.0
 11
-141.7401227655026
 21
-115.64194143090199
 31
0.0
  0
LINE
  8
DETAIL
  6
CONTINUOUS
 62
     5
 10
-141.7401227655026
 20
-112.7421435048353
 30
0.0
 11
-138.84032483943571
 21
-115.64194143090199
 31
0.0
  0
LINE
  8
DETAIL
  6
CONTINUOUS
 62
     5
 10
-156.68908103953609
 20
-112.7421435048353
 30
0.0
 11
-159.78886502946949
 21
-115.64194143090199
 31
0.0
  0
LINE
  8
DETAIL
  6
CONTINUOUS
 62
     5
 10
-153.78928311346939
 20
-114.2420389838353
 30
0.0
 11
-153.98926917733601
 21
-112.7421435048353
 31
0.0
  0
LINE
  8
DETAIL
  6
CONTINUOUS
 62
     5
 10
-153.98926917733601
 20
-112.7421435048353
 30
0.0
 11
-154.7892134328028
 21
-111.4422340897019
 31
0.0
  0
LINE
  8
DETAIL
  6
CONTINUOUS
 62
     5
 10
-154.7892134328028
 20
-111.4422340897019
 30
0.0
 11
-155.6891507202028
 21
-110.24231770650179
 31
0.0
  0
LINE
  8
DETAIL
  6
CONTINUOUS
 62
     5
 10
-155.6891507202028
 20
-110.24231770650179
 30
0.0
 11
-157.28903923113609
 21
-109.6423595149018
 31
0.0
  0
LINE
  8
DETAIL
  6
CONTINUOUS
 62
     5
 10
-157.28903923113609
 20
-109.6423595149018
 30
0.0
 11
-158.7889347101362
 21
-109.4423734510351
 31
0.0
  0
LINE
  8
DETAIL
  6
CONTINUOUS
 62
     5
 10
-158.7889347101362
 20
-109.4423734510351
 30
0.0
 11
-160.18883715720281
 21
-109.9423386107019
 31
0.0
  0
LINE
  8
DETAIL
  6
CONTINUOUS
 62
     5
 10
-160.18883715720281
 20
-109.9423386107019
 30
0.0
 11
-161.4887465723362
 21
-110.6422898342352
 31
0.0
  0
LINE
  8
DETAIL
  6
CONTINUOUS
 62
     5
 10
-161.4887465723362
 20
-110.6422898342352
 30
0.0
 11
-162.48867689166951
 21
-111.9421992493685
 31
0.0
  0
LINE
  8
DETAIL
  6
CONTINUOUS
 62
     5
 10
-162.48867689166951
 20
-111.9421992493685
 30
0.0
 11
-162.9886420513362
 21
-113.4420947283686
 31
0.0
  0
LINE
  8
DETAIL
  6
CONTINUOUS
 62
     5
 10
-162.9886420513362
 20
-113.4420947283686
 30
0.0
 11
-162.9886420513362
 21
-114.9419902073686
 31
0.0
  0
LINE
  8
DETAIL
  6
CONTINUOUS
 62
     5
 10
-162.9886420513362
 20
-114.9419902073686
 30
0.0
 11
-162.48867689166951
 21
-116.44188568636859
 31
0.0
  0
LINE
  8
DETAIL
  6
CONTINUOUS
 62
     5
 10
-162.48867689166951
 20
-116.44188568636859
 30
0.0
 11
-161.4887465723362
 21
-117.74179510150201
 31
0.0
  0
LINE
  8
DETAIL
  6
CONTINUOUS
 62
     5
 10
-161.4887465723362
 20
-117.74179510150201
 30
0.0
 11
-160.18883715720281
 21
-118.4417463250353
 31
0.0
  0
LINE
  8
DETAIL
  6
CONTINUOUS
 62
     5
 10
-160.18883715720281
 20
-118.4417463250353
 30
0.0
 11
-158.7889347101362
 21
-118.941711484702
 31
0.0
  0
LINE
  8
DETAIL
  6
CONTINUOUS
 62
     5
 10
-158.7889347101362
 20
-118.941711484702
 30
0.0
 11
-157.28903923113609
 21
-118.74172542083519
 31
0.0
  0
LINE
  8
DETAIL
  6
CONTINUOUS
 62
     5
 10
-157.28903923113609
 20
-118.74172542083519
 30
0.0
 11
-155.6891507202028
 21
-118.1417672292353
 31
0.0
  0
LINE
  8
DETAIL
  6
CONTINUOUS
 62
     5
 10
-155.6891507202028
 20
-118.1417672292353
 30
0.0
 11
-154.7892134328028
 21
-117.1418369099019
 31
0.0
  0
LINE
  8
DETAIL
  6
CONTINUOUS
 62
     5
 10
-154.7892134328028
 20
-117.1418369099019
 30
0.0
 11
-153.98926917733601
 21
-115.64194143090199
 31
0.0
  0
LINE
  8
DETAIL
  6
CONTINUOUS
 62
     5
 10
-153.98926917733601
 20
-115.64194143090199
 30
0.0
 11
-153.78928311346939
 21
-114.2420389838353
 31
0.0
  0
LINE
  8
DETAIL
  6
CONTINUOUS
 62
     5
 10
-135.74054084950251
 20
-114.2420389838353
 30
0.0
 11
-136.04051994530241
 21
-112.7421435048353
 31
0.0
  0
LINE
  8
DETAIL
  6
CONTINUOUS
 62
     5
 10
-136.04051994530241
 20
-112.7421435048353
 30
0.0
 11
-136.74047116883571
 21
-111.4422340897019
 31
0.0
  0
LINE
  8
DETAIL
  6
CONTINUOUS
 62
     5
 10
-136.74047116883571
 20
-111.4422340897019
 30
0.0
 11
-137.74040148816911
 21
-110.24231770650179
 31
0.0
  0
LINE
  8
DETAIL
  6
CONTINUOUS
 62
     5
 10
-137.74040148816911
 20
-110.24231770650179
 30
0.0
 11
-139.2402969671692
 21
-109.6423595149018
 31
0.0
  0
LINE
  8
DETAIL
  6
CONTINUOUS
 62
     5
 10
-139.2402969671692
 20
-109.6423595149018
 30
0.0
 11
-140.74019244616909
 21
-109.4423734510351
 31
0.0
  0
LINE
  8
DETAIL
  6
CONTINUOUS
 62
     5
 10
-140.74019244616909
 20
-109.4423734510351
 30
0.0
 11
-142.34008095710249
 21
-109.9423386107019
 31
0.0
  0
LINE
  8
DETAIL
  6
CONTINUOUS
 62
     5
 10
-142.34008095710249
 20
-109.9423386107019
 30
0.0
 11
-143.53999734030259
 21
-110.6422898342352
 31
0.0
  0
LINE
  8
DETAIL
  6
CONTINUOUS
 62
     5
 10
-143.53999734030259
 20
-110.6422898342352
 30
0.0
 11
-144.53992765963591
 21
-111.9421992493685
 31
0.0
  0
LINE
  8
DETAIL
  6
CONTINUOUS
 62
     5
 10
-144.53992765963591
 20
-111.9421992493685
 30
0.0
 11
-145.03989281930259
 21
-113.4420947283686
 31
0.0
  0
LINE
  8
DETAIL
  6
CONTINUOUS
 62
     5
 10
-145.03989281930259
 20
-113.4420947283686
 30
0.0
 11
-145.03989281930259
 21
-114.9419902073686
 31
0.0
  0
LINE
  8
DETAIL
  6
CONTINUOUS
 62
     5
 10
-145.03989281930259
 20
-114.9419902073686
 30
0.0
 11
-144.53992765963591
 21
-116.44188568636859
 31
0.0
  0
LINE
  8
DETAIL
  6
CONTINUOUS
 62
     5
 10
-144.53992765963591
 20
-116.44188568636859
 30
0.0
 11
-143.53999734030259
 21
-117.74179510150201
 31
0.0
  0
LINE
  8
DETAIL
  6
CONTINUOUS
 62
     5
 10
-143.53999734030259
 20
-117.74179510150201
 30
0.0
 11
-142.34008095710249
 21
-118.4417463250353
 31
0.0
  0
LINE
  8
DETAIL
  6
CONTINUOUS
 62
     5
 10
-142.34008095710249
 20
-118.4417463250353
 30
0.0
 11
-140.74019244616909
 21
-118.941711484702
 31
0.0
  0
LINE
  8
DETAIL
  6
CONTINUOUS
 62
     5
 10
-140.74019244616909
 20
-118.941711484702
 30
0.0
 11
-139.2402969671692
 21
-118.74172542083519
 31
0.0
  0
LINE
  8
DETAIL
  6
CONTINUOUS
 62
     5
 10
-139.2402969671692
 20
-118.74172542083519
 30
0.0
 11
-137.74040148816911
 21
-118.1417672292353
 31
0.0
  0
LINE
  8
DETAIL
  6
CONTINUOUS
 62
     5
 10
-137.74040148816911
 20
-118.1417672292353
 30
0.0
 11
-136.74047116883571
 21
-117.1418369099019
 31
0.0
  0
LINE
  8
DETAIL
  6
CONTINUOUS
 62
     5
 10
-136.74047116883571
 20
-117.1418369099019
 30
0.0
 11
-136.04051994530241
 21
-115.64194143090199
 31
0.0
  0
LINE
  8
DETAIL
  6
CONTINUOUS
 62
     5
 10
-136.04051994530241
 20
-115.64194143090199
 30
0.0
 11
-135.74054084950251
 21
-114.2420389838353
 31
0.0
  0
LINE
  8
DETAIL
  6
CONTINUOUS
 62
     5
 10
-167.68831455220291
 20
-152.8893458260693
 30
0.0
 11
-170.18814035053629
 21
-152.8893458260693
 31
0.0
  0
LINE
  8
DETAIL
  6
CONTINUOUS
 62
     5
 10
169.8881612547363
 20
-152.8893458260693
 30
0.0
 11
167.68831455220291
 21
-152.8893458260693
 31
0.0
  0
LINE
  8
DETAIL
  6
CONTINUOUS
 62
     5
 10
169.8881612547363
 20
-136.1905094932024
 30
0.0
 11
170.688105510203
 21
-136.1905094932024
 31
0.0
  0
LINE
  8
DETAIL
  6
CONTINUOUS
 62
     5
 10
170.688105510203
 20
-136.1905094932024
 30
0.0
 11
171.18807066986969
 21
-135.89053039740219
 31
0.0
  0
LINE
  8
DETAIL
  6
CONTINUOUS
 62
     5
 10
171.18807066986969
 20
-135.89053039740219
 30
0.0
 11
171.68803582953629
 21
-135.3905652377357
 31
0.0
  0
LINE
  8
DETAIL
  6
CONTINUOUS
 62
     5
 10
171.68803582953629
 20
-135.3905652377357
 30
0.0
 11
171.98801492533639
 21
-134.8906000780689
 31
0.0
  0
LINE
  8
DETAIL
  6
CONTINUOUS
 62
     5
 10
171.98801492533639
 20
-134.8906000780689
 30
0.0
 11
171.98801492533639
 21
-134.19064885453551
 31
0.0
  0
LINE
  8
DETAIL
  6
CONTINUOUS
 62
     5
 10
171.98801492533639
 20
-128.09107390660211
 30
0.0
 11
171.98801492533639
 21
-127.6911017788689
 31
0.0
  0
LINE
  8
DETAIL
  6
CONTINUOUS
 62
     5
 10
171.98801492533639
 20
-127.6911017788689
 30
0.0
 11
171.68803582953629
 21
-127.0911435872688
 31
0.0
  0
LINE
  8
DETAIL
  6
CONTINUOUS
 62
     5
 10
171.68803582953629
 20
-127.0911435872688
 30
0.0
 11
171.18807066986969
 21
-126.6911714595356
 31
0.0
  0
LINE
  8
DETAIL
  6
CONTINUOUS
 62
     5
 10
171.18807066986969
 20
-126.6911714595356
 30
0.0
 11
170.688105510203
 21
-126.3911923637354
 31
0.0
  0
LINE
  8
DETAIL
  6
CONTINUOUS
 62
     5
 10
170.688105510203
 20
-126.3911923637354
 30
0.0
 11
169.8881612547363
 21
-126.1912062998688
 31
0.0
  0
LINE
  8
DETAIL
  6
CONTINUOUS
 62
     5
 10
168.98822396733641
 20
-139.39028651506899
 30
0.0
 11
169.48818912700301
 21
-139.39028651506899
 31
0.0
  0
LINE
  8
DETAIL
  6
CONTINUOUS
 62
     5
 10
169.48818912700301
 20
-139.39028651506899
 30
0.0
 11
169.68817519086971
 21
-139.19030045120229
 31
0.0
  0
LINE
  8
DETAIL
  6
CONTINUOUS
 62
     5
 10
169.68817519086971
 20
-139.19030045120229
 30
0.0
 11
169.8881612547363
 21
-138.89032135540239
 31
0.0
  0
LINE
  8
DETAIL
  6
CONTINUOUS
 62
     5
 10
169.8881612547363
 20
-138.89032135540239
 30
0.0
 11
169.8881612547363
 21
-138.6903352915356
 31
0.0
  0
LINE
  8
DETAIL
  6
CONTINUOUS
 62
     5
 10
169.8881612547363
 20
-138.6903352915356
 30
0.0
 11
169.8881612547363
 21
-138.39035619573559
 31
0.0
  0
LINE
  8
DETAIL
  6
CONTINUOUS
 62
     5
 10
168.98822396733641
 20
-139.39028651506899
 30
0.0
 11
168.98822396733641
 21
-152.8893458260693
 31
0.0
  0
LINE
  8
DETAIL
  6
CONTINUOUS
 62
     5
 10
171.98801492533639
 20
-128.09107390660211
 30
0.0
 11
171.98801492533639
 21
-134.19064885453551
 31
0.0
  0
LINE
  8
DETAIL
  6
CONTINUOUS
 62
     5
 10
167.98829364800301
 20
-137.3904258764023
 30
0.0
 11
167.68831455220291
 21
-137.3904258764023
 31
0.0
  0
LINE
  8
DETAIL
  6
CONTINUOUS
 62
     5
 10
167.98829364800301
 20
-107.7424919081684
 30
0.0
 11
167.98829364800301
 21
-137.3904258764023
 31
0.0
  0
LINE
  8
DETAIL
  6
CONTINUOUS
 62
     5
 10
167.98829364800301
 20
-107.7424919081684
 30
0.0
 11
167.98829364800301
 21
-107.14253371656839
 31
0.0
  0
LINE
  8
DETAIL
  6
CONTINUOUS
 62
     5
 10
167.98829364800301
 20
-107.14253371656839
 30
0.0
 11
167.68831455220291
 21
-106.7425615888352
 31
0.0
  0
LINE
  8
DETAIL
  6
CONTINUOUS
 62
     5
 10
167.68831455220291
 20
-106.7425615888352
 30
0.0
 11
167.18834939253631
 21
-106.2425964291684
 31
0.0
  0
LINE
  8
DETAIL
  6
CONTINUOUS
 62
     5
 10
167.18834939253631
 20
-106.2425964291684
 30
0.0
 11
166.68838423286959
 21
-105.9426173333684
 31
0.0
  0
LINE
  8
DETAIL
  6
CONTINUOUS
 62
     5
 10
166.68838423286959
 20
-105.9426173333684
 30
0.0
 11
165.88843997740281
 21
-105.64263823756851
 31
0.0
  0
LINE
  8
DETAIL
  6
CONTINUOUS
 62
     5
 10
169.8881612547363
 20
-107.7424919081684
 30
0.0
 11
169.8881612547363
 21
-152.8893458260693
 31
0.0
  0
LINE
  8
DETAIL
  6
CONTINUOUS
 62
     5
 10
169.8881612547363
 20
-107.7424919081684
 30
0.0
 11
169.8881612547363
 21
-106.7425615888352
 31
0.0
  0
LINE
  8
DETAIL
  6
CONTINUOUS
 62
     5
 10
169.8881612547363
 20
-106.7425615888352
 30
0.0
 11
169.188210031203
 21
-105.4426521737017
 31
0.0
  0
LINE
  8
DETAIL
  6
CONTINUOUS
 62
     5
 10
169.188210031203
 20
-105.4426521737017
 30
0.0
 11
168.3882657757363
 21
-104.642707918235
 31
0.0
  0
LINE
  8
DETAIL
  6
CONTINUOUS
 62
     5
 10
168.3882657757363
 20
-104.642707918235
 30
0.0
 11
167.18834939253631
 21
-103.9427566947018
 31
0.0
  0
LINE
  8
DETAIL
  6
CONTINUOUS
 62
     5
 10
167.18834939253631
 20
-103.9427566947018
 30
0.0
 11
165.88843997740281
 21
-103.742770630835
 31
0.0
  0
LINE
  8
DETAIL
  6
CONTINUOUS
 62
     5
 10
162.43868037570289
 20
-121.2415512191687
 30
0.0
 11
163.23862463116961
 21
-121.2415512191687
 31
0.0
  0
LINE
  8
DETAIL
  6
CONTINUOUS
 62
     5
 10
163.23862463116961
 20
-121.2415512191687
 30
0.0
 11
163.73858979083599
 21
-120.9415721233686
 31
0.0
  0
LINE
  8
DETAIL
  6
CONTINUOUS
 62
     5
 10
163.73858979083599
 20
-120.9415721233686
 30
0.0
 11
164.2385549505029
 21
-120.441606963702
 31
0.0
  0
LINE
  8
DETAIL
  6
CONTINUOUS
 62
     5
 10
164.2385549505029
 20
-120.441606963702
 30
0.0
 11
164.53853404630291
 21
-119.9416418040355
 31
0.0
  0
LINE
  8
DETAIL
  6
CONTINUOUS
 62
     5
 10
164.53853404630291
 20
-119.9416418040355
 30
0.0
 11
164.53853404630291
 21
-119.241690580502
 31
0.0
  0
LINE
  8
DETAIL
  6
CONTINUOUS
 62
     5
 10
164.53853404630291
 20
-105.64263823756851
 30
0.0
 11
164.53853404630291
 21
-119.241690580502
 31
0.0
  0
LINE
  8
DETAIL
  6
CONTINUOUS
 62
     5
 10
135.54055478563549
 20
-121.2415512191687
 30
0.0
 11
162.43868037570289
 21
-121.2415512191687
 31
0.0
  0
LINE
  8
DETAIL
  6
CONTINUOUS
 62
     5
 10
133.44070111503569
 20
-119.241690580502
 30
0.0
 11
133.44070111503569
 21
-119.9416418040355
 31
0.0
  0
LINE
  8
DETAIL
  6
CONTINUOUS
 62
     5
 10
133.44070111503569
 20
-119.9416418040355
 30
0.0
 11
133.74068021083579
 21
-120.441606963702
 31
0.0
  0
LINE
  8
DETAIL
  6
CONTINUOUS
 62
     5
 10
133.74068021083579
 20
-120.441606963702
 30
0.0
 11
134.24064537050239
 21
-120.9415721233686
 31
0.0
  0
LINE
  8
DETAIL
  6
CONTINUOUS
 62
     5
 10
134.24064537050239
 20
-120.9415721233686
 30
0.0
 11
134.74061053016899
 21
-121.2415512191687
 31
0.0
  0
LINE
  8
DETAIL
  6
CONTINUOUS
 62
     5
 10
134.74061053016899
 20
-121.2415512191687
 30
0.0
 11
135.54055478563549
 21
-121.2415512191687
 31
0.0
  0
LINE
  8
DETAIL
  6
CONTINUOUS
 62
     5
 10
133.04072898730229
 20
-105.64263823756851
 30
0.0
 11
133.44070111503569
 21
-105.64263823756851
 31
0.0
  0
LINE
  8
DETAIL
  6
CONTINUOUS
 62
     5
 10
129.04100770996891
 20
-110.6422898342352
 30
0.0
 11
130.94087531670229
 21
-110.6422898342352
 31
0.0
  0
LINE
  8
DETAIL
  6
CONTINUOUS
 62
     5
 10
129.04100770996891
 20
-107.7424919081684
 30
0.0
 11
129.04100770996891
 21
-110.6422898342352
 31
0.0
  0
LINE
  8
DETAIL
  6
CONTINUOUS
 62
     5
 10
130.94087531670229
 20
-107.7424919081684
 30
0.0
 11
130.94087531670229
 21
-110.6422898342352
 31
0.0
  0
LINE
  8
DETAIL
  6
CONTINUOUS
 62
     5
 10
133.44070111503569
 20
-105.64263823756851
 30
0.0
 11
133.44070111503569
 21
-119.241690580502
 31
0.0
  0
LINE
  8
DETAIL
  6
CONTINUOUS
 62
     5
 10
133.04072898730229
 20
-105.64263823756851
 30
0.0
 11
132.44077079570229
 21
-105.9426173333684
 31
0.0
  0
LINE
  8
DETAIL
  6
CONTINUOUS
 62
     5
 10
132.44077079570229
 20
-105.9426173333684
 30
0.0
 11
132.040798667969
 21
-106.2425964291684
 31
0.0
  0
LINE
  8
DETAIL
  6
CONTINUOUS
 62
     5
 10
132.040798667969
 20
-106.2425964291684
 30
0.0
 11
131.54083350830231
 21
-106.7425615888352
 31
0.0
  0
LINE
  8
DETAIL
  6
CONTINUOUS
 62
     5
 10
131.54083350830231
 20
-106.7425615888352
 30
0.0
 11
131.24085441250219
 21
-107.14253371656839
 31
0.0
  0
LINE
  8
DETAIL
  6
CONTINUOUS
 62
     5
 10
131.24085441250219
 20
-107.14253371656839
 30
0.0
 11
130.94087531670229
 21
-107.7424919081684
 31
0.0
  0
LINE
  8
DETAIL
  6
CONTINUOUS
 62
     5
 10
133.04072898730229
 20
-103.742770630835
 30
0.0
 11
132.040798667969
 21
-103.9427566947018
 31
0.0
  0
LINE
  8
DETAIL
  6
CONTINUOUS
 62
     5
 10
132.040798667969
 20
-103.9427566947018
 30
0.0
 11
130.74088925283559
 21
-104.642707918235
 31
0.0
  0
LINE
  8
DETAIL
  6
CONTINUOUS
 62
     5
 10
130.74088925283559
 20
-104.642707918235
 30
0.0
 11
129.94094499736889
 21
-105.4426521737017
 31
0.0
  0
LINE
  8
DETAIL
  6
CONTINUOUS
 62
     5
 10
129.94094499736889
 20
-105.4426521737017
 30
0.0
 11
129.2409937738357
 21
-106.7425615888352
 31
0.0
  0
LINE
  8
DETAIL
  6
CONTINUOUS
 62
     5
 10
129.2409937738357
 20
-106.7425615888352
 30
0.0
 11
129.04100770996891
 21
-107.7424919081684
 31
0.0
  0
LINE
  8
DETAIL
  6
CONTINUOUS
 62
     5
 10
133.04072898730229
 20
-105.64263823756851
 30
0.0
 11
165.88843997740281
 21
-105.64263823756851
 31
0.0
  0
LINE
  8
DETAIL
  6
CONTINUOUS
 62
     5
 10
133.04072898730229
 20
-103.742770630835
 30
0.0
 11
165.88843997740281
 21
-103.742770630835
 31
0.0
  0
LINE
  8
DETAIL
  6
CONTINUOUS
 62
     5
 10
-172.28799402113631
 20
-134.19064885453551
 30
0.0
 11
-171.98801492533639
 21
-134.8906000780689
 31
0.0
  0
LINE
  8
DETAIL
  6
CONTINUOUS
 62
     5
 10
-171.98801492533639
 20
-134.8906000780689
 30
0.0
 11
-171.68803582953629
 21
-135.3905652377357
 31
0.0
  0
LINE
  8
DETAIL
  6
CONTINUOUS
 62
     5
 10
-171.68803582953629
 20
-135.3905652377357
 30
0.0
 11
-171.28806370180311
 21
-135.89053039740219
 31
0.0
  0
LINE
  8
DETAIL
  6
CONTINUOUS
 62
     5
 10
-171.28806370180311
 20
-135.89053039740219
 30
0.0
 11
-170.688105510203
 21
-136.1905094932024
 31
0.0
  0
LINE
  8
DETAIL
  6
CONTINUOUS
 62
     5
 10
-170.688105510203
 20
-136.1905094932024
 30
0.0
 11
-170.18814035053629
 21
-136.1905094932024
 31
0.0
  0
LINE
  8
DETAIL
  6
CONTINUOUS
 62
     5
 10
-170.18814035053629
 20
-126.1912062998688
 30
0.0
 11
-170.688105510203
 21
-126.3911923637354
 31
0.0
  0
LINE
  8
DETAIL
  6
CONTINUOUS
 62
     5
 10
-170.688105510203
 20
-126.3911923637354
 30
0.0
 11
-171.28806370180311
 21
-126.6911714595356
 31
0.0
  0
LINE
  8
DETAIL
  6
CONTINUOUS
 62
     5
 10
-171.28806370180311
 20
-126.6911714595356
 30
0.0
 11
-171.68803582953629
 21
-127.0911435872688
 31
0.0
  0
LINE
  8
DETAIL
  6
CONTINUOUS
 62
     5
 10
-171.68803582953629
 20
-127.0911435872688
 30
0.0
 11
-171.98801492533639
 21
-127.6911017788689
 31
0.0
  0
LINE
  8
DETAIL
  6
CONTINUOUS
 62
     5
 10
-171.98801492533639
 20
-127.6911017788689
 30
0.0
 11
-172.28799402113631
 21
-128.09107390660211
 31
0.0
  0
LINE
  8
DETAIL
  6
CONTINUOUS
 62
     5
 10
-170.18814035053629
 20
-138.39035619573559
 30
0.0
 11
-169.98815428666961
 21
-138.6903352915356
 31
0.0
  0
LINE
  8
DETAIL
  6
CONTINUOUS
 62
     5
 10
-169.98815428666961
 20
-138.6903352915356
 30
0.0
 11
-169.98815428666961
 21
-138.89032135540239
 31
0.0
  0
LINE
  8
DETAIL
  6
CONTINUOUS
 62
     5
 10
-169.98815428666961
 20
-138.89032135540239
 30
0.0
 11
-169.78816822280299
 21
-139.19030045120229
 31
0.0
  0
LINE
  8
DETAIL
  6
CONTINUOUS
 62
     5
 10
-169.78816822280299
 20
-139.19030045120229
 30
0.0
 11
-169.4881891270031
 21
-139.39028651506899
 31
0.0
  0
LINE
  8
DETAIL
  6
CONTINUOUS
 62
     5
 10
-169.4881891270031
 20
-139.39028651506899
 30
0.0
 11
-169.188210031203
 21
-139.39028651506899
 31
0.0
  0
LINE
  8
DETAIL
  6
CONTINUOUS
 62
     5
 10
-169.188210031203
 20
-139.39028651506899
 30
0.0
 11
-169.188210031203
 21
-152.8893458260693
 31
0.0
  0
LINE
  8
DETAIL
  6
CONTINUOUS
 62
     5
 10
-172.28799402113631
 20
-128.09107390660211
 30
0.0
 11
-172.28799402113631
 21
-134.19064885453551
 31
0.0
  0
LINE
  8
DETAIL
  6
CONTINUOUS
 62
     5
 10
-168.1882797118696
 20
-107.7424919081684
 30
0.0
 11
-168.1882797118696
 21
-137.3904258764023
 31
0.0
  0
LINE
  8
DETAIL
  6
CONTINUOUS
 62
     5
 10
-166.28841210513619
 20
-105.64263823756851
 30
0.0
 11
-166.68838423286959
 21
-105.9426173333684
 31
0.0
  0
LINE
  8
DETAIL
  6
CONTINUOUS
 62
     5
 10
-166.68838423286959
 20
-105.9426173333684
 30
0.0
 11
-167.28834242446959
 21
-106.2425964291684
 31
0.0
  0
LINE
  8
DETAIL
  6
CONTINUOUS
 62
     5
 10
-167.28834242446959
 20
-106.2425964291684
 30
0.0
 11
-167.68831455220291
 21
-106.7425615888352
 31
0.0
  0
LINE
  8
DETAIL
  6
CONTINUOUS
 62
     5
 10
-167.68831455220291
 20
-106.7425615888352
 30
0.0
 11
-167.98829364800309
 21
-107.14253371656839
 31
0.0
  0
LINE
  8
DETAIL
  6
CONTINUOUS
 62
     5
 10
-167.98829364800309
 20
-107.14253371656839
 30
0.0
 11
-168.1882797118696
 21
-107.7424919081684
 31
0.0
  0
LINE
  8
DETAIL
  6
CONTINUOUS
 62
     5
 10
-170.18814035053629
 20
-107.7424919081684
 30
0.0
 11
-170.18814035053629
 21
-152.8893458260693
 31
0.0
  0
LINE
  8
DETAIL
  6
CONTINUOUS
 62
     5
 10
-166.28841210513619
 20
-103.742770630835
 30
0.0
 11
-167.28834242446959
 21
-103.9427566947018
 31
0.0
  0
LINE
  8
DETAIL
  6
CONTINUOUS
 62
     5
 10
-167.28834242446959
 20
-103.9427566947018
 30
0.0
 11
-168.48825880766961
 21
-104.642707918235
 31
0.0
  0
LINE
  8
DETAIL
  6
CONTINUOUS
 62
     5
 10
-168.48825880766961
 20
-104.642707918235
 30
0.0
 11
-169.188210031203
 21
-105.4426521737017
 31
0.0
  0
LINE
  8
DETAIL
  6
CONTINUOUS
 62
     5
 10
-169.188210031203
 20
-105.4426521737017
 30
0.0
 11
-169.98815428666961
 21
-106.7425615888352
 31
0.0
  0
LINE
  8
DETAIL
  6
CONTINUOUS
 62
     5
 10
-169.98815428666961
 20
-106.7425615888352
 30
0.0
 11
-170.18814035053629
 21
-107.7424919081684
 31
0.0
  0
LINE
  8
DETAIL
  6
CONTINUOUS
 62
     5
 10
-164.78851662613619
 20
-119.241690580502
 30
0.0
 11
-164.48853753033609
 21
-119.9416418040355
 31
0.0
  0
LINE
  8
DETAIL
  6
CONTINUOUS
 62
     5
 10
-164.48853753033609
 20
-119.9416418040355
 30
0.0
 11
-164.18855843453619
 21
-120.441606963702
 31
0.0
  0
LINE
  8
DETAIL
  6
CONTINUOUS
 62
     5
 10
-164.18855843453619
 20
-120.441606963702
 30
0.0
 11
-163.78858630680281
 21
-120.9415721233686
 31
0.0
  0
LINE
  8
DETAIL
  6
CONTINUOUS
 62
     5
 10
-163.78858630680281
 20
-120.9415721233686
 30
0.0
 11
-163.18862811520279
 21
-121.2415512191687
 31
0.0
  0
LINE
  8
DETAIL
  6
CONTINUOUS
 62
     5
 10
-163.18862811520279
 20
-121.2415512191687
 30
0.0
 11
-162.68866295553619
 21
-121.2415512191687
 31
0.0
  0
LINE
  8
DETAIL
  6
CONTINUOUS
 62
     5
 10
-164.78851662613619
 20
-105.64263823756851
 30
0.0
 11
-164.78851662613619
 21
-119.241690580502
 31
0.0
  0
LINE
  8
DETAIL
  6
CONTINUOUS
 62
     5
 10
-135.54055478563569
 20
-121.2415512191687
 30
0.0
 11
-162.68866295553619
 21
-121.2415512191687
 31
0.0
  0
LINE
  8
DETAIL
  6
CONTINUOUS
 62
     5
 10
-135.54055478563569
 20
-121.2415512191687
 30
0.0
 11
-134.8406035621023
 21
-121.2415512191687
 31
0.0
  0
LINE
  8
DETAIL
  6
CONTINUOUS
 62
     5
 10
-134.8406035621023
 20
-121.2415512191687
 30
0.0
 11
-134.24064537050219
 21
-120.9415721233686
 31
0.0
  0
LINE
  8
DETAIL
  6
CONTINUOUS
 62
     5
 10
-134.24064537050219
 20
-120.9415721233686
 30
0.0
 11
-133.84067324276899
 21
-120.441606963702
 31
0.0
  0
LINE
  8
DETAIL
  6
CONTINUOUS
 62
     5
 10
-133.84067324276899
 20
-120.441606963702
 30
0.0
 11
-133.540694146969
 21
-119.9416418040355
 31
0.0
  0
LINE
  8
DETAIL
  6
CONTINUOUS
 62
     5
 10
-133.540694146969
 20
-119.9416418040355
 30
0.0
 11
-133.540694146969
 21
-119.241690580502
 31
0.0
  0
LINE
  8
DETAIL
  6
CONTINUOUS
 62
     5
 10
-133.24071505116899
 20
-105.64263823756851
 30
0.0
 11
-133.540694146969
 21
-105.64263823756851
 31
0.0
  0
LINE
  8
DETAIL
  6
CONTINUOUS
 62
     5
 10
-129.24099377383561
 20
-110.6422898342352
 30
0.0
 11
-131.3408474444357
 21
-110.6422898342352
 31
0.0
  0
LINE
  8
DETAIL
  6
CONTINUOUS
 62
     5
 10
-129.24099377383561
 20
-107.7424919081684
 30
0.0
 11
-129.24099377383561
 21
-110.6422898342352
 31
0.0
  0
LINE
  8
DETAIL
  6
CONTINUOUS
 62
     5
 10
-131.3408474444357
 20
-107.7424919081684
 30
0.0
 11
-131.3408474444357
 21
-110.6422898342352
 31
0.0
  0
LINE
  8
DETAIL
  6
CONTINUOUS
 62
     5
 10
-133.540694146969
 20
-105.64263823756851
 30
0.0
 11
-133.540694146969
 21
-119.241690580502
 31
0.0
  0
LINE
  8
DETAIL
  6
CONTINUOUS
 62
     5
 10
-131.3408474444357
 20
-107.7424919081684
 30
0.0
 11
-131.3408474444357
 21
-107.14253371656839
 31
0.0
  0
LINE
  8
DETAIL
  6
CONTINUOUS
 62
     5
 10
-131.3408474444357
 20
-107.14253371656839
 30
0.0
 11
-131.5408335083022
 21
-106.7425615888352
 31
0.0
  0
LINE
  8
DETAIL
  6
CONTINUOUS
 62
     5
 10
-131.5408335083022
 20
-106.7425615888352
 30
0.0
 11
-132.040798667969
 21
-106.2425964291684
 31
0.0
  0
LINE
  8
DETAIL
  6
CONTINUOUS
 62
     5
 10
-132.040798667969
 20
-106.2425964291684
 30
0.0
 11
-132.54076382763569
 21
-105.9426173333684
 31
0.0
  0
LINE
  8
DETAIL
  6
CONTINUOUS
 62
     5
 10
-132.54076382763569
 20
-105.9426173333684
 30
0.0
 11
-133.24071505116899
 21
-105.64263823756851
 31
0.0
  0
LINE
  8
DETAIL
  6
CONTINUOUS
 62
     5
 10
-129.24099377383561
 20
-107.7424919081684
 30
0.0
 11
-129.24099377383561
 21
-106.7425615888352
 31
0.0
  0
LINE
  8
DETAIL
  6
CONTINUOUS
 62
     5
 10
-129.24099377383561
 20
-106.7425615888352
 30
0.0
 11
-130.04093802930231
 21
-105.4426521737017
 31
0.0
  0
LINE
  8
DETAIL
  6
CONTINUOUS
 62
     5
 10
-130.04093802930231
 20
-105.4426521737017
 30
0.0
 11
-130.74088925283581
 21
-104.642707918235
 31
0.0
  0
LINE
  8
DETAIL
  6
CONTINUOUS
 62
     5
 10
-130.74088925283581
 20
-104.642707918235
 30
0.0
 11
-132.040798667969
 21
-103.9427566947018
 31
0.0
  0
LINE
  8
DETAIL
  6
CONTINUOUS
 62
     5
 10
-132.040798667969
 20
-103.9427566947018
 30
0.0
 11
-133.24071505116899
 21
-103.742770630835
 31
0.0
  0
LINE
  8
DETAIL
  6
CONTINUOUS
 62
     5
 10
-133.24071505116899
 20
-105.64263823756851
 30
0.0
 11
-166.28841210513619
 21
-105.64263823756851
 31
0.0
  0
LINE
  8
DETAIL
  6
CONTINUOUS
 62
     5
 10
-133.24071505116899
 20
-103.742770630835
 30
0.0
 11
-166.28841210513619
 21
-103.742770630835
 31
0.0
  0
LINE
  8
DETAIL
  6
CONTINUOUS
 62
     5
 10
-167.68831455220291
 20
-137.3904258764023
 30
0.0
 11
-168.1882797118696
 21
-137.3904258764023
 31
0.0
  0
LINE
  8
DETAIL
  6
CONTINUOUS
 62
     5
 10
-37.097414847267324
 20
-123.14141882590209
 30
0.0
 11
-100.0430284493017
 21
-123.14141882590209
 31
0.0
  0
LINE
  8
DETAIL
  6
CONTINUOUS
 62
     5
 10
89.093791452601579
 20
-92.943523182034937
 30
0.0
 11
9.1493624219002072
 21
-92.943523182034937
 31
0.0
  0
LINE
  8
DETAIL
  6
CONTINUOUS
 62
     5
 10
89.093791452601579
 20
-172.88795221273631
 30
0.0
 11
89.093791452601579
 21
-92.943523182034937
 31
0.0
  0
LINE
  8
DETAIL
  6
CONTINUOUS
 62
     5
 10
9.1493624219002072
 20
-172.88795221273631
 30
0.0
 11
89.093791452601579
 21
-172.88795221273631
 31
0.0
  0
LINE
  8
DETAIL
  6
CONTINUOUS
 62
     5
 10
9.1493624219002072
 20
-92.943523182034937
 30
0.0
 11
9.1493624219002072
 21
-172.88795221273631
 31
0.0
  0
LINE
  8
DETAIL
  6
CONTINUOUS
 62
     5
 10
-100.0430284493017
 20
-44.296913146467318
 30
0.0
 11
-100.0430284493017
 21
-123.14141882590209
 31
0.0
  0
LINE
  8
DETAIL
  6
CONTINUOUS
 62
     5
 10
-37.097414847267324
 20
-123.14141882590209
 30
0.0
 11
-37.097414847267324
 21
-44.296913146467318
 31
0.0
  0
LINE
  8
DETAIL
  6
CONTINUOUS
 62
     5
 10
-37.097414847267324
 20
-44.296913146467318
 30
0.0
 11
-100.0430284493017
 21
-44.296913146467318
 31
0.0
  0
LINE
  8
DETAIL
  6
CONTINUOUS
 62
     5
 10
153.43930750170281
 20
-0.6999512235332759
 30
0.0
 11
162.73865947150301
 21
-0.6999512235332759
 31
0.0
  0
LINE
  8
DETAIL
  6
CONTINUOUS
 62
     5
 10
162.73865947150301
 20
-0.9999303193333162
 30
0.0
 11
162.73865947150301
 21
-0.6999512235332759
 31
0.0
  0
LINE
  8
DETAIL
  6
CONTINUOUS
 62
     5
 10
153.43930750170281
 20
-0.9999303193333162
 30
0.0
 11
153.43930750170281
 21
-0.6999512235332759
 31
0.0
  0
LINE
  8
DETAIL
  6
CONTINUOUS
 62
     5
 10
162.73865947150301
 20
-0.9999303193333162
 30
0.0
 11
153.43930750170281
 21
-0.9999303193333162
 31
0.0
  0
LINE
  8
DETAIL
  6
CONTINUOUS
 62
     5
 10
162.73865947150301
 20
-0.6999512235332759
 30
0.0
 11
161.53874308830291
 21
0.4999651596667718
 31
0.0
  0
LINE
  8
DETAIL
  6
CONTINUOUS
 62
     5
 10
161.53874308830291
 20
0.4999651596667718
 30
0.0
 11
159.93885457736951
 21
1.1999163832001609
 31
0.0
  0
LINE
  8
DETAIL
  6
CONTINUOUS
 62
     5
 10
159.93885457736951
 20
1.1999163832001609
 30
0.0
 11
158.0389869706361
 21
1.4998954790002019
 31
0.0
  0
LINE
  8
DETAIL
  6
CONTINUOUS
 62
     5
 10
158.0389869706361
 20
1.4998954790002019
 30
0.0
 11
156.239112395836
 21
1.1999163832001609
 31
0.0
  0
LINE
  8
DETAIL
  6
CONTINUOUS
 62
     5
 10
156.239112395836
 20
1.1999163832001609
 30
0.0
 11
154.739216916836
 21
0.4999651596667718
 31
0.0
  0
LINE
  8
DETAIL
  6
CONTINUOUS
 62
     5
 10
154.739216916836
 20
0.4999651596667718
 30
0.0
 11
153.43930750170281
 21
-0.6999512235332759
 31
0.0
  0
LINE
  8
DETAIL
  6
CONTINUOUS
 62
     5
 10
-162.68866295553619
 20
-227.63413719623739
 30
0.0
 11
-153.4893040176693
 21
-227.63413719623739
 31
0.0
  0
LINE
  8
DETAIL
  6
CONTINUOUS
 62
     5
 10
-153.4893040176693
 20
-227.33415810043721
 30
0.0
 11
-153.4893040176693
 21
-227.63413719623739
 31
0.0
  0
LINE
  8
DETAIL
  6
CONTINUOUS
 62
     5
 10
-162.68866295553619
 20
-227.33415810043721
 30
0.0
 11
-162.68866295553619
 21
-227.63413719623739
 31
0.0
  0
LINE
  8
DETAIL
  6
CONTINUOUS
 62
     5
 10
-153.4893040176693
 20
-227.33415810043721
 30
0.0
 11
-162.68866295553619
 21
-227.33415810043721
 31
0.0
  0
LINE
  8
DETAIL
  6
CONTINUOUS
 62
     5
 10
-162.68866295553619
 20
-227.63413719623739
 30
0.0
 11
-161.4887465723362
 21
-228.8340535794373
 31
0.0
  0
LINE
  8
DETAIL
  6
CONTINUOUS
 62
     5
 10
-161.4887465723362
 20
-228.8340535794373
 30
0.0
 11
-159.98885109333619
 21
-229.53400480297071
 31
0.0
  0
LINE
  8
DETAIL
  6
CONTINUOUS
 62
     5
 10
-159.98885109333619
 20
-229.53400480297071
 30
0.0
 11
-158.18897651853609
 21
-229.83398389877061
 31
0.0
  0
LINE
  8
DETAIL
  6
CONTINUOUS
 62
     5
 10
-158.18897651853609
 20
-229.83398389877061
 30
0.0
 11
-156.2891089118028
 21
-229.53400480297071
 31
0.0
  0
LINE
  8
DETAIL
  6
CONTINUOUS
 62
     5
 10
-156.2891089118028
 20
-229.53400480297071
 30
0.0
 11
-154.7892134328028
 21
-228.8340535794373
 31
0.0
  0
LINE
  8
DETAIL
  6
CONTINUOUS
 62
     5
 10
-154.7892134328028
 20
-228.8340535794373
 30
0.0
 11
-153.4893040176693
 21
-227.63413719623739
 31
0.0
  0
LINE
  8
DETAIL
  6
CONTINUOUS
 62
     5
 10
-4.6496759849000568
 20
-174.88781285140291
 30
0.0
 11
-4.9496550806999551
 21
-173.38791737240311
 31
0.0
  0
LINE
  8
DETAIL
  6
CONTINUOUS
 62
     5
 10
-4.9496550806999551
 20
-173.38791737240311
 30
0.0
 11
-5.6496063042334868
 21
-172.08800795726961
 31
0.0
  0
LINE
  8
DETAIL
  6
CONTINUOUS
 62
     5
 10
-5.6496063042334868
 20
-172.08800795726961
 30
0.0
 11
-6.8495226874334207
 21
-171.1880706698696
 31
0.0
  0
LINE
  8
DETAIL
  6
CONTINUOUS
 62
     5
 10
-6.8495226874334207
 20
-171.1880706698696
 30
0.0
 11
-8.149432102566891
 21
-170.3881264144029
 31
0.0
  0
LINE
  8
DETAIL
  6
CONTINUOUS
 62
     5
 10
-8.149432102566891
 20
-170.3881264144029
 30
0.0
 11
-9.6493275815668653
 21
-170.3881264144029
 31
0.0
  0
LINE
  8
DETAIL
  6
CONTINUOUS
 62
     5
 10
-9.6493275815668653
 20
-170.3881264144029
 30
0.0
 11
-11.14922306056684
 21
-170.6881055102028
 31
0.0
  0
LINE
  8
DETAIL
  6
CONTINUOUS
 62
     5
 10
-11.14922306056684
 20
-170.6881055102028
 30
0.0
 11
-12.64911853956681
 21
-171.38805673373619
 31
0.0
  0
LINE
  8
DETAIL
  6
CONTINUOUS
 62
     5
 10
-12.64911853956681
 20
-171.38805673373619
 30
0.0
 11
-13.349069763100291
 21
-172.68796614886949
 31
0.0
  0
LINE
  8
DETAIL
  6
CONTINUOUS
 62
     5
 10
-13.349069763100291
 20
-172.68796614886949
 30
0.0
 11
-13.949027954700281
 21
-174.08786859593619
 31
0.0
  0
LINE
  8
DETAIL
  6
CONTINUOUS
 62
     5
 10
-13.949027954700281
 20
-174.08786859593619
 30
0.0
 11
-13.949027954700281
 21
-175.68775710686961
 31
0.0
  0
LINE
  8
DETAIL
  6
CONTINUOUS
 62
     5
 10
-13.949027954700281
 20
-175.68775710686961
 30
0.0
 11
-13.349069763100291
 21
-177.08765955393639
 31
0.0
  0
LINE
  8
DETAIL
  6
CONTINUOUS
 62
     5
 10
-13.349069763100291
 20
-177.08765955393639
 30
0.0
 11
-12.64911853956681
 21
-178.38756896906969
 31
0.0
  0
LINE
  8
DETAIL
  6
CONTINUOUS
 62
     5
 10
-12.64911853956681
 20
-178.38756896906969
 30
0.0
 11
-11.14922306056684
 21
-179.08752019260311
 31
0.0
  0
LINE
  8
DETAIL
  6
CONTINUOUS
 62
     5
 10
-11.14922306056684
 20
-179.08752019260311
 30
0.0
 11
-9.6493275815668653
 21
-179.5874853522696
 31
0.0
  0
LINE
  8
DETAIL
  6
CONTINUOUS
 62
     5
 10
-9.6493275815668653
 20
-179.5874853522696
 30
0.0
 11
-8.149432102566891
 21
-179.38749928840321
 31
0.0
  0
LINE
  8
DETAIL
  6
CONTINUOUS
 62
     5
 10
-8.149432102566891
 20
-179.38749928840321
 30
0.0
 11
-6.8495226874334207
 21
-178.88753412873641
 31
0.0
  0
LINE
  8
DETAIL
  6
CONTINUOUS
 62
     5
 10
-6.8495226874334207
 20
-178.88753412873641
 30
0.0
 11
-5.6496063042334868
 21
-177.88760380940289
 31
0.0
  0
LINE
  8
DETAIL
  6
CONTINUOUS
 62
     5
 10
-5.6496063042334868
 20
-177.88760380940289
 30
0.0
 11
-4.9496550806999551
 21
-176.387708330403
 31
0.0
  0
LINE
  8
DETAIL
  6
CONTINUOUS
 62
     5
 10
-4.9496550806999551
 20
-176.387708330403
 30
0.0
 11
-4.6496759849000568
 21
-174.88781285140291
 31
0.0
  0
LINE
  8
DETAIL
  6
CONTINUOUS
 62
     5
 10
-8.3494181664333951
 20
-193.33652724310329
 30
0.0
 11
-8.6493972622334354
 21
-191.8366317641032
 31
0.0
  0
LINE
  8
DETAIL
  6
CONTINUOUS
 62
     5
 10
-8.6493972622334354
 20
-191.8366317641032
 30
0.0
 11
-9.3493484857667966
 21
-190.6367153809033
 31
0.0
  0
LINE
  8
DETAIL
  6
CONTINUOUS
 62
     5
 10
-9.3493484857667966
 20
-190.6367153809033
 30
0.0
 11
-10.349278805100139
 21
-189.53679202963639
 31
0.0
  0
LINE
  8
DETAIL
  6
CONTINUOUS
 62
     5
 10
-10.349278805100139
 20
-189.53679202963639
 30
0.0
 11
-11.849174284100229
 21
-188.83684080610331
 31
0.0
  0
LINE
  8
DETAIL
  6
CONTINUOUS
 62
     5
 10
-11.849174284100229
 20
-188.83684080610331
 30
0.0
 11
-13.349069763100291
 21
-188.83684080610331
 31
0.0
  0
LINE
  8
DETAIL
  6
CONTINUOUS
 62
     5
 10
-13.349069763100291
 20
-188.83684080610331
 30
0.0
 11
-14.9489582740336
 21
-189.0368268699699
 31
0.0
  0
LINE
  8
DETAIL
  6
CONTINUOUS
 62
     5
 10
-14.9489582740336
 20
-189.0368268699699
 30
0.0
 11
-16.14887465723362
 21
-189.8367711254366
 31
0.0
  0
LINE
  8
DETAIL
  6
CONTINUOUS
 62
     5
 10
-16.14887465723362
 20
-189.8367711254366
 30
0.0
 11
-17.148804976566961
 21
-191.13668054056981
 31
0.0
  0
LINE
  8
DETAIL
  6
CONTINUOUS
 62
     5
 10
-17.148804976566961
 20
-191.13668054056981
 30
0.0
 11
-17.648770136233711
 21
-192.6365760195699
 31
0.0
  0
LINE
  8
DETAIL
  6
CONTINUOUS
 62
     5
 10
-17.648770136233711
 20
-192.6365760195699
 30
0.0
 11
-17.648770136233711
 21
-194.03647846663671
 31
0.0
  0
LINE
  8
DETAIL
  6
CONTINUOUS
 62
     5
 10
-17.648770136233711
 20
-194.03647846663671
 30
0.0
 11
-17.148804976566961
 21
-195.63636697757011
 31
0.0
  0
LINE
  8
DETAIL
  6
CONTINUOUS
 62
     5
 10
-17.148804976566961
 20
-195.63636697757011
 30
0.0
 11
-16.14887465723362
 21
-196.83628336077001
 31
0.0
  0
LINE
  8
DETAIL
  6
CONTINUOUS
 62
     5
 10
-16.14887465723362
 20
-196.83628336077001
 30
0.0
 11
-14.9489582740336
 21
-197.63622761623671
 31
0.0
  0
LINE
  8
DETAIL
  6
CONTINUOUS
 62
     5
 10
-14.9489582740336
 20
-197.63622761623671
 30
0.0
 11
-13.349069763100291
 21
-198.13619277590331
 31
0.0
  0
LINE
  8
DETAIL
  6
CONTINUOUS
 62
     5
 10
-13.349069763100291
 20
-198.13619277590331
 30
0.0
 11
-11.849174284100229
 21
-197.83621368010341
 31
0.0
  0
LINE
  8
DETAIL
  6
CONTINUOUS
 62
     5
 10
-11.849174284100229
 20
-197.83621368010341
 30
0.0
 11
-10.349278805100139
 21
-197.33624852043661
 31
0.0
  0
LINE
  8
DETAIL
  6
CONTINUOUS
 62
     5
 10
-10.349278805100139
 20
-197.33624852043661
 30
0.0
 11
-9.3493484857667966
 21
-196.3363182011033
 31
0.0
  0
LINE
  8
DETAIL
  6
CONTINUOUS
 62
     5
 10
-9.3493484857667966
 20
-196.3363182011033
 30
0.0
 11
-8.6493972622334354
 21
-194.83642272210341
 31
0.0
  0
LINE
  8
DETAIL
  6
CONTINUOUS
 62
     5
 10
-8.6493972622334354
 20
-194.83642272210341
 30
0.0
 11
-8.3494181664333951
 21
-193.33652724310329
 31
0.0
  0
LINE
  8
DETAIL
  6
CONTINUOUS
 62
     5
 10
-3.3497665697666998
 20
-66.445369719701148
 30
0.0
 11
-3.6497456655667411
 21
-64.94547424070106
 31
0.0
  0
LINE
  8
DETAIL
  6
CONTINUOUS
 62
     5
 10
-3.6497456655667411
 20
-64.94547424070106
 30
0.0
 11
-4.3496968890999881
 21
-63.745557857501012
 31
0.0
  0
LINE
  8
DETAIL
  6
CONTINUOUS
 62
     5
 10
-4.3496968890999881
 20
-63.745557857501012
 30
0.0
 11
-5.3496272084334464
 21
-62.745627538167703
 31
0.0
  0
LINE
  8
DETAIL
  6
CONTINUOUS
 62
     5
 10
-5.3496272084334464
 20
-62.745627538167703
 30
0.0
 11
-6.8495226874334207
 21
-61.945683282700998
 31
0.0
  0
LINE
  8
DETAIL
  6
CONTINUOUS
 62
     5
 10
-6.8495226874334207
 20
-61.945683282700998
 30
0.0
 11
-8.3494181664333951
 21
-61.945683282700998
 31
0.0
  0
LINE
  8
DETAIL
  6
CONTINUOUS
 62
     5
 10
-8.3494181664333951
 20
-61.945683282700998
 30
0.0
 11
-9.9493066773669057
 21
-62.145669346567729
 31
0.0
  0
LINE
  8
DETAIL
  6
CONTINUOUS
 62
     5
 10
-9.9493066773669057
 20
-62.145669346567729
 30
0.0
 11
-11.14922306056684
 21
-62.945613602034427
 31
0.0
  0
LINE
  8
DETAIL
  6
CONTINUOUS
 62
     5
 10
-11.14922306056684
 20
-62.945613602034427
 30
0.0
 11
-12.14915337990027
 21
-64.24552301716767
 31
0.0
  0
LINE
  8
DETAIL
  6
CONTINUOUS
 62
     5
 10
-12.14915337990027
 20
-64.24552301716767
 30
0.0
 11
-12.64911853956681
 21
-65.645425464234449
 31
0.0
  0
LINE
  8
DETAIL
  6
CONTINUOUS
 62
     5
 10
-12.64911853956681
 20
-65.645425464234449
 30
0.0
 11
-12.64911853956681
 21
-67.145320943234424
 31
0.0
  0
LINE
  8
DETAIL
  6
CONTINUOUS
 62
     5
 10
-12.64911853956681
 20
-67.145320943234424
 30
0.0
 11
-12.14915337990027
 21
-68.745209454167821
 31
0.0
  0
LINE
  8
DETAIL
  6
CONTINUOUS
 62
     5
 10
-12.14915337990027
 20
-68.745209454167821
 30
0.0
 11
-11.14922306056684
 21
-69.945125837367868
 31
0.0
  0
LINE
  8
DETAIL
  6
CONTINUOUS
 62
     5
 10
-11.14922306056684
 20
-69.945125837367868
 30
0.0
 11
-9.9493066773669057
 21
-70.645077060901144
 31
0.0
  0
LINE
  8
DETAIL
  6
CONTINUOUS
 62
     5
 10
-9.9493066773669057
 20
-70.645077060901144
 30
0.0
 11
-8.3494181664333951
 21
-71.245035252501111
 31
0.0
  0
LINE
  8
DETAIL
  6
CONTINUOUS
 62
     5
 10
-8.3494181664333951
 20
-71.245035252501111
 30
0.0
 11
-6.8495226874334207
 21
-70.945056156701071
 31
0.0
  0
LINE
  8
DETAIL
  6
CONTINUOUS
 62
     5
 10
-6.8495226874334207
 20
-70.945056156701071
 30
0.0
 11
-5.3496272084334464
 21
-70.445090997034526
 31
0.0
  0
LINE
  8
DETAIL
  6
CONTINUOUS
 62
     5
 10
-5.3496272084334464
 20
-70.445090997034526
 30
0.0
 11
-4.3496968890999881
 21
-69.445160677701097
 31
0.0
  0
LINE
  8
DETAIL
  6
CONTINUOUS
 62
     5
 10
-4.3496968890999881
 20
-69.445160677701097
 30
0.0
 11
-3.6497456655667411
 21
-67.945265198701122
 31
0.0
  0
LINE
  8
DETAIL
  6
CONTINUOUS
 62
     5
 10
-3.6497456655667411
 20
-67.945265198701122
 30
0.0
 11
-3.3497665697666998
 21
-66.445369719701148
 31
0.0
  0
LINE
  8
DETAIL
  6
CONTINUOUS
 62
     5
 10
168.98822396733641
 20
-151.68942944286911
 30
0.0
 11
168.98822396733641
 21
-149.38958970840261
 31
0.0
  0
LINE
  8
DETAIL
  6
CONTINUOUS
 62
     5
 10
168.98822396733641
 20
-142.39007747306911
 30
0.0
 11
168.98822396733641
 21
-139.89025167473571
 31
0.0
  0
LINE
  8
DETAIL
  6
CONTINUOUS
 62
     5
 10
169.8881612547363
 20
-151.1894642832026
 30
0.0
 11
171.4880497656697
 21
-149.18960364453599
 31
0.0
  0
LINE
  8
DETAIL
  6
CONTINUOUS
 62
     5
 10
171.4880497656697
 20
-149.18960364453599
 30
0.0
 11
172.188000989203
 21
-147.0897499739358
 31
0.0
  0
LINE
  8
DETAIL
  6
CONTINUOUS
 62
     5
 10
172.188000989203
 20
-147.0897499739358
 30
0.0
 11
172.188000989203
 21
-144.58992417560239
 31
0.0
  0
LINE
  8
DETAIL
  6
CONTINUOUS
 62
     5
 10
172.188000989203
 20
-144.58992417560239
 30
0.0
 11
171.4880497656697
 21
-142.39007747306911
 31
0.0
  0
LINE
  8
DETAIL
  6
CONTINUOUS
 62
     5
 10
171.4880497656697
 20
-142.39007747306911
 30
0.0
 11
169.8881612547363
 21
-140.5902028982691
 31
0.0
  0
LINE
  8
DETAIL
  6
CONTINUOUS
 62
     5
 10
-94.043446533301619
 20
-1.2999094151332431
 30
0.0
 11
-95.743328076168325
 21
0.0
 31
0.0
  0
LINE
  8
DETAIL
  6
CONTINUOUS
 62
     5
 10
-95.743328076168325
 20
0.0
 30
0.0
 11
-97.543202650968283
 21
0.6999512235333896
 31
0.0
  0
LINE
  8
DETAIL
  6
CONTINUOUS
 62
     5
 10
-97.543202650968283
 20
0.6999512235333896
 30
0.0
 11
-99.543063289635086
 21
0.6999512235333896
 31
0.0
  0
LINE
  8
DETAIL
  6
CONTINUOUS
 62
     5
 10
-99.543063289635086
 20
0.6999512235333896
 30
0.0
 11
-101.5429239283018
 21
0.0
 31
0.0
  0
LINE
  8
DETAIL
  6
CONTINUOUS
 62
     5
 10
-101.5429239283018
 20
0.0
 30
0.0
 11
-103.04281940730181
 21
-1.2999094151332431
 31
0.0
  0
LINE
  8
DETAIL
  6
CONTINUOUS
 62
     5
 10
-103.04281940730181
 20
-227.03417900463711
 30
0.0
 11
-101.5429239283018
 21
-228.3340884197705
 31
0.0
  0
LINE
  8
DETAIL
  6
CONTINUOUS
 62
     5
 10
-101.5429239283018
 20
-228.3340884197705
 30
0.0
 11
-99.543063289635086
 21
-229.03403964330391
 31
0.0
  0
LINE
  8
DETAIL
  6
CONTINUOUS
 62
     5
 10
-99.543063289635086
 20
-229.03403964330391
 30
0.0
 11
-97.543202650968283
 21
-229.03403964330391
 31
0.0
  0
LINE
  8
DETAIL
  6
CONTINUOUS
 62
     5
 10
-97.543202650968283
 20
-229.03403964330391
 30
0.0
 11
-95.743328076168325
 21
-228.3340884197705
 31
0.0
  0
LINE
  8
DETAIL
  6
CONTINUOUS
 62
     5
 10
-95.743328076168325
 20
-228.3340884197705
 30
0.0
 11
-94.043446533301619
 21
-227.03417900463711
 31
0.0
  0
LINE
  8
DETAIL
  6
CONTINUOUS
 62
     5
 10
-169.188210031203
 20
-151.68942944286911
 30
0.0
 11
-169.188210031203
 21
-149.38958970840261
 31
0.0
  0
LINE
  8
DETAIL
  6
CONTINUOUS
 62
     5
 10
-169.188210031203
 20
-142.39007747306911
 30
0.0
 11
-169.188210031203
 21
-139.89025167473571
 31
0.0
  0
LINE
  8
DETAIL
  6
CONTINUOUS
 62
     5
 10
-170.18814035053629
 20
-140.5902028982691
 30
0.0
 11
-171.48804976566959
 21
-142.39007747306911
 31
0.0
  0
LINE
  8
DETAIL
  6
CONTINUOUS
 62
     5
 10
-171.48804976566959
 20
-142.39007747306911
 30
0.0
 11
-172.28799402113631
 21
-144.58992417560239
 31
0.0
  0
LINE
  8
DETAIL
  6
CONTINUOUS
 62
     5
 10
-172.28799402113631
 20
-144.58992417560239
 30
0.0
 11
-172.28799402113631
 21
-147.0897499739358
 31
0.0
  0
LINE
  8
DETAIL
  6
CONTINUOUS
 62
     5
 10
-172.28799402113631
 20
-147.0897499739358
 30
0.0
 11
-171.48804976566959
 21
-149.18960364453599
 31
0.0
  0
LINE
  8
DETAIL
  6
CONTINUOUS
 62
     5
 10
-171.48804976566959
 20
-149.18960364453599
 30
0.0
 11
-170.18814035053629
 21
-151.1894642832026
 31
0.0
  0
LINE
  8
DETAIL
  6
CONTINUOUS
 62
     5
 10
119.04170451663541
 20
-91.943592862701507
 30
0.0
 11
118.74172542083539
 21
-90.443697383701533
 31
0.0
  0
LINE
  8
DETAIL
  6
CONTINUOUS
 62
     5
 10
118.74172542083539
 20
-90.443697383701533
 30
0.0
 11
118.0417741973021
 21
-89.243781000501457
 31
0.0
  0
LINE
  8
DETAIL
  6
CONTINUOUS
 62
     5
 10
118.0417741973021
 20
-89.243781000501457
 30
0.0
 11
117.0418438779687
 21
-88.143857649234747
 31
0.0
  0
LINE
  8
DETAIL
  6
CONTINUOUS
 62
     5
 10
117.0418438779687
 20
-88.143857649234747
 30
0.0
 11
115.5419483989687
 21
-87.443906425701471
 31
0.0
  0
LINE
  8
DETAIL
  6
CONTINUOUS
 62
     5
 10
115.5419483989687
 20
-87.443906425701471
 30
0.0
 11
114.0420529199688
 21
-87.443906425701471
 31
0.0
  0
LINE
  8
DETAIL
  6
CONTINUOUS
 62
     5
 10
114.0420529199688
 20
-87.443906425701471
 30
0.0
 11
112.4421644090352
 21
-87.743885521501511
 31
0.0
  0
LINE
  8
DETAIL
  6
CONTINUOUS
 62
     5
 10
112.4421644090352
 20
-87.743885521501511
 30
0.0
 11
111.24224802583529
 21
-88.443836745034787
 31
0.0
  0
LINE
  8
DETAIL
  6
CONTINUOUS
 62
     5
 10
111.24224802583529
 20
-88.443836745034787
 30
0.0
 11
110.24231770650201
 21
-89.643753128234721
 31
0.0
  0
LINE
  8
DETAIL
  6
CONTINUOUS
 62
     5
 10
110.24231770650201
 20
-89.643753128234721
 30
0.0
 11
109.74235254683531
 21
-91.243641639168231
 31
0.0
  0
LINE
  8
DETAIL
  6
CONTINUOUS
 62
     5
 10
109.74235254683531
 20
-91.243641639168231
 30
0.0
 11
109.74235254683531
 21
-92.743537118168206
 31
0.0
  0
LINE
  8
DETAIL
  6
CONTINUOUS
 62
     5
 10
109.74235254683531
 20
-92.743537118168206
 30
0.0
 11
110.24231770650201
 21
-94.24343259716818
 31
0.0
  0
LINE
  8
DETAIL
  6
CONTINUOUS
 62
     5
 10
110.24231770650201
 20
-94.24343259716818
 30
0.0
 11
111.24224802583529
 21
-95.443348980368341
 31
0.0
  0
LINE
  8
DETAIL
  6
CONTINUOUS
 62
     5
 10
111.24224802583529
 20
-95.443348980368341
 30
0.0
 11
112.4421644090352
 21
-96.243293235834926
 31
0.0
  0
LINE
  8
DETAIL
  6
CONTINUOUS
 62
     5
 10
112.4421644090352
 20
-96.243293235834926
 30
0.0
 11
114.0420529199688
 21
-96.743258395501584
 31
0.0
  0
LINE
  8
DETAIL
  6
CONTINUOUS
 62
     5
 10
114.0420529199688
 20
-96.743258395501584
 30
0.0
 11
115.5419483989687
 21
-96.443279299701629
 31
0.0
  0
LINE
  8
DETAIL
  6
CONTINUOUS
 62
     5
 10
115.5419483989687
 20
-96.443279299701629
 30
0.0
 11
117.0418438779687
 21
-95.943314140034886
 31
0.0
  0
LINE
  8
DETAIL
  6
CONTINUOUS
 62
     5
 10
117.0418438779687
 20
-95.943314140034886
 30
0.0
 11
118.0417741973021
 21
-94.94338382070157
 31
0.0
  0
LINE
  8
DETAIL
  6
CONTINUOUS
 62
     5
 10
118.0417741973021
 20
-94.94338382070157
 30
0.0
 11
118.74172542083539
 21
-93.443488341701595
 31
0.0
  0
LINE
  8
DETAIL
  6
CONTINUOUS
 62
     5
 10
118.74172542083539
 20
-93.443488341701595
 30
0.0
 11
119.04170451663541
 21
-91.943592862701507
 31
0.0
  0
TEXT
  8
NOTE
  6
CONTINUOUS
 62
     4
 10
242.93950130185891
 20
36.417247235677678
 30
0.0
 40
64.0
  1
AH
 41
0.9
  0
LINE
  8
NOTE
  6
CONTINUOUS
 62
     4
 10
153.91041617519639
 20
-99.368650324811398
 30
0.0
 11
149.50000000000031
 21
-103.7427706308351
 31
0.0
  0
LINE
  8
NOTE
  6
CONTINUOUS
 62
     4
 10
149.50000000000031
 20
-103.7427706308351
 30
0.0
 11
151.13246326439119
 21
-97.749460778974083
 31
0.0
  0
LINE
  8
NOTE
  6
CONTINUOUS
 62
     4
 10
149.50000000000031
 20
-103.7427706308351
 30
0.0
 11
155.54287943958721
 21
-93.37534047295037
 31
0.0
  0
LINE
  8
NOTE
  6
CONTINUOUS
 62
     4
 10
155.54287943958721
 20
-93.375340472950427
 30
0.0
 11
222.50033735218699
 21
21.499823825517641
 31
0.0
  0
LINE
  8
NOTE
  6
CONTINUOUS
 62
     4
 10
222.50033735218699
 20
21.499823825517641
 30
0.0
 11
358.24319449504418
 21
21.499823825517641
 31
0.0
  0
TEXT
  8
NOTE
  6
CONTINUOUS
 62
     4
 10
-659.26564811877256
 20
87.154665068341728
 30
0.0
 40
64.0
  1
M4アースねじ
 41
0.9
 72
     2
 11
-216.0199338330581
 21
87.154665068341728
 31
0.0
  0
TEXT
  8
NOTE
  6
CONTINUOUS
 62
     4
 10
-415.93743999118959
 20
239.9248521301229
 30
0.0
 40
64.0
  1
点検口
 41
0.9
 72
     2
 11
-227.7774399911896
 21
239.9248521301229
 31
0.0
  0
TEXT
  8
NOTE
  6
CONTINUOUS
 62
     4
 10
236.36813419497909
 20
150.268114923203
 30
0.0
 40
64.0
  1
端子カバー
 41
0.9
  0
LINE
  8
NOTE
  6
CONTINUOUS
 62
     4
 10
107.73167032289111
 20
-177.88959954311591
 30
0.0
 11
104.04274972663509
 21
-182.8872554060699
 31
0.0
  0
LINE
  8
NOTE
  6
CONTINUOUS
 62
     4
 10
104.04274972663509
 20
-182.8872554060699
 30
0.0
 11
104.7386114423622
 21
-176.71469712262001
 31
0.0
  0
LINE
  8
NOTE
  6
CONTINUOUS
 62
     4
 10
104.04274972663509
 20
-182.8872554060699
 30
0.0
 11
108.4275320386182
 21
-171.7170412596661
 31
0.0
  0
LINE
  8
NOTE
  6
CONTINUOUS
 62
     4
 10
108.4275320386182
 20
-171.7170412596661
 30
0.0
 11
226.1976660955338
 21
128.30187048226341
 31
0.0
  0
LINE
  8
NOTE
  6
CONTINUOUS
 62
     4
 10
226.1976660955338
 20
128.30187048226341
 30
0.0
 11
589.59766609553355
 21
128.30187048226341
 31
0.0
  0
LINE
  8
NOTE
  6
CONTINUOUS
 62
     4
 10
37.437528817882139
 20
-17.05970394921323
 30
0.0
 11
40.526221221021387
 21
-22.449015457076712
 31
0.0
  0
LINE
  8
NOTE
  6
CONTINUOUS
 62
     4
 10
40.526221221021387
 20
-22.449015457076712
 30
0.0
 11
35.156674675414592
 21
-19.326089075529751
 31
0.0
  0
LINE
  8
NOTE
  6
CONTINUOUS
 62
     4
 10
40.526221221021387
 20
-22.449015457076712
 30
0.0
 11
32.067982272275337
 21
-13.936777567666271
 31
0.0
  0
LINE
  8
NOTE
  6
CONTINUOUS
 62
     4
 10
32.067982272275287
 20
-13.936777567666271
 30
0.0
 11
-192.60697189174471
 21
212.17254249594359
 31
0.0
  0
LINE
  8
NOTE
  6
CONTINUOUS
 62
     4
 10
-192.60697189174471
 20
212.17254249594359
 30
0.0
 11
-417.76697189174479
 21
212.17254249594359
 31
0.0
  0
LINE
  8
NOTE
  6
CONTINUOUS
 62
     4
 10
34.795832070802931
 20
-67.191064190127861
 30
0.0
 11
39.322259807784057
 21
-71.445021316367843
 31
0.0
  0
LINE
  8
NOTE
  6
CONTINUOUS
 62
     4
 10
39.322259807784057
 20
-71.445021316367843
 30
0.0
 11
33.275277694953388
 21
-70.02420935938494
 31
0.0
  0
LINE
  8
NOTE
  6
CONTINUOUS
 62
     4
 10
39.322259807784057
 20
-71.445021316367843
 30
0.0
 11
28.748849957972229
 21
-65.770252233144959
 31
0.0
  0
LINE
  8
NOTE
  6
CONTINUOUS
 62
     4
 10
28.748849957972229
 20
-65.770252233144959
 30
0.0
 11
-212.07371239044519
 21
63.479672887427569
 31
0.0
  0
LINE
  8
NOTE
  6
CONTINUOUS
 62
     4
 10
-212.07371239044519
 20
63.479672887427569
 30
0.0
 11
-692.31942667615954
 21
63.479672887427569
 31
0.0
  0
LINE
  8
SIZE
  6
CONTINUOUS
 62
    30
 10
-108.8424152594352
 20
-243.83440198277049
 30
0.0
 11
-108.8424152594352
 21
-413.47848252277248
 31
0.0
  0
LINE
  8
SIZE
  6
CONTINUOUS
 62
    30
 10
124.7413073368355
 20
-238.83475038610371
 30
0.0
 11
124.7413073368355
 21
-413.47848252277248
 31
0.0
  0
LINE
  8
SIZE
  6
CONTINUOUS
 62
    30
 10
-96.842415259435199
 20
-393.47848252277248
 30
0.0
 11
112.7413073368355
 21
-393.47848252277248
 31
0.0
  0
CIRCLE
  8
SIZE
  6
CONTINUOUS
 62
    30
 10
-108.8424152594352
 20
-393.47848252277248
 30
0.0
 40
6.0
  0
LINE
  8
SIZE
  6
CONTINUOUS
 62
    30
 10
-108.8424152594352
 20
-393.47848252277248
 30
0.0
 11
-96.842415259435199
 21
-393.47848252277248
 31
0.0
  0
CIRCLE
  8
SIZE
  6
CONTINUOUS
 62
    30
 10
124.7413073368355
 20
-393.47848252277248
 30
0.0
 40
6.0
  0
LINE
  8
SIZE
  6
CONTINUOUS
 62
    30
 10
124.7413073368355
 20
-393.47848252277248
 30
0.0
 11
112.7413073368355
 21
-393.47848252277248
 31
0.0
  0
TEXT
  8
SIZE
  6
CONTINUOUS
 62
    30
 10
-67.479125389871257
 20
-368.47848252277248
 30
0.0
 40
64.0
  1
234
 41
0.9
 72
     1
 11
7.9494460387001604
 21
-368.47848252277248
 31
0.0
  0
POINT
  8
DEFPOINTS
  6
CONTINUOUS
 62
    30
 10
-108.8424152594352
 20
-223.83440198277049
 30
0.0
  0
POINT
  8
DEFPOINTS
  6
CONTINUOUS
 62
    30
 10
124.7413073368355
 20
-218.83475038610371
 30
0.0
  0
POINT
  8
DEFPOINTS
  6
CONTINUOUS
 62
    30
 10
124.7413073368355
 20
-393.47848252277248
 30
0.0
  0
LINE
  8
SIZE
  6
CONTINUOUS
 62
    30
 10
124.7413073368355
 20
-238.83475038610371
 30
0.0
 11
124.7413073368355
 21
-413.47848252277248
 31
0.0
  0
LINE
  8
SIZE
  6
CONTINUOUS
 62
    30
 10
167.68831455220291
 20
-244.5343532063039
 30
0.0
 11
167.68831455220291
 21
-413.47848252277248
 31
0.0
  0
LINE
  8
SIZE
  6
CONTINUOUS
 62
    30
 10
112.7413073368355
 20
-393.47848252277248
 30
0.0
 11
100.7413073368355
 21
-393.47848252277248
 31
0.0
  0
LINE
  8
SIZE
  6
CONTINUOUS
 62
    30
 10
179.68831455220291
 20
-393.47848252277248
 30
0.0
 11
369.59260309253523
 21
-393.47848252277248
 31
0.0
  0
LINE
  8
SIZE
  6
CONTINUOUS
 62
    30
 10
124.7413073368355
 20
-393.47848252277248
 30
0.0
 11
167.68831455220291
 21
-393.47848252277248
 31
0.0
  0
CIRCLE
  8
SIZE
  6
CONTINUOUS
 62
    30
 10
124.7413073368355
 20
-393.47848252277248
 30
0.0
 40
6.0
  0
LINE
  8
SIZE
  6
CONTINUOUS
 62
    30
 10
124.7413073368355
 20
-393.47848252277248
 30
0.0
 11
112.7413073368355
 21
-393.47848252277248
 31
0.0
  0
CIRCLE
  8
SIZE
  6
CONTINUOUS
 62
    30
 10
167.68831455220291
 20
-393.47848252277248
 30
0.0
 40
6.0
  0
LINE
  8
SIZE
  6
CONTINUOUS
 62
    30
 10
167.68831455220291
 20
-393.47848252277248
 30
0.0
 11
179.68831455220291
 21
-393.47848252277248
 31
0.0
  0
TEXT
  8
SIZE
  6
CONTINUOUS
 62
    30
 10
251.33546023539239
 20
-368.47848252277248
 30
0.0
 40
64.0
  1
43
 41
0.9
 72
     1
 11
297.96403166396391
 21
-368.47848252277248
 31
0.0
  0
POINT
  8
DEFPOINTS
  6
CONTINUOUS
 62
    30
 10
124.7413073368355
 20
-218.83475038610371
 30
0.0
  0
POINT
  8
DEFPOINTS
  6
CONTINUOUS
 62
    30
 10
167.68831455220291
 20
-224.5343532063039
 30
0.0
  0
POINT
  8
DEFPOINTS
  6
CONTINUOUS
 62
    30
 10
167.68831455220291
 20
-393.47848252277248
 30
0.0
  0
ENDSEC
  0
EOF
