  0
SECTION
  2
HEADER
  9
$ACADVER
  1
AC1009
  9
$DWGCODEPAGE
  3
dos932
  9
$INSBASE
 10
0.0
 20
0.0
 30
0.0
  9
$EXTMIN
 10
-945.09935721984948
 20
-787.54703600000005
 30
0.0
  9
$EXTMAX
 10
1186.7431924478119
 20
705.62192176088843
 30
0.0
  9
$LIMMIN
 10
-2970.0
 20
-2100.0
  9
$LIMMAX
 10
2970.0
 20
2100.0
  9
$ORTHOMODE
 70
     0
  9
$REGENMODE
 70
     1
  9
$FILLMODE
 70
     1
  9
$QTEXTMODE
 70
     0
  9
$MIRRTEXT
 70
     0
  9
$LTSCALE
 40
20.0
  9
$ATTMODE
 70
     1
  9
$TEXTSIZE
 40
64.0
  9
$TRACEWID
 40
0.05
  9
$TEXTSTYLE
  7
STANDARD
  9
$CLAYER
  8
SIZE
  9
$CELTYPE
  6
CONTINUOUS
  9
$CECOLOR
 62
     7
  9
$DIMSCALE
 40
1.0
  9
$DIMASZ
 40
12.0
  9
$DIMEXO
 40
20.0
  9
$DIMDLI
 40
200.0
  9
$DIMRND
 40
0.0
  9
$DIMDLE
 40
0.0
  9
$DIMEXE
 40
20.0
  9
$DIMTP
 40
0.0
  9
$DIMTM
 40
0.0
  9
$DIMTXT
 40
64.0
  9
$DIMCEN
 40
0.09
  9
$DIMTSZ
 40
0.0
  9
$DIMTOL
 70
     0
  9
$DIMLIM
 70
     0
  9
$DIMTIH
 70
     0
  9
$DIMTOH
 70
     0
  9
$DIMSE1
 70
     0
  9
$DIMSE2
 70
     0
  9
$DIMTAD
 70
     1
  9
$DIMZIN
 70
     8
  9
$DIMBLK
  1

  9
$DIMASO
 70
     1
  9
$DIMSHO
 70
     0
  9
$DIMPOST
  1

  9
$DIMAPOST
  1

  9
$DIMALT
 70
     0
  9
$DIMALTD
 70
     2
  9
$DIMALTF
 40
25.399999999999999
  9
$DIMLFAC
 40
1.0
  9
$DIMTOFL
 70
     1
  9
$DIMTVP
 40
0.0
  9
$DIMTIX
 70
     1
  9
$DIMSOXD
 70
     0
  9
$DIMSAH
 70
     0
  9
$DIMBLK1
  1

  9
$DIMBLK2
  1

  9
$DIMSTYLE
  2
STANDARD
  9
$DIMCLRD
 70
     7
  9
$DIMCLRE
 70
     7
  9
$DIMCLRT
 70
     7
  9
$DIMTFAC
 40
1.0
  9
$DIMGAP
 40
25.0
  9
$LUNITS
 70
     2
  9
$LUPREC
 70
     4
  9
$SKETCHINC
 40
0.1
  9
$FILLETRAD
 40
3.0
  9
$AUNITS
 70
     1
  9
$AUPREC
 70
     3
  9
$MENU
  1
ACAD
  9
$ELEVATION
 40
0.0
  9
$PELEVATION
 40
0.0
  9
$THICKNESS
 40
50.0
  9
$LIMCHECK
 70
     0
  9
$CHAMFERA
 40
0.0
  9
$CHAMFERB
 40
0.0
  9
$SKPOLY
 70
     0
  9
$TDCREATE
 40
2453019.62301037
  9
$TDUPDATE
 40
2458659.384810347
  9
$TDINDWG
 40
1.7559650579
  9
$TDUSRTIMER
 40
1.7559650579
  9
$USRTIMER
 70
     1
  9
$ANGBASE
 50
0.0
  9
$ANGDIR
 70
     0
  9
$PDMODE
 70
     3
  9
$PDSIZE
 40
-2.0
  9
$PLINEWID
 40
0.0
  9
$SPLFRAME
 70
     0
  9
$SPLINETYPE
 70
     6
  9
$SPLINESEGS
 70
     8
  9
$SURFTAB1
 70
     6
  9
$SURFTAB2
 70
     6
  9
$SURFTYPE
 70
     6
  9
$SURFU
 70
     6
  9
$SURFV
 70
     6
  9
$UCSNAME
  2

  9
$UCSORG
 10
0.0
 20
0.0
 30
0.0
  9
$UCSXDIR
 10
1.0
 20
0.0
 30
0.0
  9
$UCSYDIR
 10
0.0
 20
1.0
 30
0.0
  9
$PUCSNAME
  2

  9
$PUCSORG
 10
0.0
 20
0.0
 30
0.0
  9
$PUCSXDIR
 10
1.0
 20
0.0
 30
0.0
  9
$PUCSYDIR
 10
0.0
 20
1.0
 30
0.0
  9
$USERI1
 70
     0
  9
$USERI2
 70
     0
  9
$USERI3
 70
     0
  9
$USERI4
 70
     0
  9
$USERI5
 70
     0
  9
$USERR1
 40
20.0
  9
$USERR2
 40
0.0
  9
$USERR3
 40
0.0
  9
$USERR4
 40
0.0
  9
$USERR5
 40
0.0
  9
$WORLDVIEW
 70
     1
  9
$SHADEDGE
 70
     3
  9
$SHADEDIF
 70
    70
  9
$TILEMODE
 70
     1
  9
$MAXACTVP
 70
    48
  9
$PINSBASE
 10
0.0
 20
0.0
 30
0.0
  9
$PLIMCHECK
 70
     0
  9
$PEXTMIN
 10
-100000000000000000000.0
 20
-100000000000000000000.0
 30
-100000000000000000000.0
  9
$PEXTMAX
 10
100000000000000000000.0
 20
100000000000000000000.0
 30
100000000000000000000.0
  9
$PLIMMIN
 10
0.0
 20
0.0
  9
$PLIMMAX
 10
12.0
 20
9.0
  9
$UNITMODE
 70
     0
  9
$VISRETAIN
 70
     0
  9
$PLINEGEN
 70
     0
  9
$PSLTSCALE
 70
     0
  9
$TREEDEPTH
 70
  3020
  9
$ATTDIA
 70
     0
  9
$ATTREQ
 70
     1
  9
$BLIPMODE
 70
     1
  9
$COORDS
 70
     1
  9
$DRAGMODE
 70
     2
  9
$OSMODE
 70
     0
  9
$HANDLING
 70
     0
  9
$HANDSEED
  5
F1C0
  0
ENDSEC
  0
SECTION
  2
TABLES
  0
TABLE
  2
LTYPE
 70
     2
  0
LTYPE
  2
CONTINUOUS
 70
     0
  3
実線
 72
    65
 73
     0
 40
0.0
  0
LTYPE
  2
DASHDOT
 70
     0
  3
____ _ ____ _ ____ _ ____ _ ____ _ ____ _ ____
 72
    65
 73
     4
 40
5.5
 49
4.0
 49
-0.6
 49
0.3
 49
-0.6
  0
ENDTAB
  0
TABLE
  2
LAYER
 70
    12
  0
LAYER
  2
0
 70
     0
 62
     7
  6
CONTINUOUS
  0
LAYER
  2
BASIS
 70
     0
 62
     6
  6
DASHDOT
  0
LAYER
  2
OUTLINE
 70
     0
 62
     3
  6
CONTINUOUS
  0
LAYER
  2
DETAIL
 70
     0
 62
     5
  6
CONTINUOUS
  0
LAYER
  2
SIZE
 70
     0
 62
    30
  6
CONTINUOUS
  0
LAYER
  2
ARRANGE
 70
     0
 62
     1
  6
CONTINUOUS
  0
LAYER
  2
DEFPOINTS
 70
     0
 62
     7
  6
CONTINUOUS
  0
LAYER
  2
ETC
 70
     0
 62
    61
  6
CONTINUOUS
  0
LAYER
  2
FIX
 70
     0
 62
    11
  6
CONTINUOUS
  0
LAYER
  2
NOTE
 70
     0
 62
     4
  6
CONTINUOUS
  0
LAYER
  2
SERVICESPACE
 70
    64
 62
     2
  6
DASHDOT
  0
LAYER
  2
SYMBOLLINE
 70
    64
 62
    15
  6
CONTINUOUS
  0
ENDTAB
  0
TABLE
  2
STYLE
 70
     1
  0
STYLE
  2
STANDARD
 70
     0
 40
64.0
 41
0.9
 50
0.0
 71
     0
 42
64.0
  3
SIMPLEX.shx
  4
BIGFONT.shx
  0
ENDTAB
  0
TABLE
  2
APPID
 70
    17
  0
APPID
  2
ACAD
 70
     0
  0
APPID
  2
AUTOCAD_POSTSCRIPT_FIGURE
 70
     0
  0
APPID
  2
ACAD_EXEMPT_FROM_CAD_STANDARDS
 70
     0
  0
APPID
  2
ACAD_PSEXT
 70
     0
  0
APPID
  2
ACAUTHENVIRON
 70
     0
  0
APPID
  2
GENIUS_GENOENT_13
 70
     0
  0
APPID
  2
GENIUS_GENCFG_13
 70
     0
  0
APPID
  2
GENIUS_GENCFG0_13
 70
     0
  0
APPID
  2
GENIUS_GENCFG1_13
 70
     0
  0
APPID
  2
GENIUS_GENCFG2_13
 70
     0
  0
APPID
  2
GENIUS_GENCFG3_13
 70
     0
  0
APPID
  2
GENIUS_GENCFG4_13
 70
     0
  0
APPID
  2
GENIUS_GEVCFG0_13
 70
     0
  0
APPID
  2
CONTENTBLOCKICON
 70
     0
  0
APPID
  2
CONTENTBLOCKDESCRIPTION
 70
     0
  0
APPID
  2
ACAD_NAV_VCDISPLAY
 70
     0
  0
APPID
  2
ACAD_MLEADERVER
 70
     0
  0
ENDTAB
  0
TABLE
  2
DIMSTYLE
 70
     1
  0
DIMSTYLE
  2
STANDARD
 70
     0
  3

  4

  5
_ORIGIN
  6

  7

 40
1.0
 41
12.0
 42
20.0
 43
200.0
 44
20.0
 45
0.0
 46
0.0
 47
0.0
 48
0.0
140
64.0
141
0.09
142
0.0
143
25.399999999999999
144
1.0
145
0.0
146
1.0
147
25.0
 71
     0
 72
     0
 73
     0
 74
     0
 75
     0
 76
     0
 77
     1
 78
     8
170
     0
171
     2
172
     1
173
     0
174
     1
175
     0
176
     7
177
     7
178
     7
  0
ENDTAB
  0
TABLE
  2
VIEW
 70
     1
  0
VIEW
  2
ALL
 70
     0
 40
4282.6198079999986
 10
0.0
 20
41.309904000000003
 41
5940.0
 11
0.0
 21
0.0
 31
1.0
 12
0.0
 22
0.0
 32
0.0
 42
50.0
 43
0.0
 44
0.0
 50
0.0
 71
     0
  0
ENDTAB
  0
TABLE
  2
UCS
 70
     0
  0
ENDTAB
  0
TABLE
  2
VPORT
 70
     1
  0
VPORT
  2
*ACTIVE
 70
     0
 10
0.0
 20
0.0
 11
1.0
 21
1.0
 12
143.07943521041261
 22
-48.375863567135639
 13
0.0
 23
0.0
 14
1.0
 24
1.0
 15
0.0
 25
0.0
 16
0.0
 26
0.0
 36
1.0
 17
0.0
 27
0.0
 37
0.0
 40
1951.016933300345
 41
1.996865203761756
 42
50.0
 43
0.0
 44
0.0
 50
0.0
 51
0.0
 71
     0
 72
  1000
 73
     1
 74
     3
 75
     0
 76
     0
 77
     0
 78
     0
  0
ENDTAB
  0
ENDSEC
  0
SECTION
  2
BLOCKS
  0
BLOCK
  8
0
  2
_ORIGIN
 70
     0
 10
0.0
 20
0.0
 30
0.0
  3
_ORIGIN
  1
_ORIGIN
  0
CIRCLE
  8
0
  6
CONTINUOUS
 62
     7
 10
0.0
 20
0.0
 30
0.0
 40
0.5
  0
LINE
  8
0
  6
CONTINUOUS
 62
     7
 10
0.0
 20
0.0
 30
0.0
 11
-1.0
 21
0.0
 31
0.0
  0
ENDBLK
  8
0
  0
ENDSEC
  0
SECTION
  2
ENTITIES
  0
TEXT
  8
ETC
  6
CONTINUOUS
 62
    61
 10
639.02890673352579
 20
645.62192176088797
 30
0.0
 40
60.0
  1
BFS-15SUG2_1
 41
0.9
  0
TEXT
  8
ETC
  6
CONTINUOUS
 62
    61
 10
632.90157923352581
 20
551.50323926088777
 30
0.0
 40
60.0
  1
産業扇
 41
0.9
  0
TEXT
  8
ETC
  6
CONTINUOUS
 62
    61
 10
687.6526808684464
 20
480.92979686142422
 30
0.0
 40
40.0
  1
BFS-15SUG2
 41
0.9
  0
LINE
  8
BASIS
  6
DASHDOT
 62
     6
 10
-243.65146159949651
 20
0.0
 30
0.0
 11
198.05325643713149
 21
0.0
 31
0.0
  0
LINE
  8
DETAIL
  6
CONTINUOUS
 62
     5
 10
136.52031099999999
 20
-180.0
 30
0.0
 11
-136.47968900000001
 21
-180.0
 31
0.0
  0
POINT
  8
ARRANGE
  6
CONTINUOUS
 62
     1
 10
0.0
 20
0.0
 30
0.0
  0
CIRCLE
  8
ARRANGE
  6
CONTINUOUS
 62
     1
 10
0.0
 20
0.0
 30
0.0
 40
44.210526000000002
  0
LINE
  8
DETAIL
  6
CONTINUOUS
 62
     5
 10
-136.47968900000001
 20
-180.0
 30
0.0
 11
-136.47968900000001
 21
180.0
 31
0.0
  0
LINE
  8
BASIS
  6
DASHDOT
 62
     6
 10
0.0
 20
-401.63753600000001
 30
0.0
 11
0.0
 21
401.63753600000001
 31
0.0
  0
TEXT
  8
NOTE
  6
CONTINUOUS
 62
     4
 10
-934.74939914963034
 20
-184.22816499999979
 30
0.0
 40
70.73684200000001
  1
端子カバ－
 41
0.9
  0
LINE
  8
NOTE
  6
CONTINUOUS
 62
     4
 10
-945.09935721984948
 20
-230.2863039999998
 30
0.0
 11
-394.25873899999988
 21
-230.2863039999998
 31
0.0
  0
LINE
  8
NOTE
  6
CONTINUOUS
 62
     4
 10
417.72711499999969
 20
425.95107600000011
 30
0.0
 11
588.96310074461417
 21
425.95107600000011
 31
0.0
  0
LINE
  8
NOTE
  6
CONTINUOUS
 62
     4
 10
-195.65097400000019
 20
-140.10612999999989
 30
0.0
 11
-162.64244699999989
 21
-110.69512499999981
 31
0.0
  0
LINE
  8
NOTE
  6
CONTINUOUS
 62
     4
 10
-162.64244699999989
 20
-110.69512499999981
 30
0.0
 11
-205.9341730000001
 21
-119.66153899999981
 31
0.0
  0
LINE
  8
DETAIL
  6
CONTINUOUS
 62
     5
 10
-162.642447
 20
-136.16256799999979
 30
0.0
 11
-162.64244699999989
 21
-15.226754999999891
 31
0.0
  0
LINE
  8
NOTE
  6
CONTINUOUS
 62
     4
 10
-162.64244699999989
 20
-110.69512499999981
 30
0.0
 11
-394.25873899999988
 21
-230.2863039999998
 31
0.0
  0
ARC
  8
DETAIL
  6
CONTINUOUS
 62
     5
 10
-157.80501499999991
 20
-15.226754999999891
 30
0.0
 40
4.8374329999999999
 50
89.999999999999986
 51
180.0
  0
LINE
  8
DETAIL
  6
CONTINUOUS
 62
     5
 10
-136.52031099999999
 20
-10.389322999999861
 30
0.0
 11
-157.80501499999991
 21
-10.389322999999861
 31
0.0
  0
LINE
  8
NOTE
  6
CONTINUOUS
 62
     4
 10
174.52031099999999
 20
162.5
 30
0.0
 11
417.72711499999969
 21
425.95107600000011
 31
0.0
  0
ARC
  8
DETAIL
  6
CONTINUOUS
 62
     5
 10
-157.80501499999991
 20
-136.16256799999979
 30
0.0
 40
4.8374329999999999
 50
180.0
 51
270.0
  0
LINE
  8
DETAIL
  6
CONTINUOUS
 62
     5
 10
-136.52031099999999
 20
-140.99999999999989
 30
0.0
 11
-157.80501499999991
 21
-140.99999999999989
 31
0.0
  0
LINE
  8
NOTE
  6
CONTINUOUS
 62
     4
 10
211.3790140000001
 20
186.91323600000001
 30
0.0
 11
174.52031099999999
 21
162.5
 31
0.0
  0
LINE
  8
NOTE
  6
CONTINUOUS
 62
     4
 10
174.52031099999999
 20
162.5
 30
0.0
 11
194.23426599999991
 21
202.071834
 31
0.0
  0
TEXT
  8
NOTE
  6
CONTINUOUS
 62
     4
 10
436.43035900000001
 20
461.57894499999998
 30
0.0
 40
70.73684200000001
  1
AH
 41
0.9
  0
LINE
  8
DETAIL
  6
CONTINUOUS
 62
     5
 10
-49.31222600000001
 20
236.35736499999999
 30
0.0
 11
49.299833000000042
 21
236.50194500000001
 31
0.0
  0
LINE
  8
DETAIL
  6
CONTINUOUS
 62
     5
 10
55.0
 20
180.0
 30
0.0
 11
49.0
 21
240.0
 31
0.0
  0
LINE
  8
DETAIL
  6
CONTINUOUS
 62
     5
 10
-49.0
 20
240.0
 30
0.0
 11
-55.0
 21
180.0
 31
0.0
  0
LINE
  8
DETAIL
  6
CONTINUOUS
 62
     5
 10
-49.0
 20
240.0
 30
0.0
 11
49.0
 21
240.0
 31
0.0
  0
LINE
  8
NOTE
  6
CONTINUOUS
 62
     4
 10
152.41505099999989
 20
162.5
 30
0.0
 11
196.62557100000001
 21
162.5
 31
0.0
  0
LINE
  8
NOTE
  6
CONTINUOUS
 62
     4
 10
174.52031099999999
 20
184.60525999999999
 30
0.0
 11
174.52031099999999
 21
140.39474000000001
 31
0.0
  0
CIRCLE
  8
FIX
  6
CONTINUOUS
 62
    11
 10
174.52031099999999
 20
162.5
 30
0.0
 40
5.4469940000000001
  0
LINE
  8
DETAIL
  6
CONTINUOUS
 62
     5
 10
105.800962
 20
-183.0
 30
0.0
 11
194.52031099999999
 21
-183.0
 31
0.0
  0
LINE
  8
DETAIL
  6
CONTINUOUS
 62
     5
 10
160.01299100000011
 20
-183.5
 30
0.0
 11
130.01299100000011
 21
-183.5
 31
0.0
  0
LINE
  8
DETAIL
  6
CONTINUOUS
 62
     5
 10
168.80828700000009
 20
-142.50008500000001
 30
0.0
 11
136.52031099999999
 21
-142.50001499999999
 31
0.0
  0
LINE
  8
NOTE
  6
CONTINUOUS
 62
     4
 10
152.41505099999989
 20
-162.5
 30
0.0
 11
196.62557100000001
 21
-162.5
 31
0.0
  0
LINE
  8
NOTE
  6
CONTINUOUS
 62
     4
 10
174.52031099999999
 20
-184.60525999999999
 30
0.0
 11
174.52031099999999
 21
-140.39474000000001
 31
0.0
  0
LINE
  8
DETAIL
  6
CONTINUOUS
 62
     5
 10
194.52031099999999
 20
-142.5
 30
0.0
 11
194.52031099999999
 21
-183.0
 31
0.0
  0
LINE
  8
DETAIL
  6
CONTINUOUS
 62
     5
 10
160.01299100000011
 20
-183.5
 30
0.0
 11
160.01299100000011
 21
-183.0
 31
0.0
  0
ARC
  8
DETAIL
  6
CONTINUOUS
 62
     5
 10
174.520184
 20
-162.5
 30
0.0
 40
5.4469940000000001
 50
179.99515199999749
 51
0.0075330000021003
  0
LINE
  8
DETAIL
  6
CONTINUOUS
 62
     5
 10
169.07331699999989
 20
-162.49932000000001
 30
0.0
 11
168.8082830000001
 21
-142.50008500000001
 31
0.0
  0
LINE
  8
DETAIL
  6
CONTINUOUS
 62
     5
 10
179.96730600000001
 20
-162.5
 30
0.0
 11
179.8082830000001
 21
-142.5
 31
0.0
  0
LINE
  8
DETAIL
  6
CONTINUOUS
 62
     5
 10
194.52031099999999
 20
-142.5
 30
0.0
 11
179.8082830000001
 21
-142.5
 31
0.0
  0
CIRCLE
  8
FIX
  6
CONTINUOUS
 62
    11
 10
174.52031099999999
 20
-162.5
 30
0.0
 40
5.4469940000000001
  0
LINE
  8
DETAIL
  6
CONTINUOUS
 62
     5
 10
105.800962
 20
-183.0
 30
0.0
 11
105.800962
 21
-180.0
 31
0.0
  0
LINE
  8
NOTE
  6
CONTINUOUS
 62
     4
 10
-152.37430100000009
 20
-162.5
 30
0.0
 11
-196.58482099999989
 21
-162.5
 31
0.0
  0
LINE
  8
NOTE
  6
CONTINUOUS
 62
     4
 10
-174.4795610000001
 20
-184.60525999999999
 30
0.0
 11
-174.4795610000001
 21
-140.39474000000001
 31
0.0
  0
CIRCLE
  8
FIX
  6
CONTINUOUS
 62
    11
 10
-174.4795610000001
 20
-162.5
 30
0.0
 40
5.4469940000000001
  0
LINE
  8
NOTE
  6
CONTINUOUS
 62
     4
 10
-152.37430100000009
 20
162.5
 30
0.0
 11
-196.58482099999989
 21
162.5
 31
0.0
  0
LINE
  8
NOTE
  6
CONTINUOUS
 62
     4
 10
-174.4795610000001
 20
184.60525999999999
 30
0.0
 11
-174.4795610000001
 21
140.39474000000001
 31
0.0
  0
CIRCLE
  8
FIX
  6
CONTINUOUS
 62
    11
 10
-174.4795610000001
 20
162.5
 30
0.0
 40
5.4469940000000001
  0
LINE
  8
SIZE
  6
CONTINUOUS
 62
    30
 10
204.2353619999999
 20
-142.5
 30
0.0
 11
472.90582300000011
 21
-142.5
 31
0.0
  0
LINE
  8
SIZE
  6
CONTINUOUS
 62
    30
 10
201.81512923420721
 20
-183.5
 30
0.0
 11
472.90582300000011
 21
-183.5
 31
0.0
  0
LINE
  8
SIZE
  6
CONTINUOUS
 62
    30
 10
442.90582300000011
 20
-140.5
 30
0.0
 11
442.90582300000011
 21
-138.5
 31
0.0
  0
LINE
  8
SIZE
  6
CONTINUOUS
 62
    30
 10
442.90582300000011
 20
-185.5
 30
0.0
 11
442.90582300000011
 21
-187.5
 31
0.0
  0
LINE
  8
SIZE
  6
CONTINUOUS
 62
    30
 10
442.90582300000011
 20
-398.906026
 30
0.0
 11
442.90582300000011
 21
-183.5
 31
0.0
  0
TEXT
  8
SIZE
  6
CONTINUOUS
 62
    30
 10
422.90582300000011
 20
-378.90602528571429
 30
0.0
 40
64.0
  1
41
 50
90.0
 41
0.9
 72
     1
 11
422.90582300000011
 21
-344.62031100000002
 31
0.0
  0
LINE
  8
SIZE
  6
CONTINUOUS
 62
    30
 10
442.90582300000011
 20
-142.5
 30
0.0
 11
442.90582300000011
 21
-183.5
 31
0.0
  0
LINE
  8
SIZE
  6
CONTINUOUS
 62
    30
 10
442.90582300000011
 20
-142.5
 30
0.0
 11
442.90582300000011
 21
-183.5
 31
0.0
  0
CIRCLE
  8
SIZE
  6
CONTINUOUS
 62
    30
 10
442.90582300000011
 20
-142.5
 30
0.0
 40
6.0
  0
CIRCLE
  8
SIZE
  6
CONTINUOUS
 62
    30
 10
442.90582300000011
 20
-183.5
 30
0.0
 40
6.0
  0
POINT
  8
DEFPOINTS
  6
CONTINUOUS
 62
    30
 10
184.2353619999999
 20
-142.5
 30
0.0
  0
POINT
  8
DEFPOINTS
  6
CONTINUOUS
 62
    30
 10
156.16041799999991
 20
-183.5
 30
0.0
  0
POINT
  8
DEFPOINTS
  6
CONTINUOUS
 62
    30
 10
442.90582300000011
 20
-183.5
 30
0.0
  0
LINE
  8
SIZE
  6
CONTINUOUS
 62
    30
 10
168.8082830000001
 20
-122.500085
 30
0.0
 11
168.8082830000001
 21
-96.856312000000003
 31
0.0
  0
LINE
  8
SIZE
  6
CONTINUOUS
 62
    30
 10
179.8082830000001
 20
-122.5
 30
0.0
 11
179.8082830000001
 21
-96.856312000000003
 31
0.0
  0
LINE
  8
SIZE
  6
CONTINUOUS
 62
    30
 10
166.8082830000001
 20
-106.2269941179253
 30
0.0
 11
164.8082830000001
 21
-106.2269941179253
 31
0.0
  0
LINE
  8
SIZE
  6
CONTINUOUS
 62
    30
 10
181.8082830000001
 20
-106.2269941179253
 30
0.0
 11
183.8082830000001
 21
-106.2269941179253
 31
0.0
  0
LINE
  8
SIZE
  6
CONTINUOUS
 62
    30
 10
343.01260400000001
 20
-106.2269941179253
 30
0.0
 11
179.8082830000001
 21
-106.2269941179253
 31
0.0
  0
TEXT
  8
SIZE
  6
CONTINUOUS
 62
    30
 10
265.41260399999999
 20
-86.226994117925301
 30
0.0
 40
64.0
  1
11
 41
0.9
 72
     1
 11
294.21260400000011
 21
-86.226994117925301
 31
0.0
  0
LINE
  8
SIZE
  6
CONTINUOUS
 62
    30
 10
168.8082830000001
 20
-106.2269941179253
 30
0.0
 11
179.8082830000001
 21
-106.2269941179253
 31
0.0
  0
LINE
  8
SIZE
  6
CONTINUOUS
 62
    30
 10
168.8082830000001
 20
-106.2269941179253
 30
0.0
 11
179.8082830000001
 21
-106.2269941179253
 31
0.0
  0
CIRCLE
  8
SIZE
  6
CONTINUOUS
 62
    30
 10
168.8082830000001
 20
-106.2269941179253
 30
0.0
 40
6.0
  0
CIRCLE
  8
SIZE
  6
CONTINUOUS
 62
    30
 10
179.8082830000001
 20
-106.2269941179253
 30
0.0
 40
6.0
  0
POINT
  8
DEFPOINTS
  6
CONTINUOUS
 62
    30
 10
168.8082830000001
 20
-142.50008500000001
 30
0.0
  0
POINT
  8
DEFPOINTS
  6
CONTINUOUS
 62
    30
 10
179.8082830000001
 20
-142.5
 30
0.0
  0
POINT
  8
DEFPOINTS
  6
CONTINUOUS
 62
    30
 10
179.8082830000001
 20
-126.856312
 30
0.0
  0
LINE
  8
DETAIL
  6
CONTINUOUS
 62
     5
 10
136.5203120000001
 20
183.0
 30
0.0
 11
136.52031099999999
 21
-180.0
 31
0.0
  0
LINE
  8
SIZE
  6
CONTINUOUS
 62
    30
 10
174.52031099999999
 20
-136.39800558819431
 30
0.0
 11
174.52031099999999
 21
-6.8804209999999557
 31
0.0
  0
LINE
  8
SIZE
  6
CONTINUOUS
 62
    30
 10
194.52031099999999
 20
-135.66853782486899
 30
0.0
 11
194.52031099999999
 21
-6.8804209999999557
 31
0.0
  0
LINE
  8
SIZE
  6
CONTINUOUS
 62
    30
 10
172.52031099999999
 20
-16.251103117925251
 30
0.0
 11
170.52031099999999
 21
-16.251103117925251
 31
0.0
  0
LINE
  8
SIZE
  6
CONTINUOUS
 62
    30
 10
196.52031099999999
 20
-16.251103117925251
 30
0.0
 11
198.52031099999999
 21
-16.251103117925251
 31
0.0
  0
LINE
  8
SIZE
  6
CONTINUOUS
 62
    30
 10
402.62835199999989
 20
-16.251103117925251
 30
0.0
 11
194.52031099999999
 21
-16.251103117925251
 31
0.0
  0
TEXT
  8
SIZE
  6
CONTINUOUS
 62
    30
 10
289.37120957142861
 20
3.7488968820747459
 30
0.0
 40
64.0
  1
20
 41
0.9
 72
     1
 11
335.99978099999998
 21
3.7488968820747459
 31
0.0
  0
LINE
  8
SIZE
  6
CONTINUOUS
 62
    30
 10
174.52031099999999
 20
-16.251103117925251
 30
0.0
 11
194.52031099999999
 21
-16.251103117925251
 31
0.0
  0
LINE
  8
SIZE
  6
CONTINUOUS
 62
    30
 10
174.52031099999999
 20
-16.251103117925251
 30
0.0
 11
194.52031099999999
 21
-16.251103117925251
 31
0.0
  0
CIRCLE
  8
SIZE
  6
CONTINUOUS
 62
    30
 10
174.52031099999999
 20
-16.251103117925251
 30
0.0
 40
6.0
  0
CIRCLE
  8
SIZE
  6
CONTINUOUS
 62
    30
 10
194.52031099999999
 20
-16.251103117925251
 30
0.0
 40
6.0
  0
POINT
  8
DEFPOINTS
  6
CONTINUOUS
 62
    30
 10
174.52031099999999
 20
-176.5
 30
0.0
  0
POINT
  8
DEFPOINTS
  6
CONTINUOUS
 62
    30
 10
194.52031099999999
 20
-176.5
 30
0.0
  0
POINT
  8
DEFPOINTS
  6
CONTINUOUS
 62
    30
 10
194.52031099999999
 20
-36.880420999999963
 30
0.0
  0
LINE
  8
SIZE
  6
CONTINUOUS
 62
    30
 10
210.5138470000002
 20
-142.5
 30
0.0
 11
356.37776699999989
 21
-142.5
 31
0.0
  0
LINE
  8
SIZE
  6
CONTINUOUS
 62
    30
 10
213.44962709814811
 20
-162.5
 30
0.0
 11
356.37776699999989
 21
-162.5
 31
0.0
  0
LINE
  8
SIZE
  6
CONTINUOUS
 62
    30
 10
326.37776699999989
 20
-140.5
 30
0.0
 11
326.37776699999989
 21
-138.5
 31
0.0
  0
LINE
  8
SIZE
  6
CONTINUOUS
 62
    30
 10
326.37776699999989
 20
-164.5
 30
0.0
 11
326.37776699999989
 21
-166.5
 31
0.0
  0
LINE
  8
SIZE
  6
CONTINUOUS
 62
    30
 10
326.37776699999989
 20
-357.34718400000003
 30
0.0
 11
326.37776699999989
 21
-162.5
 31
0.0
  0
TEXT
  8
SIZE
  6
CONTINUOUS
 62
    30
 10
306.37776699999989
 20
-337.34718442857138
 30
0.0
 40
64.0
  1
20
 50
90.0
 41
0.9
 72
     1
 11
306.37776699999989
 21
-290.718613
 31
0.0
  0
LINE
  8
SIZE
  6
CONTINUOUS
 62
    30
 10
326.37776699999989
 20
-142.5
 30
0.0
 11
326.37776699999989
 21
-162.5
 31
0.0
  0
LINE
  8
SIZE
  6
CONTINUOUS
 62
    30
 10
326.37776699999989
 20
-142.5
 30
0.0
 11
326.37776699999989
 21
-162.5
 31
0.0
  0
CIRCLE
  8
SIZE
  6
CONTINUOUS
 62
    30
 10
326.37776699999989
 20
-142.5
 30
0.0
 40
6.0
  0
CIRCLE
  8
SIZE
  6
CONTINUOUS
 62
    30
 10
326.37776699999989
 20
-162.5
 30
0.0
 40
6.0
  0
POINT
  8
DEFPOINTS
  6
CONTINUOUS
 62
    30
 10
190.51384699999991
 20
-142.5
 30
0.0
  0
POINT
  8
DEFPOINTS
  6
CONTINUOUS
 62
    30
 10
174.520184
 20
-162.5
 30
0.0
  0
POINT
  8
DEFPOINTS
  6
CONTINUOUS
 62
    30
 10
326.37776699999989
 20
-162.5
 30
0.0
  0
LINE
  8
SIZE
  6
CONTINUOUS
 62
    30
 10
-49.0
 20
273.0
 30
0.0
 11
-49.0
 21
471.62695899999989
 31
0.0
  0
LINE
  8
SIZE
  6
CONTINUOUS
 62
    30
 10
49.0
 20
273.0
 30
0.0
 11
49.0
 21
471.62695899999989
 31
0.0
  0
LINE
  8
SIZE
  6
CONTINUOUS
 62
    30
 10
-51.0
 20
441.62695899999989
 30
0.0
 11
-53.0
 21
441.62695899999989
 31
0.0
  0
LINE
  8
SIZE
  6
CONTINUOUS
 62
    30
 10
51.0
 20
441.62695899999989
 30
0.0
 11
53.0
 21
441.62695899999989
 31
0.0
  0
LINE
  8
SIZE
  6
CONTINUOUS
 62
    30
 10
-268.70138620142188
 20
441.62695899999989
 30
0.0
 11
49.0
 21
441.62695899999989
 31
0.0
  0
CIRCLE
  8
SIZE
  6
CONTINUOUS
 62
    30
 10
-49.0
 20
441.62695899999989
 30
0.0
 40
6.0
  0
CIRCLE
  8
SIZE
  6
CONTINUOUS
 62
    30
 10
49.0
 20
441.62695899999989
 30
0.0
 40
6.0
  0
TEXT
  8
SIZE
  6
CONTINUOUS
 62
    30
 10
-265.44764265879661
 20
461.62695899999989
 30
0.0
 40
64.0
  1
φ98
 41
0.9
 72
     1
 11
-178.4990712302251
 21
461.62695899999989
 31
0.0
  0
POINT
  8
DEFPOINTS
  6
CONTINUOUS
 62
    30
 10
-49.0
 20
253.0
 30
0.0
  0
POINT
  8
DEFPOINTS
  6
CONTINUOUS
 62
    30
 10
49.0
 20
253.0
 30
0.0
  0
POINT
  8
DEFPOINTS
  6
CONTINUOUS
 62
    30
 10
49.0
 20
441.62695899999989
 30
0.0
  0
LINE
  8
SIZE
  6
CONTINUOUS
 62
    30
 10
55.0
 20
203.0
 30
0.0
 11
55.0
 21
611.325875
 31
0.0
  0
LINE
  8
SIZE
  6
CONTINUOUS
 62
    30
 10
-55.0
 20
203.0
 30
0.0
 11
-55.0
 21
611.325875
 31
0.0
  0
LINE
  8
SIZE
  6
CONTINUOUS
 62
    30
 10
57.0
 20
581.325875
 30
0.0
 11
59.0
 21
581.325875
 31
0.0
  0
LINE
  8
SIZE
  6
CONTINUOUS
 62
    30
 10
-57.0
 20
581.325875
 30
0.0
 11
-59.0
 21
581.325875
 31
0.0
  0
LINE
  8
SIZE
  6
CONTINUOUS
 62
    30
 10
55.0
 20
581.325875
 30
0.0
 11
-319.73691601369228
 21
581.325875
 31
0.0
  0
CIRCLE
  8
SIZE
  6
CONTINUOUS
 62
    30
 10
55.0
 20
581.325875
 30
0.0
 40
6.0
  0
CIRCLE
  8
SIZE
  6
CONTINUOUS
 62
    30
 10
-55.0
 20
581.325875
 30
0.0
 40
6.0
  0
TEXT
  8
SIZE
  6
CONTINUOUS
 62
    30
 10
-306.82910334434632
 20
601.325875
 30
0.0
 40
64.0
  1
φ110
 41
0.9
 72
     1
 11
-203.42338905863201
 21
601.325875
 31
0.0
  0
POINT
  8
DEFPOINTS
  6
CONTINUOUS
 62
    30
 10
55.0
 20
183.0
 30
0.0
  0
POINT
  8
DEFPOINTS
  6
CONTINUOUS
 62
    30
 10
-55.0
 20
183.0
 30
0.0
  0
POINT
  8
DEFPOINTS
  6
CONTINUOUS
 62
    30
 10
-55.0
 20
581.325875
 30
0.0
  0
LINE
  8
SIZE
  6
CONTINUOUS
 62
    30
 10
-210.7132620348157
 20
183.0
 30
0.0
 11
-552.82264200000009
 21
183.0
 31
0.0
  0
LINE
  8
SIZE
  6
CONTINUOUS
 62
    30
 10
-198.8644700359919
 20
-183.0
 30
0.0
 11
-552.82264200000009
 21
-183.0
 31
0.0
  0
LINE
  8
SIZE
  6
CONTINUOUS
 62
    30
 10
-522.82264200000009
 20
181.0
 30
0.0
 11
-522.82264200000009
 21
-181.0
 31
0.0
  0
CIRCLE
  8
SIZE
  6
CONTINUOUS
 62
    30
 10
-522.82264200000009
 20
183.0
 30
0.0
 40
6.0
  0
CIRCLE
  8
SIZE
  6
CONTINUOUS
 62
    30
 10
-522.82264200000009
 20
-183.0
 30
0.0
 40
6.0
  0
TEXT
  8
SIZE
  6
CONTINUOUS
 62
    30
 10
-542.82264200000009
 20
-72.685714285714283
 30
0.0
 40
64.0
  1
366
 50
90.0
 41
0.9
 72
     1
 11
-542.82264200000009
 21
0.0
 31
0.0
  0
POINT
  8
DEFPOINTS
  6
CONTINUOUS
 62
    30
 10
-139.4954560000001
 20
183.0
 30
0.0
  0
POINT
  8
DEFPOINTS
  6
CONTINUOUS
 62
    30
 10
-144.97236799999999
 20
-183.0
 30
0.0
  0
POINT
  8
DEFPOINTS
  6
CONTINUOUS
 62
    30
 10
-522.82264200000009
 20
-183.0
 30
0.0
  0
LINE
  8
SIZE
  6
CONTINUOUS
 62
    30
 10
-214.34914763126929
 20
162.5
 30
0.0
 11
-308.48247300000003
 21
162.5
 31
0.0
  0
LINE
  8
SIZE
  6
CONTINUOUS
 62
    30
 10
-214.47701526789299
 20
-162.5
 30
0.0
 11
-308.48247300000003
 21
-162.5
 31
0.0
  0
LINE
  8
SIZE
  6
CONTINUOUS
 62
    30
 10
-278.48247300000003
 20
160.5
 30
0.0
 11
-278.48247300000003
 21
-160.5
 31
0.0
  0
CIRCLE
  8
SIZE
  6
CONTINUOUS
 62
    30
 10
-278.48247300000003
 20
162.5
 30
0.0
 40
6.0
  0
CIRCLE
  8
SIZE
  6
CONTINUOUS
 62
    30
 10
-278.48247300000003
 20
-162.5
 30
0.0
 40
6.0
  0
TEXT
  8
SIZE
  6
CONTINUOUS
 62
    30
 10
-298.48247300000003
 20
-74.05714285714285
 30
0.0
 40
64.0
  1
325
 50
90.0
 41
0.9
 72
     1
 11
-298.48247300000003
 21
0.0
 31
0.0
  0
POINT
  8
DEFPOINTS
  6
CONTINUOUS
 62
    30
 10
-174.4795610000001
 20
162.5
 30
0.0
  0
POINT
  8
DEFPOINTS
  6
CONTINUOUS
 62
    30
 10
-174.4795610000001
 20
-162.5
 30
0.0
  0
POINT
  8
DEFPOINTS
  6
CONTINUOUS
 62
    30
 10
-278.48247300000003
 20
-162.5
 30
0.0
  0
LINE
  8
SIZE
  6
CONTINUOUS
 62
    30
 10
-146.4463787865179
 20
180.0
 30
0.0
 11
-432.66995300000008
 21
180.0
 31
0.0
  0
LINE
  8
SIZE
  6
CONTINUOUS
 62
    30
 10
-143.9181149240458
 20
-180.0
 30
0.0
 11
-432.66995300000008
 21
-180.0
 31
0.0
  0
LINE
  8
SIZE
  6
CONTINUOUS
 62
    30
 10
-402.66995300000008
 20
178.0
 30
0.0
 11
-402.66995300000008
 21
-178.0
 31
0.0
  0
CIRCLE
  8
SIZE
  6
CONTINUOUS
 62
    30
 10
-402.66995300000008
 20
180.0
 30
0.0
 40
6.0
  0
CIRCLE
  8
SIZE
  6
CONTINUOUS
 62
    30
 10
-402.66995300000008
 20
-180.0
 30
0.0
 40
6.0
  0
TEXT
  8
SIZE
  6
CONTINUOUS
 62
    30
 10
-422.66995300000008
 20
-74.05714285714285
 30
0.0
 40
64.0
  1
360
 50
90.0
 41
0.9
 72
     1
 11
-422.66995300000008
 21
0.0
 31
0.0
  0
POINT
  8
DEFPOINTS
  6
CONTINUOUS
 62
    30
 10
-105.76034
 20
180.0
 30
0.0
  0
POINT
  8
DEFPOINTS
  6
CONTINUOUS
 62
    30
 10
-82.975636000000122
 20
-180.0
 30
0.0
  0
POINT
  8
DEFPOINTS
  6
CONTINUOUS
 62
    30
 10
-402.66995300000008
 20
-180.0
 30
0.0
  0
LINE
  8
SIZE
  6
CONTINUOUS
 62
    30
 10
136.52031099999999
 20
-234.0
 30
0.0
 11
136.52031099999999
 21
-546.37381799999991
 31
0.0
  0
LINE
  8
SIZE
  6
CONTINUOUS
 62
    30
 10
-136.47968900000001
 20
-234.0
 30
0.0
 11
-136.47968900000001
 21
-546.37381799999991
 31
0.0
  0
LINE
  8
SIZE
  6
CONTINUOUS
 62
    30
 10
134.52031099999999
 20
-516.37381799999991
 30
0.0
 11
-134.47968900000001
 21
-516.37381799999991
 31
0.0
  0
CIRCLE
  8
SIZE
  6
CONTINUOUS
 62
    30
 10
136.52031099999999
 20
-516.37381799999991
 30
0.0
 40
6.0
  0
CIRCLE
  8
SIZE
  6
CONTINUOUS
 62
    30
 10
-136.47968900000001
 20
-516.37381799999991
 30
0.0
 40
6.0
  0
TEXT
  8
SIZE
  6
CONTINUOUS
 62
    30
 10
-74.036831857142843
 20
-496.37381800000003
 30
0.0
 40
64.0
  1
273
 41
0.9
 72
     1
 11
0.0203109999999924
 21
-496.37381800000003
 31
0.0
  0
POINT
  8
DEFPOINTS
  6
CONTINUOUS
 62
    30
 10
136.52031099999999
 20
-214.0
 30
0.0
  0
POINT
  8
DEFPOINTS
  6
CONTINUOUS
 62
    30
 10
-136.47968900000001
 20
-214.0
 30
0.0
  0
POINT
  8
DEFPOINTS
  6
CONTINUOUS
 62
    30
 10
-136.47968900000001
 20
-516.37381799999991
 30
0.0
  0
LINE
  8
SIZE
  6
CONTINUOUS
 62
    30
 10
174.52031099999999
 20
-216.5
 30
0.0
 11
174.52031099999999
 21
-668.05293800000004
 31
0.0
  0
LINE
  8
SIZE
  6
CONTINUOUS
 62
    30
 10
-174.47968900000001
 20
-216.5
 30
0.0
 11
-174.47968900000001
 21
-668.05293800000004
 31
0.0
  0
LINE
  8
SIZE
  6
CONTINUOUS
 62
    30
 10
172.52031099999999
 20
-638.05293800000004
 30
0.0
 11
-172.47968900000001
 21
-638.05293800000004
 31
0.0
  0
CIRCLE
  8
SIZE
  6
CONTINUOUS
 62
    30
 10
174.52031099999999
 20
-638.05293800000004
 30
0.0
 40
6.0
  0
CIRCLE
  8
SIZE
  6
CONTINUOUS
 62
    30
 10
-174.47968900000001
 20
-638.05293800000004
 30
0.0
 40
6.0
  0
TEXT
  8
SIZE
  6
CONTINUOUS
 62
    30
 10
-72.665403285714291
 20
-618.05293800000004
 30
0.0
 40
64.0
  1
349
 41
0.9
 72
     1
 11
0.0203109999999924
 21
-618.05293800000004
 31
0.0
  0
POINT
  8
DEFPOINTS
  6
CONTINUOUS
 62
    30
 10
174.52031099999999
 20
-196.5
 30
0.0
  0
POINT
  8
DEFPOINTS
  6
CONTINUOUS
 62
    30
 10
-174.47968900000001
 20
-196.5
 30
0.0
  0
POINT
  8
DEFPOINTS
  6
CONTINUOUS
 62
    30
 10
-174.47968900000001
 20
-638.05293800000004
 30
0.0
  0
LINE
  8
SIZE
  6
CONTINUOUS
 62
    30
 10
-194.47968900000001
 20
-236.5
 30
0.0
 11
-194.47968900000001
 21
-787.54703600000005
 31
0.0
  0
LINE
  8
SIZE
  6
CONTINUOUS
 62
    30
 10
194.52031099999999
 20
-237.0
 30
0.0
 11
194.52031099999999
 21
-787.54703600000005
 31
0.0
  0
LINE
  8
SIZE
  6
CONTINUOUS
 62
    30
 10
-192.47968900000001
 20
-757.54703600000005
 30
0.0
 11
192.52031099999999
 21
-757.54703600000005
 31
0.0
  0
CIRCLE
  8
SIZE
  6
CONTINUOUS
 62
    30
 10
-194.47968900000001
 20
-757.54703600000005
 30
0.0
 40
6.0
  0
CIRCLE
  8
SIZE
  6
CONTINUOUS
 62
    30
 10
194.52031099999999
 20
-757.54703600000005
 30
0.0
 40
6.0
  0
TEXT
  8
SIZE
  6
CONTINUOUS
 62
    30
 10
-72.665403285714277
 20
-737.54703600000005
 30
0.0
 40
64.0
  1
389
 41
0.9
 72
     1
 11
0.0203109999999924
 21
-737.54703600000005
 31
0.0
  0
POINT
  8
DEFPOINTS
  6
CONTINUOUS
 62
    30
 10
-194.47968900000001
 20
-216.5
 30
0.0
  0
POINT
  8
DEFPOINTS
  6
CONTINUOUS
 62
    30
 10
194.52031099999999
 20
-217.0
 30
0.0
  0
POINT
  8
DEFPOINTS
  6
CONTINUOUS
 62
    30
 10
194.52031099999999
 20
-757.54703600000005
 30
0.0
  0
LINE
  8
DETAIL
  6
CONTINUOUS
 62
     5
 10
130.01299100000011
 20
-183.5
 30
0.0
 11
130.01299100000011
 21
-183.0
 31
0.0
  0
LINE
  8
DETAIL
  6
CONTINUOUS
 62
     5
 10
-105.76034
 20
183.0
 30
0.0
 11
-194.47968900000001
 21
183.0
 31
0.0
  0
ARC
  8
DETAIL
  6
CONTINUOUS
 62
     5
 10
-174.4795610000001
 20
162.5
 30
0.0
 40
5.4469940000000001
 50
359.99515199999752
 51
180.0075330000021
  0
LINE
  8
DETAIL
  6
CONTINUOUS
 62
     5
 10
-159.97236799999999
 20
183.5
 30
0.0
 11
-159.97236799999999
 21
183.0
 31
0.0
  0
LINE
  8
DETAIL
  6
CONTINUOUS
 62
     5
 10
-159.97236799999999
 20
183.5
 30
0.0
 11
-129.97236799999999
 21
183.5
 31
0.0
  0
LINE
  8
DETAIL
  6
CONTINUOUS
 62
     5
 10
-168.77412499999991
 20
142.5
 30
0.0
 11
-136.47968900000001
 21
142.50001499999999
 31
0.0
  0
LINE
  8
DETAIL
  6
CONTINUOUS
 62
     5
 10
-169.03269399999999
 20
162.49932100000001
 30
0.0
 11
-168.76766000000001
 21
142.49980000000011
 31
0.0
  0
LINE
  8
DETAIL
  6
CONTINUOUS
 62
     5
 10
-194.47968900000001
 20
142.5
 30
0.0
 11
-194.47968900000001
 21
183.0
 31
0.0
  0
LINE
  8
DETAIL
  6
CONTINUOUS
 62
     5
 10
-194.47968900000001
 20
142.5
 30
0.0
 11
-179.76766000000001
 21
142.5
 31
0.0
  0
LINE
  8
DETAIL
  6
CONTINUOUS
 62
     5
 10
-179.92668300000011
 20
162.5
 30
0.0
 11
-179.76766000000001
 21
142.5
 31
0.0
  0
LINE
  8
DETAIL
  6
CONTINUOUS
 62
     5
 10
-105.76034
 20
183.0
 30
0.0
 11
-105.76034
 21
180.0
 31
0.0
  0
LINE
  8
DETAIL
  6
CONTINUOUS
 62
     5
 10
-129.97236799999999
 20
183.5
 30
0.0
 11
-129.97236799999999
 21
183.0
 31
0.0
  0
LINE
  8
DETAIL
  6
CONTINUOUS
 62
     5
 10
-105.76034
 20
-183.0
 30
0.0
 11
-194.47968900000001
 21
-183.0
 31
0.0
  0
ARC
  8
DETAIL
  6
CONTINUOUS
 62
     5
 10
-174.4795610000001
 20
-162.5
 30
0.0
 40
5.4469940000000001
 50
179.9924669999979
 51
0.004848000002563
  0
LINE
  8
DETAIL
  6
CONTINUOUS
 62
     5
 10
-159.97236799999999
 20
-183.5
 30
0.0
 11
-159.97236799999999
 21
-183.0
 31
0.0
  0
LINE
  8
DETAIL
  6
CONTINUOUS
 62
     5
 10
-159.97236799999999
 20
-183.5
 30
0.0
 11
-129.97236799999999
 21
-183.5
 31
0.0
  0
LINE
  8
DETAIL
  6
CONTINUOUS
 62
     5
 10
-168.77412499999991
 20
-142.5
 30
0.0
 11
-136.47968900000001
 21
-142.50001499999999
 31
0.0
  0
LINE
  8
DETAIL
  6
CONTINUOUS
 62
     5
 10
-169.03269399999999
 20
-162.49932000000001
 30
0.0
 11
-168.76766000000001
 21
-142.49979899999991
 31
0.0
  0
LINE
  8
DETAIL
  6
CONTINUOUS
 62
     5
 10
-194.47968900000001
 20
-142.5
 30
0.0
 11
-194.47968900000001
 21
-183.0
 31
0.0
  0
LINE
  8
DETAIL
  6
CONTINUOUS
 62
     5
 10
-194.47968900000001
 20
-142.5
 30
0.0
 11
-179.76766000000001
 21
-142.5
 31
0.0
  0
LINE
  8
DETAIL
  6
CONTINUOUS
 62
     5
 10
-179.92668300000011
 20
-162.5
 30
0.0
 11
-179.76766000000001
 21
-142.5
 31
0.0
  0
LINE
  8
DETAIL
  6
CONTINUOUS
 62
     5
 10
-105.76034
 20
-183.0
 30
0.0
 11
-105.76034
 21
-180.0
 31
0.0
  0
LINE
  8
DETAIL
  6
CONTINUOUS
 62
     5
 10
-129.97236799999999
 20
-183.5
 30
0.0
 11
-129.97236799999999
 21
-183.0
 31
0.0
  0
LINE
  8
DETAIL
  6
CONTINUOUS
 62
     5
 10
105.8009630000001
 20
183.0
 30
0.0
 11
194.52031099999999
 21
183.0
 31
0.0
  0
ARC
  8
DETAIL
  6
CONTINUOUS
 62
     5
 10
174.520184
 20
162.5
 30
0.0
 40
5.4469940000000001
 50
359.99246699999787
 51
180.00484800000251
  0
LINE
  8
DETAIL
  6
CONTINUOUS
 62
     5
 10
160.01299100000011
 20
183.5
 30
0.0
 11
160.01299100000011
 21
183.0
 31
0.0
  0
LINE
  8
DETAIL
  6
CONTINUOUS
 62
     5
 10
160.01299100000011
 20
183.5
 30
0.0
 11
130.01299100000011
 21
183.5
 31
0.0
  0
LINE
  8
DETAIL
  6
CONTINUOUS
 62
     5
 10
168.81474800000001
 20
142.5
 30
0.0
 11
136.5203120000001
 21
142.50001499999999
 31
0.0
  0
LINE
  8
DETAIL
  6
CONTINUOUS
 62
     5
 10
169.07331699999989
 20
162.49932100000001
 30
0.0
 11
168.8082830000001
 21
142.49980000000011
 31
0.0
  0
LINE
  8
DETAIL
  6
CONTINUOUS
 62
     5
 10
194.5203120000001
 20
142.5
 30
0.0
 11
194.52031099999999
 21
183.0
 31
0.0
  0
LINE
  8
DETAIL
  6
CONTINUOUS
 62
     5
 10
194.5203120000001
 20
142.5
 30
0.0
 11
179.8082830000001
 21
142.5
 31
0.0
  0
LINE
  8
DETAIL
  6
CONTINUOUS
 62
     5
 10
179.96730600000001
 20
162.5
 30
0.0
 11
179.8082830000001
 21
142.5
 31
0.0
  0
LINE
  8
DETAIL
  6
CONTINUOUS
 62
     5
 10
105.8009630000001
 20
183.0
 30
0.0
 11
105.8009630000001
 21
180.0
 31
0.0
  0
LINE
  8
DETAIL
  6
CONTINUOUS
 62
     5
 10
130.01299100000011
 20
183.5
 30
0.0
 11
130.01299100000011
 21
183.0
 31
0.0
  0
LINE
  8
DETAIL
  6
CONTINUOUS
 62
     5
 10
54.742862000000059
 20
182.99994899999999
 30
0.0
 11
-54.744732999999997
 21
182.97811999999999
 31
0.0
  0
LINE
  8
DETAIL
  6
CONTINUOUS
 62
     5
 10
-136.47968900000001
 20
180.0
 30
0.0
 11
136.5203120000001
 21
180.0
 31
0.0
  0
LINE
  8
DETAIL
  6
CONTINUOUS
 62
     5
 10
49.0
 20
-240.0
 30
0.0
 11
-49.0
 21
-240.0
 31
0.0
  0
LINE
  8
DETAIL
  6
CONTINUOUS
 62
     5
 10
49.31222600000001
 20
-236.35736399999999
 30
0.0
 11
-49.299833000000042
 21
-236.50194500000001
 31
0.0
  0
LINE
  8
DETAIL
  6
CONTINUOUS
 62
     5
 10
-54.742860999999948
 20
-182.99994899999999
 30
0.0
 11
54.744732999999997
 21
-182.97811999999999
 31
0.0
  0
LINE
  8
DETAIL
  6
CONTINUOUS
 62
     5
 10
-55.0
 20
-180.0
 30
0.0
 11
-49.0
 21
-240.0
 31
0.0
  0
LINE
  8
DETAIL
  6
CONTINUOUS
 62
     5
 10
49.0
 20
-240.0
 30
0.0
 11
55.0
 21
-180.0
 31
0.0
  0
LINE
  8
SIZE
  6
CONTINUOUS
 62
    30
 10
-53.388707686201997
 20
240.0
 30
0.0
 11
-432.66995300000008
 21
240.0
 31
0.0
  0
LINE
  8
SIZE
  6
CONTINUOUS
 62
    30
 10
-146.4463787865179
 20
180.0
 30
0.0
 11
-432.66995300000008
 21
180.0
 31
0.0
  0
LINE
  8
SIZE
  6
CONTINUOUS
 62
    30
 10
-402.66995300000008
 20
238.0
 30
0.0
 11
-402.66995300000008
 21
182.0
 31
0.0
  0
LINE
  8
SIZE
  6
CONTINUOUS
 62
    30
 10
-402.66995300000008
 20
399.95583900000003
 30
0.0
 11
-402.66995300000008
 21
240.0
 31
0.0
  0
TEXT
  8
SIZE
  6
CONTINUOUS
 62
    30
 10
-422.66995300000008
 20
286.69869657142863
 30
0.0
 40
64.0
  1
60
 50
90.0
 41
0.9
 72
     1
 11
-422.66995300000008
 21
333.327268
 31
0.0
  0
CIRCLE
  8
SIZE
  6
CONTINUOUS
 62
    30
 10
-402.66995300000008
 20
240.0
 30
0.0
 40
6.0
  0
CIRCLE
  8
SIZE
  6
CONTINUOUS
 62
    30
 10
-402.66995300000008
 20
180.0
 30
0.0
 40
6.0
  0
POINT
  8
DEFPOINTS
  6
CONTINUOUS
 62
    30
 10
-10.843217999999981
 20
240.0
 30
0.0
  0
POINT
  8
DEFPOINTS
  6
CONTINUOUS
 62
    30
 10
-10.843217999999981
 20
180.0
 30
0.0
  0
POINT
  8
DEFPOINTS
  6
CONTINUOUS
 62
    30
 10
-402.66995300000008
 20
180.0
 30
0.0
  0
LINE
  8
SIZE
  6
CONTINUOUS
 62
    30
 10
-143.9181149240458
 20
-180.0
 30
0.0
 11
-432.2893039999999
 21
-180.0
 31
0.0
  0
LINE
  8
SIZE
  6
CONTINUOUS
 62
    30
 10
-72.186877986495347
 20
-240.0
 30
0.0
 11
-432.2893039999999
 21
-240.0
 31
0.0
  0
LINE
  8
SIZE
  6
CONTINUOUS
 62
    30
 10
-402.2893039999999
 20
-182.0
 30
0.0
 11
-402.2893039999999
 21
-238.0
 31
0.0
  0
LINE
  8
SIZE
  6
CONTINUOUS
 62
    30
 10
-402.2893039999999
 20
-398.85250400000001
 30
0.0
 11
-402.2893039999999
 21
-240.0
 31
0.0
  0
TEXT
  8
SIZE
  6
CONTINUOUS
 62
    30
 10
-422.2893039999999
 20
-378.85250442857142
 30
0.0
 40
64.0
  1
60
 50
90.0
 41
0.9
 72
     1
 11
-422.2893039999999
 21
-332.22393299999999
 31
0.0
  0
CIRCLE
  8
SIZE
  6
CONTINUOUS
 62
    30
 10
-402.2893039999999
 20
-180.0
 30
0.0
 40
6.0
  0
CIRCLE
  8
SIZE
  6
CONTINUOUS
 62
    30
 10
-402.2893039999999
 20
-240.0
 30
0.0
 40
6.0
  0
POINT
  8
DEFPOINTS
  6
CONTINUOUS
 62
    30
 10
0.0203109999999924
 20
-180.0
 30
0.0
  0
POINT
  8
DEFPOINTS
  6
CONTINUOUS
 62
    30
 10
0.0203109999999924
 20
-240.0
 30
0.0
  0
POINT
  8
DEFPOINTS
  6
CONTINUOUS
 62
    30
 10
-402.2893039999999
 20
-240.0
 30
0.0
  0
LINE
  8
OUTLINE
  6
CONTINUOUS
 62
     3
 10
-136.47968900000001
 20
180.0
 30
0.0
 11
136.5203120000001
 21
180.0
 31
0.0
  0
LINE
  8
OUTLINE
  6
CONTINUOUS
 62
     3
 10
136.52031099999999
 20
-180.0
 30
0.0
 11
-136.47968900000001
 21
-180.0
 31
0.0
  0
LINE
  8
OUTLINE
  6
CONTINUOUS
 62
     3
 10
-136.47968900000001
 20
-180.0
 30
0.0
 11
-136.47968900000001
 21
180.0
 31
0.0
  0
LINE
  8
OUTLINE
  6
CONTINUOUS
 62
     3
 10
136.5203120000001
 20
180.0
 30
0.0
 11
136.52031099999999
 21
-180.0
 31
0.0
  0
ENDSEC
  0
EOF
