  0
SECTION
  2
HEADER
  9
$ACADVER
  1
AC1009
  9
$DWGCODEPAGE
  3
dos932
  9
$INSBASE
 10
0.0
 20
0.0
 30
0.0
  9
$EXTMIN
 10
-815.281661
 20
-914.520253
 30
-0.001526
  9
$EXTMAX
 10
907.278454
 20
1148.117074
 30
50.001526
  9
$LIMMIN
 10
-2970.0
 20
-2100.0
  9
$LIMMAX
 10
2970.0
 20
2100.0
  9
$ORTHOMODE
 70
     1
  9
$REGENMODE
 70
     1
  9
$FILLMODE
 70
     1
  9
$QTEXTMODE
 70
     0
  9
$MIRRTEXT
 70
     0
  9
$DRAGMODE
 70
     2
  9
$LTSCALE
 40
20.0
  9
$OSMODE
 70
  3071
  9
$ATTMODE
 70
     1
  9
$TEXTSIZE
 40
64.0
  9
$TRACEWID
 40
0.05
  9
$TEXTSTYLE
  7
STANDARD
  9
$CLAYER
  8
SIZE
  9
$CELTYPE
  6
CONTINUOUS
  9
$CECOLOR
 62
     7
  9
$DIMSCALE
 40
1.0
  9
$DIMASZ
 40
12.0
  9
$DIMEXO
 40
20.0
  9
$DIMDLI
 40
200.0
  9
$DIMRND
 40
0.0
  9
$DIMDLE
 40
0.0
  9
$DIMEXE
 40
20.0
  9
$DIMTP
 40
0.0
  9
$DIMTM
 40
0.0
  9
$DIMTXT
 40
64.0
  9
$DIMCEN
 40
0.09
  9
$DIMTSZ
 40
0.0
  9
$DIMTOL
 70
     0
  9
$DIMLIM
 70
     0
  9
$DIMTIH
 70
     0
  9
$DIMTOH
 70
     0
  9
$DIMSE1
 70
     0
  9
$DIMSE2
 70
     0
  9
$DIMTAD
 70
     1
  9
$DIMZIN
 70
     8
  9
$DIMBLK
  1
DOT1
  9
$DIMASO
 70
     1
  9
$DIMSHO
 70
     0
  9
$DIMPOST
  1

  9
$DIMAPOST
  1

  9
$DIMALT
 70
     0
  9
$DIMALTD
 70
     2
  9
$DIMALTF
 40
25.4
  9
$DIMLFAC
 40
1.0
  9
$DIMTOFL
 70
     1
  9
$DIMTVP
 40
0.0
  9
$DIMTIX
 70
     1
  9
$DIMSOXD
 70
     0
  9
$DIMSAH
 70
     1
  9
$DIMBLK1
  1
_ORIGIN
  9
$DIMBLK2
  1
_ORIGIN
  9
$DIMSTYLE
  2
STANDARD
  9
$DIMCLRD
 70
     7
  9
$DIMCLRE
 70
     7
  9
$DIMCLRT
 70
     7
  9
$DIMTFAC
 40
1.0
  9
$DIMGAP
 40
25.0
  9
$LUNITS
 70
     2
  9
$LUPREC
 70
     4
  9
$SKETCHINC
 40
0.1
  9
$FILLETRAD
 40
3.0
  9
$AUNITS
 70
     1
  9
$AUPREC
 70
     3
  9
$MENU
  1
ACAD
  9
$ELEVATION
 40
0.0
  9
$PELEVATION
 40
0.0
  9
$THICKNESS
 40
50.0
  9
$LIMCHECK
 70
     0
  9
$BLIPMODE
 70
     0
  9
$CHAMFERA
 40
0.0
  9
$CHAMFERB
 40
0.0
  9
$SKPOLY
 70
     0
  9
$TDCREATE
 40
2453019.62301037
  9
$TDUPDATE
 40
2454771.444207279
  9
$TDINDWG
 40
1.5539131597
  9
$TDUSRTIMER
 40
1.5539131597
  9
$USRTIMER
 70
     1
  9
$ANGBASE
 50
0.0
  9
$ANGDIR
 70
     0
  9
$PDMODE
 70
     3
  9
$PDSIZE
 40
-2.0
  9
$PLINEWID
 40
0.0
  9
$COORDS
 70
     2
  9
$SPLFRAME
 70
     0
  9
$SPLINETYPE
 70
     6
  9
$SPLINESEGS
 70
     8
  9
$ATTDIA
 70
     1
  9
$ATTREQ
 70
     1
  9
$HANDLING
 70
     0
  9
$HANDSEED
  5
D7E1
  9
$SURFTAB1
 70
     6
  9
$SURFTAB2
 70
     6
  9
$SURFTYPE
 70
     6
  9
$SURFU
 70
     6
  9
$SURFV
 70
     6
  9
$UCSNAME
  2

  9
$UCSORG
 10
0.0
 20
0.0
 30
0.0
  9
$UCSXDIR
 10
1.0
 20
0.0
 30
0.0
  9
$UCSYDIR
 10
0.0
 20
1.0
 30
0.0
  9
$PUCSNAME
  2

  9
$PUCSORG
 10
0.0
 20
0.0
 30
0.0
  9
$PUCSXDIR
 10
1.0
 20
0.0
 30
0.0
  9
$PUCSYDIR
 10
0.0
 20
1.0
 30
0.0
  9
$USERI1
 70
     0
  9
$USERI2
 70
     0
  9
$USERI3
 70
     0
  9
$USERI4
 70
     0
  9
$USERI5
 70
     0
  9
$USERR1
 40
20.0
  9
$USERR2
 40
0.0
  9
$USERR3
 40
0.0
  9
$USERR4
 40
0.0
  9
$USERR5
 40
0.0
  9
$WORLDVIEW
 70
     1
  9
$SHADEDGE
 70
     3
  9
$SHADEDIF
 70
    70
  9
$TILEMODE
 70
     1
  9
$MAXACTVP
 70
    48
  9
$PINSBASE
 10
0.0
 20
0.0
 30
0.0
  9
$PLIMCHECK
 70
     0
  9
$PEXTMIN
 10
-100000000000000000000.0
 20
-100000000000000000000.0
 30
-100000000000000000000.0
  9
$PEXTMAX
 10
100000000000000000000.0
 20
100000000000000000000.0
 30
100000000000000000000.0
  9
$PLIMMIN
 10
0.0
 20
0.0
  9
$PLIMMAX
 10
12.0
 20
9.0
  9
$UNITMODE
 70
     0
  9
$VISRETAIN
 70
     0
  9
$PLINEGEN
 70
     0
  9
$PSLTSCALE
 70
     0
  9
$TREEDEPTH
 70
  3020
  0
ENDSEC
  0
SECTION
  2
TABLES
  0
TABLE
  2
LTYPE
 70
     5
  0
LTYPE
  2
CONTINUOUS
 70
     0
  3
実線
 72
    65
 73
     0
 40
0.0
  0
LTYPE
  2
DASHDOT
 70
     0
  3
____ _ ____ _ ____ _ ____ _ ____ _ ____ _ ____
 72
    65
 73
     4
 40
5.5
 49
4.0
 49
-0.6
 49
0.3
 49
-0.6
  0
LTYPE
  2
DASHED
 70
     0
  3
-- -- -- -- -- -- -- -- -- -- -- -- -- -- --
 72
    65
 73
     2
 40
0.75
 49
0.5
 49
-0.25
  0
LTYPE
  2
CENTER
 70
     0
  3
Center ____ _ ____ _ ____ _ ____ _ ____ _ ____
 72
    65
 73
     4
 40
1.0
 49
0.5
 49
-0.25
 49
0.0
 49
-0.25
  0
LTYPE
  2
DIVIDE
 70
     0
  3
Divide ____ . . ____ . . ____ . . ____ . . ____
 72
    65
 73
     6
 40
1.25
 49
0.5
 49
-0.25
 49
0.0
 49
-0.25
 49
0.0
 49
-0.25
  0
ENDTAB
  0
TABLE
  2
LAYER
 70
    12
  0
LAYER
  2
0
 70
     0
 62
     7
  6
CONTINUOUS
  0
LAYER
  2
BASIS
 70
     0
 62
     6
  6
DASHDOT
  0
LAYER
  2
OUTLINE
 70
     0
 62
     3
  6
CONTINUOUS
  0
LAYER
  2
DETAIL
 70
     0
 62
     5
  6
CONTINUOUS
  0
LAYER
  2
SIZE
 70
     0
 62
    30
  6
CONTINUOUS
  0
LAYER
  2
ARRANGE
 70
     0
 62
     1
  6
CONTINUOUS
  0
LAYER
  2
DEFPOINTS
 70
     0
 62
     7
  6
CONTINUOUS
  0
LAYER
  2
ETC
 70
     0
 62
    61
  6
CONTINUOUS
  0
LAYER
  2
FIX
 70
     0
 62
    11
  6
CONTINUOUS
  0
LAYER
  2
NOTE
 70
     0
 62
     4
  6
CONTINUOUS
  0
LAYER
  2
SERVICESPACE
 70
    64
 62
     2
  6
DASHDOT
  0
LAYER
  2
SYMBOLLINE
 70
    64
 62
    15
  6
CONTINUOUS
  0
ENDTAB
  0
TABLE
  2
STYLE
 70
     1
  0
STYLE
  2
STANDARD
 70
     0
 40
64.0
 41
0.9
 50
0.0
 71
     0
 42
64.0
  3
SIMPLEX.shx
  4
BIGFONT.shx
  0
ENDTAB
  0
TABLE
  2
APPID
 70
    15
  0
APPID
  2
ACAD
 70
     0
  0
APPID
  2
AUTOCAD_POSTSCRIPT_FIGURE
 70
     0
  0
APPID
  2
ACAD_EXEMPT_FROM_CAD_STANDARDS
 70
     0
  0
APPID
  2
ACAD_PSEXT
 70
     0
  0
APPID
  2
ACAUTHENVIRON
 70
     0
  0
APPID
  2
GENIUS_GENOENT_13
 70
     0
  0
APPID
  2
GENIUS_GENCFG_13
 70
     0
  0
APPID
  2
GENIUS_GENCFG0_13
 70
     0
  0
APPID
  2
GENIUS_GENCFG1_13
 70
     0
  0
APPID
  2
GENIUS_GENCFG2_13
 70
     0
  0
APPID
  2
GENIUS_GENCFG3_13
 70
     0
  0
APPID
  2
GENIUS_GENCFG4_13
 70
     0
  0
APPID
  2
GENIUS_GEVCFG0_13
 70
     0
  0
APPID
  2
CONTENTBLOCKICON
 70
     0
  0
APPID
  2
CONTENTBLOCKDESCRIPTION
 70
     0
  0
ENDTAB
  0
TABLE
  2
DIMSTYLE
 70
     1
  0
DIMSTYLE
  2
STANDARD
 70
     0
  3

  4

  5

  6

  7

 40
1.0
 41
0.18
 42
0.0625
 43
0.38
 44
0.18
 45
0.0
 46
0.0
 47
0.0
 48
0.0
140
0.18
141
0.09
142
0.0
143
25.4
144
1.0
145
0.0
146
1.0
147
0.09
 71
     0
 72
     0
 73
     1
 74
     1
 75
     0
 76
     0
 77
     0
 78
     0
170
     0
171
     2
172
     0
173
     0
174
     0
175
     0
176
     7
177
     7
178
     7
  0
ENDTAB
  0
TABLE
  2
VIEW
 70
     1
  0
VIEW
  2
ALL
 70
     0
 40
4282.619808
 10
0.0
 20
41.309904
 41
5940.0
 11
0.0
 21
0.0
 31
1.0
 12
0.0
 22
0.0
 32
0.0
 42
50.0
 43
0.0
 44
0.0
 50
0.0
 71
     0
  0
ENDTAB
  0
TABLE
  2
UCS
 70
     0
  0
ENDTAB
  0
TABLE
  2
VPORT
 70
     1
  0
VPORT
  2
*ACTIVE
 70
     0
 10
0.0
 20
0.0
 11
1.0
 21
1.0
 12
45.998396
 22
116.798411
 13
0.0
 23
0.0
 14
1.0
 24
1.0
 15
0.0
 25
0.0
 16
0.0
 26
0.0
 36
1.0
 17
0.0
 27
0.0
 37
0.0
 40
2079.160456
 41
1.629679
 42
50.0
 43
0.0
 44
0.0
 50
0.0
 51
0.0
 71
     0
 72
  1000
 73
     1
 74
     0
 75
     0
 76
     0
 77
     0
 78
     0
  0
ENDTAB
  0
ENDSEC
  0
SECTION
  2
BLOCKS
  0
BLOCK
  8
0
  2
DOT1
 70
     0
 10
0.0
 20
0.0
 30
0.0
  3
DOT1
  1

  0
CIRCLE
  8
SIZE
  6
CONTINUOUS
 62
     7
 10
0.0
 20
0.0
 30
0.0
 40
3.0
  0
ENDBLK
  8
0
  0
BLOCK
  8
0
  2
_ORIGIN
 70
     0
 10
0.0
 20
0.0
 30
0.0
  3
_ORIGIN
  1

  0
CIRCLE
  8
0
  6
CONTINUOUS
 62
     7
 10
0.0
 20
0.0
 30
0.0
 40
0.5
  0
LINE
  8
0
  6
CONTINUOUS
 62
     7
 10
0.0
 20
0.0
 30
0.0
 11
-1.0
 21
0.0
 31
0.0
  0
ENDBLK
  8
0
  0
ENDSEC
  0
SECTION
  2
ENTITIES
  0
TEXT
  8
ETC
  6
CONTINUOUS
 62
    61
 10
509.551141
 20
1107.873657
 30
0.0
 40
40.0
  1
BFS-180THU2_1
 41
0.9
  0
TEXT
  8
ETC
  6
CONTINUOUS
 62
    61
 10
505.365147
 20
1047.177378
 30
0.0
 40
40.0
  1
産業扇
 41
0.9
  0
TEXT
  8
ETC
  6
CONTINUOUS
 62
    61
 10
555.972649
 20
965.307268
 30
0.0
 40
40.0
  1
BFS-180THU2
 41
0.9
  0
CIRCLE
  8
ARRANGE
  6
CONTINUOUS
 62
     1
 10
0.0
 20
0.0
 30
0.0
 40
40.0
  0
POINT
  8
ARRANGE
  6
CONTINUOUS
 62
     1
 10
0.0
 20
0.0
 30
0.0
 39
50.0
  0
LINE
  8
BASIS
  6
DASHDOT
 62
     6
 39
50.0
 10
0.0
 20
-669.052296
 30
0.0
 11
0.0
 21
668.492876
 31
0.0
  0
LINE
  8
BASIS
  6
DASHDOT
 62
     6
 39
50.0
 10
298.91753
 20
0.0
 30
0.0
 11
-313.149535
 21
0.0
 31
0.0
  0
LINE
  8
DETAIL
  6
CONTINUOUS
 62
     5
 10
-234.5
 20
-165.639427
 30
0.0
 11
-234.5
 21
-516.239427
 31
0.0
  0
LINE
  8
DETAIL
  6
CONTINUOUS
 62
     5
 10
-252.5
 20
-162.239427
 30
0.0
 11
-252.5
 21
-519.639427
 31
0.0
  0
LINE
  8
DETAIL
  6
CONTINUOUS
 62
     5
 10
234.5
 20
-516.239427
 30
0.0
 11
234.5
 21
515.360573
 31
0.0
  0
LINE
  8
DETAIL
  6
CONTINUOUS
 62
     5
 10
252.5
 20
-519.639427
 30
0.0
 11
252.5
 21
518.760573
 31
0.0
  0
LINE
  8
DETAIL
  6
CONTINUOUS
 62
     5
 10
-121.0
 20
602.560573
 30
0.0
 11
-121.0
 21
590.160573
 31
0.0
  0
LINE
  8
DETAIL
  6
CONTINUOUS
 62
     5
 10
121.0
 20
602.560573
 30
0.0
 11
121.0
 21
590.160573
 31
0.0
  0
LINE
  8
DETAIL
  6
CONTINUOUS
 62
     5
 10
118.4
 20
605.160573
 30
0.0
 11
0.0
 21
605.160573
 31
0.0
  0
LINE
  8
DETAIL
  6
CONTINUOUS
 62
     5
 10
-118.4
 20
605.160573
 30
0.0
 11
0.0
 21
605.160573
 31
0.0
  0
ARC
  8
DETAIL
  6
CONTINUOUS
 62
     5
 10
-118.4
 20
602.560573
 30
0.0
 40
2.6
 50
90.0
 51
180.0
  0
ARC
  8
DETAIL
  6
CONTINUOUS
 62
     5
 10
118.4
 20
602.560573
 30
0.0
 40
2.6
 50
0.0
 51
90.0
  0
LINE
  8
DETAIL
  6
CONTINUOUS
 62
     5
 10
121.0
 20
590.160573
 30
0.0
 11
0.0
 21
590.160573
 31
0.0
  0
LINE
  8
DETAIL
  6
CONTINUOUS
 62
     5
 10
0.0
 20
520.760573
 30
0.0
 11
142.5
 21
520.760573
 31
0.0
  0
LINE
  8
DETAIL
  6
CONTINUOUS
 62
     5
 10
142.5
 20
520.160573
 30
0.0
 11
0.0
 21
520.160573
 31
0.0
  0
LINE
  8
DETAIL
  6
CONTINUOUS
 62
     5
 10
-251.3
 20
520.160573
 30
0.0
 11
251.3
 21
520.160573
 31
0.0
  0
LINE
  8
DETAIL
  6
CONTINUOUS
 62
     5
 10
-253.3
 20
-159.539427
 30
0.0
 11
-253.3
 21
166.260573
 31
0.0
  0
LINE
  8
DETAIL
  6
CONTINUOUS
 62
     5
 10
-223.3
 20
-154.539427
 30
0.0
 11
-223.3
 21
161.260573
 31
0.0
  0
LINE
  8
DETAIL
  6
CONTINUOUS
 62
     5
 10
-252.5
 20
168.760573
 30
0.0
 11
-252.5
 21
518.760573
 31
0.0
  0
LINE
  8
DETAIL
  6
CONTINUOUS
 62
     5
 10
-234.5
 20
172.160573
 30
0.0
 11
-234.5
 21
515.360573
 31
0.0
  0
ARC
  8
DETAIL
  6
CONTINUOUS
 62
     5
 10
-300.0
 20
502.260573
 30
0.0
 40
5.5
 50
0.0
 51
180.0
  0
LINE
  8
DETAIL
  6
CONTINUOUS
 62
     5
 10
-320.0
 20
523.160573
 30
0.0
 11
-235.94848
 21
523.160573
 31
0.0
  0
LINE
  8
DETAIL
  6
CONTINUOUS
 62
     5
 10
-305.5
 20
502.260573
 30
0.0
 11
-305.5
 21
482.160573
 31
0.0
  0
LINE
  8
DETAIL
  6
CONTINUOUS
 62
     5
 10
-320.0
 20
523.160573
 30
0.0
 11
-320.0
 21
482.160573
 31
0.0
  0
LINE
  8
NOTE
  6
CENTER
 62
     4
 10
-300.0
 20
481.960573
 30
0.0
 11
-300.0
 21
522.960573
 31
0.0
  0
LINE
  8
DETAIL
  6
CONTINUOUS
 62
     5
 10
-314.0
 20
518.160573
 30
0.0
 11
-314.0
 21
523.160573
 31
0.0
  0
LINE
  8
DETAIL
  6
CONTINUOUS
 62
     5
 10
-314.0
 20
518.160573
 30
0.0
 11
-311.11324
 21
523.160573
 31
0.0
  0
LINE
  8
DETAIL
  6
CONTINUOUS
 62
     5
 10
-314.0
 20
518.160573
 30
0.0
 11
-316.88675
 21
523.160573
 31
0.0
  0
LINE
  8
DETAIL
  6
CONTINUOUS
 62
     5
 10
-320.0
 20
482.160573
 30
0.0
 11
-305.5
 21
482.160573
 31
0.0
  0
LINE
  8
DETAIL
  6
DIVIDE
 62
     5
 10
-252.5
 20
517.660573
 30
0.0
 11
-252.5
 21
486.160573
 31
0.0
  0
LINE
  8
DETAIL
  6
CONTINUOUS
 62
     5
 10
-294.5
 20
502.260573
 30
0.0
 11
-294.5
 21
482.160573
 31
0.0
  0
LINE
  8
DETAIL
  6
CONTINUOUS
 62
     5
 10
-252.5
 20
517.660573
 30
0.0
 11
-252.5
 21
486.160573
 31
0.0
  0
LINE
  8
DETAIL
  6
CONTINUOUS
 62
     5
 10
-250.3
 20
520.160573
 30
0.0
 11
-233.9
 21
520.160573
 31
0.0
  0
LINE
  8
DETAIL
  6
CONTINUOUS
 62
     5
 10
-262.5
 20
521.160573
 30
0.0
 11
-235.94848
 21
521.160573
 31
0.0
  0
LINE
  8
DETAIL
  6
CONTINUOUS
 62
     5
 10
-251.3
 20
520.160573
 30
0.0
 11
-234.5
 21
520.160573
 31
0.0
  0
LINE
  8
DETAIL
  6
CONTINUOUS
 62
     5
 10
-251.3
 20
519.360573
 30
0.0
 11
-234.5
 21
519.360573
 31
0.0
  0
LINE
  8
DETAIL
  6
CONTINUOUS
 62
     5
 10
-237.5
 20
518.560573
 30
0.0
 11
-234.5
 21
515.560573
 31
0.0
  0
LINE
  8
DETAIL
  6
CONTINUOUS
 62
     5
 10
-276.7
 20
525.160573
 30
0.0
 11
-247.0
 21
525.160573
 31
0.0
  0
LINE
  8
DETAIL
  6
CONTINUOUS
 62
     5
 10
-285.4
 20
518.160573
 30
0.0
 11
-285.4
 21
523.160573
 31
0.0
  0
LINE
  8
DETAIL
  6
CONTINUOUS
 62
     5
 10
-285.4
 20
518.160573
 30
0.0
 11
-288.28675
 21
523.160573
 31
0.0
  0
LINE
  8
DETAIL
  6
CONTINUOUS
 62
     5
 10
-285.4
 20
518.160573
 30
0.0
 11
-282.51324
 21
523.160573
 31
0.0
  0
ARC
  8
DETAIL
  6
CONTINUOUS
 62
     5
 10
-276.7
 20
523.160573
 30
0.0
 40
2.0
 50
90.0
 51
180.0
  0
ARC
  8
DETAIL
  6
CONTINUOUS
 62
     5
 10
-242.9
 20
518.560573
 30
0.0
 40
6.1
 50
48.94665
 51
112.945186
  0
ARC
  8
DETAIL
  6
CONTINUOUS
 62
     5
 10
-250.3
 20
521.160573
 30
0.0
 40
1.0
 50
180.0
 51
270.0
  0
LINE
  8
DETAIL
  6
CONTINUOUS
 62
     5
 10
-262.5
 20
517.660573
 30
0.0
 11
-252.5
 21
517.660573
 31
0.0
  0
LINE
  8
DETAIL
  6
CONTINUOUS
 62
     5
 10
-262.5
 20
521.160573
 30
0.0
 11
-262.5
 21
517.660573
 31
0.0
  0
ARC
  8
DETAIL
  6
CONTINUOUS
 62
     5
 10
-247.0
 20
523.160573
 30
0.0
 40
2.0
 50
0.0
 51
90.0
  0
LINE
  8
DETAIL
  6
CONTINUOUS
 62
     5
 10
-252.5
 20
518.560573
 30
0.0
 11
-237.5
 21
518.560573
 31
0.0
  0
LINE
  8
DETAIL
  6
CONTINUOUS
 62
     5
 10
-251.7
 20
518.560573
 30
0.0
 11
-251.7
 21
518.960573
 31
0.0
  0
ARC
  8
DETAIL
  6
CONTINUOUS
 62
     5
 10
-251.3
 20
518.960573
 30
0.0
 40
1.2
 50
90.0
 51
180.0
  0
ARC
  8
DETAIL
  6
CONTINUOUS
 62
     5
 10
-251.3
 20
518.960573
 30
0.0
 40
0.4
 50
90.0
 51
180.0
  0
LINE
  8
DETAIL
  6
CONTINUOUS
 62
     5
 10
-251.3
 20
518.560573
 30
0.0
 11
-251.3
 21
519.360573
 31
0.0
  0
LINE
  8
DETAIL
  6
DASHED
 62
     5
 10
-242.05128
 20
518.560573
 30
0.0
 11
-243.74871
 21
518.560573
 31
0.0
  0
LINE
  8
DETAIL
  6
DASHED
 62
     5
 10
-247.6001
 20
518.560573
 30
0.0
 11
-248.88378
 21
518.560573
 31
0.0
  0
LINE
  8
DETAIL
  6
CONTINUOUS
 62
     5
 10
-233.9
 20
520.160573
 30
0.0
 11
-233.9
 21
522.160573
 31
0.0
  0
LINE
  8
DETAIL
  6
CONTINUOUS
 62
     5
 10
-235.94848
 20
521.160573
 30
0.0
 11
-235.94848
 21
523.160573
 31
0.0
  0
LINE
  8
DETAIL
  6
CONTINUOUS
 62
     5
 10
-235.94848
 20
522.160573
 30
0.0
 11
-233.9
 21
522.160573
 31
0.0
  0
LINE
  8
DETAIL
  6
CONTINUOUS
 62
     5
 10
-234.5
 20
520.160573
 30
0.0
 11
-234.5
 21
519.360573
 31
0.0
  0
LINE
  8
DETAIL
  6
CONTINUOUS
 62
     5
 10
-294.5
 20
482.160573
 30
0.0
 11
-256.5
 21
482.160573
 31
0.0
  0
LINE
  8
DETAIL
  6
CONTINUOUS
 62
     5
 10
-256.5
 20
486.160573
 30
0.0
 11
-252.5
 21
486.160573
 31
0.0
  0
LINE
  8
DETAIL
  6
CONTINUOUS
 62
     5
 10
-256.5
 20
486.160573
 30
0.0
 11
-256.5
 21
482.160573
 31
0.0
  0
LINE
  8
DETAIL
  6
CONTINUOUS
 62
     5
 10
-213.8
 20
215.660573
 30
0.0
 11
-213.8
 21
211.660573
 31
0.0
  0
LINE
  8
DETAIL
  6
CONTINUOUS
 62
     5
 10
-223.3
 20
216.660573
 30
0.0
 11
-223.3
 21
211.660573
 31
0.0
  0
LINE
  8
DETAIL
  6
CONTINUOUS
 62
     5
 10
-204.8
 20
214.660573
 30
0.0
 11
-204.8
 21
216.660573
 31
0.0
  0
LINE
  8
DETAIL
  6
CONTINUOUS
 62
     5
 10
-204.8
 20
215.660573
 30
0.0
 11
-213.8
 21
215.660573
 31
0.0
  0
LINE
  8
DETAIL
  6
CONTINUOUS
 62
     5
 10
-206.8
 20
225.760573
 30
0.0
 11
-204.8
 21
223.660573
 31
0.0
  0
LINE
  8
DETAIL
  6
CONTINUOUS
 62
     5
 10
-213.8
 20
222.660573
 30
0.0
 11
-204.8
 21
222.660573
 31
0.0
  0
LINE
  8
DETAIL
  6
CONTINUOUS
 62
     5
 10
-223.3
 20
216.660573
 30
0.0
 11
-204.8
 21
216.660573
 31
0.0
  0
LINE
  8
DETAIL
  6
CONTINUOUS
 62
     5
 10
-223.3
 20
221.660573
 30
0.0
 11
-204.8
 21
221.660573
 31
0.0
  0
LINE
  8
DETAIL
  6
CONTINUOUS
 62
     5
 10
-213.8
 20
225.760573
 30
0.0
 11
-206.8
 21
225.760573
 31
0.0
  0
LINE
  8
DETAIL
  6
CONTINUOUS
 62
     5
 10
-213.8
 20
222.660573
 30
0.0
 11
-213.8
 21
226.660573
 31
0.0
  0
LINE
  8
DETAIL
  6
CONTINUOUS
 62
     5
 10
-223.3
 20
221.660573
 30
0.0
 11
-223.3
 21
226.660573
 31
0.0
  0
LINE
  8
DETAIL
  6
CONTINUOUS
 62
     5
 10
-213.8
 20
226.660573
 30
0.0
 11
-213.8
 21
224.660573
 31
0.0
  0
LINE
  8
DETAIL
  6
CONTINUOUS
 62
     5
 10
-223.3
 20
226.660573
 30
0.0
 11
-213.8
 21
226.660573
 31
0.0
  0
LINE
  8
DETAIL
  6
CONTINUOUS
 62
     5
 10
-204.8
 20
223.660573
 30
0.0
 11
-204.8
 21
221.660573
 31
0.0
  0
LINE
  8
DETAIL
  6
CONTINUOUS
 62
     5
 10
-253.3
 20
166.260573
 30
0.0
 11
-228.3
 21
166.260573
 31
0.0
  0
LINE
  8
DETAIL
  6
CONTINUOUS
 62
     5
 10
-234.5
 20
172.160573
 30
0.0
 11
-237.5
 21
169.160573
 31
0.0
  0
LINE
  8
DETAIL
  6
CONTINUOUS
 62
     5
 10
-253.3
 20
166.260573
 30
0.0
 11
-253.3
 21
207.260573
 31
0.0
  0
LINE
  8
DETAIL
  6
CONTINUOUS
 62
     5
 10
-252.5
 20
166.260573
 30
0.0
 11
-252.5
 21
207.260573
 31
0.0
  0
ARC
  8
DETAIL
  6
CONTINUOUS
 62
     5
 10
-251.3
 20
168.760573
 30
0.0
 40
0.4
 50
180.0
 51
270.0
  0
ARC
  8
DETAIL
  6
CONTINUOUS
 62
     5
 10
-251.3
 20
168.760573
 30
0.0
 40
1.2
 50
180.0
 51
270.0
  0
LINE
  8
DETAIL
  6
CONTINUOUS
 62
     5
 10
-251.3
 20
166.260573
 30
0.0
 11
-251.3
 21
169.160573
 31
0.0
  0
LINE
  8
DETAIL
  6
CONTINUOUS
 62
     5
 10
-266.7
 20
208.460573
 30
0.0
 11
-253.7
 21
208.460573
 31
0.0
  0
LINE
  8
DETAIL
  6
CONTINUOUS
 62
     5
 10
-266.7
 20
207.660573
 30
0.0
 11
-253.7
 21
207.660573
 31
0.0
  0
ARC
  8
DETAIL
  6
CONTINUOUS
 62
     5
 10
-253.7
 20
207.260573
 30
0.0
 40
1.2
 50
0.0
 51
90.0
  0
ARC
  8
DETAIL
  6
CONTINUOUS
 62
     5
 10
-253.7
 20
207.260573
 30
0.0
 40
0.4
 50
0.0
 51
90.0
  0
LINE
  8
DETAIL
  6
CONTINUOUS
 62
     5
 10
-257.5
 20
208.460573
 30
0.0
 11
-257.5
 21
209.260573
 31
0.0
  0
LINE
  8
DETAIL
  6
CONTINUOUS
 62
     5
 10
-266.7
 20
209.260573
 30
0.0
 11
-257.5
 21
209.260573
 31
0.0
  0
ARC
  8
DETAIL
  6
CONTINUOUS
 62
     5
 10
-266.7
 20
208.460573
 30
0.0
 40
0.8
 50
90.0
 51
180.0
  0
ARC
  8
DETAIL
  6
CONTINUOUS
 62
     5
 10
-266.7
 20
208.460573
 30
0.0
 40
0.8
 50
180.0
 51
270.0
  0
LINE
  8
DETAIL
  6
CONTINUOUS
 62
     5
 10
-262.5
 20
208.460573
 30
0.0
 11
-262.5
 21
209.260573
 31
0.0
  0
LINE
  8
DETAIL
  6
CONTINUOUS
 62
     5
 10
-251.7
 20
168.760573
 30
0.0
 11
-251.7
 21
169.160573
 31
0.0
  0
LINE
  8
DETAIL
  6
CONTINUOUS
 62
     5
 10
-252.5
 20
169.160573
 30
0.0
 11
-237.5
 21
169.160573
 31
0.0
  0
LINE
  8
DETAIL
  6
CONTINUOUS
 62
     5
 10
-206.8
 20
212.560573
 30
0.0
 11
-204.8
 21
214.660573
 31
0.0
  0
LINE
  8
DETAIL
  6
CONTINUOUS
 62
     5
 10
-213.8
 20
212.560573
 30
0.0
 11
-206.8
 21
212.560573
 31
0.0
  0
LINE
  8
DETAIL
  6
CONTINUOUS
 62
     5
 10
-213.8
 20
211.660573
 30
0.0
 11
-213.8
 21
213.660573
 31
0.0
  0
LINE
  8
DETAIL
  6
CONTINUOUS
 62
     5
 10
-223.3
 20
211.660573
 30
0.0
 11
-213.8
 21
211.660573
 31
0.0
  0
ARC
  8
DETAIL
  6
CONTINUOUS
 62
     5
 10
-228.3
 20
161.260573
 30
0.0
 40
5.0
 50
0.0
 51
90.0
  0
LINE
  8
DETAIL
  6
CONTINUOUS
 62
     5
 10
73.25305
 20
312.670473
 30
0.0
 11
67.24265
 21
306.660063
 31
0.0
  0
LINE
  8
DETAIL
  6
CONTINUOUS
 62
     5
 10
69.78823
 20
304.821593
 30
0.0
 11
74.03087
 21
309.064233
 31
0.0
  0
LINE
  8
DETAIL
  6
CONTINUOUS
 62
     5
 10
52.3934
 20
307.367173
 30
0.0
 11
59.11092
 21
314.084693
 31
0.0
  0
LINE
  8
DETAIL
  6
CONTINUOUS
 62
     5
 10
59.46447
 20
300.296103
 30
0.0
 11
72.54595
 21
313.377583
 31
0.0
  0
LINE
  8
DETAIL
  6
CONTINUOUS
 62
     5
 10
55.92894
 20
303.831643
 30
0.0
 11
69.01041
 21
316.913113
 31
0.0
  0
LINE
  8
DETAIL
  6
CONTINUOUS
 62
     5
 10
-142.5
 20
520.160573
 30
0.0
 11
0.0
 21
520.160573
 31
0.0
  0
LINE
  8
DETAIL
  6
CONTINUOUS
 62
     5
 10
-121.0
 20
590.160573
 30
0.0
 11
0.0
 21
590.160573
 31
0.0
  0
LINE
  8
DETAIL
  6
CONTINUOUS
 62
     5
 10
0.0
 20
520.760573
 30
0.0
 11
-142.5
 21
520.760573
 31
0.0
  0
LINE
  8
DETAIL
  6
CONTINUOUS
 62
     5
 10
-121.0
 20
590.160573
 30
0.0
 11
-129.0
 21
522.760573
 31
0.0
  0
LINE
  8
DETAIL
  6
CONTINUOUS
 62
     5
 10
-142.5
 20
520.760573
 30
0.0
 11
-142.5
 21
520.160573
 31
0.0
  0
ARC
  8
DETAIL
  6
CONTINUOUS
 62
     5
 10
-131.0
 20
522.760573
 30
0.0
 40
2.0
 50
270.0
 51
0.0
  0
LINE
  8
DETAIL
  6
CONTINUOUS
 62
     5
 10
-142.5
 20
520.160573
 30
0.0
 11
-142.5
 21
520.760573
 31
0.0
  0
LINE
  8
DETAIL
  6
CONTINUOUS
 62
     5
 10
64.69706
 20
318.398043
 30
0.0
 11
67.5962
 21
318.327333
 31
0.0
  0
LINE
  8
DETAIL
  6
CONTINUOUS
 62
     5
 10
68.30331
 20
317.620223
 30
0.0
 11
62.2929
 21
311.609813
 31
0.0
  0
LINE
  8
DETAIL
  6
CONTINUOUS
 62
     5
 10
62.2929
 20
311.609813
 30
0.0
 11
61.49106
 21
312.411653
 31
0.0
  0
LINE
  8
DETAIL
  6
CONTINUOUS
 62
     5
 10
60.45442
 20
314.155403
 30
0.0
 11
64.69706
 21
318.398043
 31
0.0
  0
LINE
  8
DETAIL
  6
CONTINUOUS
 62
     5
 10
60.45442
 20
314.155403
 30
0.0
 11
61.58579
 21
312.316923
 31
0.0
  0
ARC
  8
DETAIL
  6
CONTINUOUS
 62
     5
 10
61.23224
 20
313.377583
 30
0.0
 40
1.0
 50
225.0
 51
286.8468
  0
LINE
  8
DETAIL
  6
CONTINUOUS
 62
     5
 10
59.11092
 20
314.084693
 30
0.0
 11
60.52513
 21
312.670473
 31
0.0
  0
LINE
  8
DETAIL
  6
CONTINUOUS
 62
     5
 10
74.03087
 20
309.064233
 30
0.0
 11
73.96016
 21
311.963363
 31
0.0
  0
LINE
  8
DETAIL
  6
CONTINUOUS
 62
     5
 10
73.96016
 20
311.963363
 30
0.0
 11
72.54595
 21
313.377583
 31
0.0
  0
LINE
  8
DETAIL
  6
CONTINUOUS
 62
     5
 10
67.5962
 20
318.327333
 30
0.0
 11
69.01041
 21
316.913113
 31
0.0
  0
LINE
  8
DETAIL
  6
CONTINUOUS
 62
     5
 10
63.0
 20
296.760573
 30
0.0
 11
69.71752
 21
303.478083
 31
0.0
  0
LINE
  8
DETAIL
  6
CONTINUOUS
 62
     5
 10
59.46447
 20
300.296103
 30
0.0
 11
63.0
 21
296.760573
 31
0.0
  0
LINE
  8
DETAIL
  6
CONTINUOUS
 62
     5
 10
55.92894
 20
303.831643
 30
0.0
 11
52.3934
 21
307.367173
 31
0.0
  0
LINE
  8
DETAIL
  6
CONTINUOUS
 62
     5
 10
67.24265
 20
306.660063
 30
0.0
 11
68.04449
 21
305.858223
 31
0.0
  0
LINE
  8
DETAIL
  6
CONTINUOUS
 62
     5
 10
69.78823
 20
304.821593
 30
0.0
 11
67.94975
 21
305.952963
 31
0.0
  0
LINE
  8
DETAIL
  6
CONTINUOUS
 62
     5
 10
69.71752
 20
303.478083
 30
0.0
 11
68.30331
 21
304.892303
 31
0.0
  0
ARC
  8
DETAIL
  6
CONTINUOUS
 62
     5
 10
69.01041
 20
305.599403
 30
0.0
 40
1.0
 50
163.1532
 51
225.0
  0
LINE
  8
DETAIL
  6
CONTINUOUS
 62
     5
 10
-288.3
 20
-179.352757
 30
0.0
 11
-288.3
 21
-0.752757
 31
0.0
  0
LINE
  8
DETAIL
  6
CONTINUOUS
 62
     5
 10
-254.1
 20
-178.252757
 30
0.0
 11
-254.1
 21
-1.852757
 31
0.0
  0
LINE
  8
DETAIL
  6
CONTINUOUS
 62
     5
 10
-253.3
 20
-178.252757
 30
0.0
 11
-253.3
 21
-1.852757
 31
0.0
  0
LINE
  8
DETAIL
  6
CONTINUOUS
 62
     5
 10
-243.3
 20
99.960573
 30
0.0
 11
-235.3
 21
99.960573
 31
0.0
  0
LINE
  8
DETAIL
  6
CONTINUOUS
 62
     5
 10
-243.3
 20
114.960573
 30
0.0
 11
-235.3
 21
114.960573
 31
0.0
  0
LINE
  8
DETAIL
  6
DASHED
 62
     5
 10
-253.3
 20
80.960573
 30
0.0
 11
-253.3
 21
68.960573
 31
0.0
  0
LINE
  8
DETAIL
  6
CONTINUOUS
 62
     5
 10
-258.96236
 20
83.008583
 30
0.0
 11
-258.96236
 21
74.960573
 31
0.0
  0
LINE
  8
DETAIL
  6
CONTINUOUS
 62
     5
 10
-243.3
 20
99.960573
 30
0.0
 11
-243.3
 21
114.960573
 31
0.0
  0
LINE
  8
DETAIL
  6
CONTINUOUS
 62
     5
 10
-253.3
 20
84.941113
 30
0.0
 11
-253.3
 21
80.960573
 31
0.0
  0
LINE
  8
DETAIL
  6
CONTINUOUS
 62
     5
 10
-254.8
 20
84.941113
 30
0.0
 11
-253.3
 21
84.941113
 31
0.0
  0
LINE
  8
DETAIL
  6
CONTINUOUS
 62
     5
 10
-255.0
 20
80.960573
 30
0.0
 11
-253.3
 21
80.960573
 31
0.0
  0
LINE
  8
DETAIL
  6
CONTINUOUS
 62
     5
 10
-255.0
 20
83.809103
 30
0.0
 11
-255.0
 21
80.960573
 31
0.0
  0
LINE
  8
DETAIL
  6
CONTINUOUS
 62
     5
 10
-255.0
 20
84.960573
 30
0.0
 11
-259.2
 21
84.112043
 31
0.0
  0
LINE
  8
DETAIL
  6
CONTINUOUS
 62
     5
 10
-254.77649
 20
83.854253
 30
0.0
 11
-258.97649
 21
83.005723
 31
0.0
  0
LINE
  8
DETAIL
  6
CONTINUOUS
 62
     5
 10
-255.0
 20
84.960573
 30
0.0
 11
-254.77649
 21
83.854253
 31
0.0
  0
LINE
  8
DETAIL
  6
CONTINUOUS
 62
     5
 10
-258.97649
 20
83.005723
 30
0.0
 11
-259.2
 21
84.112043
 31
0.0
  0
LINE
  8
DETAIL
  6
CONTINUOUS
 62
     5
 10
-254.88821
 20
84.407253
 30
0.0
 11
-259.08821
 21
83.558723
 31
0.0
  0
LINE
  8
DETAIL
  6
CONTINUOUS
 62
     5
 10
-253.3
 20
68.960573
 30
0.0
 11
-253.3
 21
64.960573
 31
0.0
  0
LINE
  8
DETAIL
  6
CONTINUOUS
 62
     5
 10
-254.8
 20
64.960573
 30
0.0
 11
-253.3
 21
64.960573
 31
0.0
  0
LINE
  8
DETAIL
  6
CONTINUOUS
 62
     5
 10
-258.96236
 20
66.912563
 30
0.0
 11
-258.96236
 21
74.960573
 31
0.0
  0
LINE
  8
DETAIL
  6
CONTINUOUS
 62
     5
 10
-254.88821
 20
65.513893
 30
0.0
 11
-259.08821
 21
66.362423
 31
0.0
  0
LINE
  8
DETAIL
  6
CONTINUOUS
 62
     5
 10
-255.0
 20
64.960573
 30
0.0
 11
-259.2
 21
65.809103
 31
0.0
  0
LINE
  8
DETAIL
  6
CONTINUOUS
 62
     5
 10
-255.0
 20
64.960573
 30
0.0
 11
-254.77649
 21
66.066893
 31
0.0
  0
LINE
  8
DETAIL
  6
CONTINUOUS
 62
     5
 10
-254.77649
 20
66.066893
 30
0.0
 11
-258.97649
 21
66.915413
 31
0.0
  0
LINE
  8
DETAIL
  6
CONTINUOUS
 62
     5
 10
-258.97649
 20
66.915413
 30
0.0
 11
-259.2
 21
65.809103
 31
0.0
  0
LINE
  8
DETAIL
  6
CONTINUOUS
 62
     5
 10
-255.0
 20
66.112043
 30
0.0
 11
-255.0
 21
68.960573
 31
0.0
  0
LINE
  8
DETAIL
  6
CONTINUOUS
 62
     5
 10
-255.0
 20
68.960573
 30
0.0
 11
-253.3
 21
68.960573
 31
0.0
  0
LINE
  8
DETAIL
  6
CONTINUOUS
 62
     5
 10
-235.3
 20
99.960573
 30
0.0
 11
-233.3
 21
101.960573
 31
0.0
  0
LINE
  8
DETAIL
  6
CONTINUOUS
 62
     5
 10
-233.3
 20
101.960573
 30
0.0
 11
-233.3
 21
112.960573
 31
0.0
  0
LINE
  8
DETAIL
  6
CONTINUOUS
 62
     5
 10
-235.3
 20
114.960573
 30
0.0
 11
-233.3
 21
112.960573
 31
0.0
  0
LINE
  8
DETAIL
  6
CONTINUOUS
 62
     5
 10
-243.3
 20
-5.039427
 30
0.0
 11
-235.3
 21
-5.039427
 31
0.0
  0
LINE
  8
DETAIL
  6
CONTINUOUS
 62
     5
 10
-243.3
 20
9.960573
 30
0.0
 11
-235.3
 21
9.960573
 31
0.0
  0
LINE
  8
DETAIL
  6
CONTINUOUS
 62
     5
 10
-265.8
 20
0.797243
 30
0.0
 11
-269.3
 21
0.797243
 31
0.0
  0
ARC
  8
DETAIL
  6
CONTINUOUS
 62
     5
 10
-266.3
 20
0.797243
 30
0.0
 40
3.0
 50
90.0
 51
180.0
  0
LINE
  8
DETAIL
  6
CONTINUOUS
 62
     5
 10
-287.1
 20
0.447243
 30
0.0
 11
-254.5
 21
0.447243
 31
0.0
  0
LINE
  8
DETAIL
  6
CONTINUOUS
 62
     5
 10
-287.1
 20
-0.352757
 30
0.0
 11
-254.5
 21
-0.352757
 31
0.0
  0
ARC
  8
DETAIL
  6
CONTINUOUS
 62
     5
 10
-287.1
 20
-0.752757
 30
0.0
 40
1.2
 50
90.0
 51
180.0
  0
ARC
  8
DETAIL
  6
CONTINUOUS
 62
     5
 10
-287.1
 20
-0.752757
 30
0.0
 40
0.4
 50
90.0
 51
180.0
  0
LINE
  8
DETAIL
  6
CONTINUOUS
 62
     5
 10
-287.5
 20
-1.852757
 30
0.0
 11
-287.5
 21
-0.752757
 31
0.0
  0
LINE
  8
DETAIL
  6
CONTINUOUS
 62
     5
 10
-288.3
 20
-1.852757
 30
0.0
 11
-286.8
 21
-1.852757
 31
0.0
  0
LINE
  8
DETAIL
  6
CONTINUOUS
 62
     5
 10
-286.8
 20
-1.852757
 30
0.0
 11
-286.8
 21
-0.352757
 31
0.0
  0
LINE
  8
DETAIL
  6
CONTINUOUS
 62
     5
 10
-253.3
 20
0.847243
 30
0.0
 11
-253.3
 21
10.447243
 31
0.0
  0
LINE
  8
DETAIL
  6
CONTINUOUS
 62
     5
 10
-254.1
 20
0.847243
 30
0.0
 11
-254.1
 21
10.447243
 31
0.0
  0
LINE
  8
DETAIL
  6
CONTINUOUS
 62
     5
 10
-243.3
 20
-5.039427
 30
0.0
 11
-243.3
 21
9.960573
 31
0.0
  0
LINE
  8
DETAIL
  6
CONTINUOUS
 62
     5
 10
-253.3
 20
10.447243
 30
0.0
 11
-254.1
 21
10.447243
 31
0.0
  0
LINE
  8
DETAIL
  6
CONTINUOUS
 62
     5
 10
-260.04037
 20
3.797243
 30
0.0
 11
-260.04037
 21
0.797243
 31
0.0
  0
LINE
  8
DETAIL
  6
CONTINUOUS
 62
     5
 10
-255.3
 20
3.797243
 30
0.0
 11
-255.3
 21
0.797243
 31
0.0
  0
LINE
  8
DETAIL
  6
CONTINUOUS
 62
     5
 10
-256.3
 20
3.797243
 30
0.0
 11
-256.3
 21
0.797243
 31
0.0
  0
LINE
  8
DETAIL
  6
CONTINUOUS
 62
     5
 10
-265.8
 20
0.447243
 30
0.0
 11
-265.8
 21
0.797243
 31
0.0
  0
LINE
  8
DETAIL
  6
CONTINUOUS
 62
     5
 10
-265.8
 20
0.797243
 30
0.0
 11
-254.1
 21
0.797243
 31
0.0
  0
LINE
  8
DETAIL
  6
CONTINUOUS
 62
     5
 10
-254.1
 20
3.797243
 30
0.0
 11
-266.3
 21
3.797243
 31
0.0
  0
ARC
  8
DETAIL
  6
CONTINUOUS
 62
     5
 10
-254.5
 20
0.847243
 30
0.0
 40
1.2
 50
270.0
 51
0.0
  0
LINE
  8
DETAIL
  6
CONTINUOUS
 62
     5
 10
-254.8
 20
-1.852757
 30
0.0
 11
-254.8
 21
-0.352757
 31
0.0
  0
LINE
  8
DETAIL
  6
CONTINUOUS
 62
     5
 10
-253.3
 20
-1.852757
 30
0.0
 11
-254.8
 21
-1.852757
 31
0.0
  0
ARC
  8
DETAIL
  6
CONTINUOUS
 62
     5
 10
-254.5
 20
0.847243
 30
0.0
 40
0.4
 50
270.0
 51
0.0
  0
LINE
  8
DETAIL
  6
CONTINUOUS
 62
     5
 10
-233.3
 20
-3.039427
 30
0.0
 11
-233.3
 21
7.960573
 31
0.0
  0
LINE
  8
DETAIL
  6
CONTINUOUS
 62
     5
 10
-235.3
 20
9.960573
 30
0.0
 11
-233.3
 21
7.960573
 31
0.0
  0
LINE
  8
DETAIL
  6
CONTINUOUS
 62
     5
 10
-235.3
 20
-5.039427
 30
0.0
 11
-233.3
 21
-3.039427
 31
0.0
  0
ARC
  8
DETAIL
  6
CONTINUOUS
 62
     5
 10
-228.3
 20
-154.539427
 30
0.0
 40
5.0
 50
270.0
 51
0.0
  0
LINE
  8
DETAIL
  6
CONTINUOUS
 62
     5
 10
-243.3
 20
-110.039427
 30
0.0
 11
-235.3
 21
-110.039427
 31
0.0
  0
LINE
  8
DETAIL
  6
CONTINUOUS
 62
     5
 10
-243.3
 20
-95.039427
 30
0.0
 11
-235.3
 21
-95.039427
 31
0.0
  0
LINE
  8
DETAIL
  6
CONTINUOUS
 62
     5
 10
-243.3
 20
-110.039427
 30
0.0
 11
-243.3
 21
-95.039427
 31
0.0
  0
LINE
  8
DETAIL
  6
CONTINUOUS
 62
     5
 10
-253.3
 20
-140.973187
 30
0.0
 11
-253.3
 21
-139.909007
 31
0.0
  0
LINE
  8
DETAIL
  6
CONTINUOUS
 62
     5
 10
-253.3
 20
-136.196517
 30
0.0
 11
-253.3
 21
-135.132337
 31
0.0
  0
LINE
  8
DETAIL
  6
CONTINUOUS
 62
     5
 10
-235.3
 20
-110.039427
 30
0.0
 11
-233.3
 21
-108.039427
 31
0.0
  0
LINE
  8
DETAIL
  6
CONTINUOUS
 62
     5
 10
-233.3
 20
-108.039427
 30
0.0
 11
-233.3
 21
-97.039427
 31
0.0
  0
LINE
  8
DETAIL
  6
CONTINUOUS
 62
     5
 10
-235.3
 20
-95.039427
 30
0.0
 11
-233.3
 21
-97.039427
 31
0.0
  0
LINE
  8
DETAIL
  6
CONTINUOUS
 62
     5
 10
-228.3
 20
-159.539427
 30
0.0
 11
-253.3
 21
-159.539427
 31
0.0
  0
LINE
  8
DETAIL
  6
CONTINUOUS
 62
     5
 10
-234.5
 20
-165.639427
 30
0.0
 11
-237.5
 21
-162.639427
 31
0.0
  0
LINE
  8
DETAIL
  6
CONTINUOUS
 62
     5
 10
-253.7
 20
-179.752757
 30
0.0
 11
-287.1
 21
-179.752757
 31
0.0
  0
LINE
  8
DETAIL
  6
CONTINUOUS
 62
     5
 10
-253.7
 20
-180.552757
 30
0.0
 11
-287.1
 21
-180.552757
 31
0.0
  0
LINE
  8
DETAIL
  6
DASHED
 62
     5
 10
-254.8
 20
-178.952757
 30
0.0
 11
-286.8
 21
-178.952757
 31
0.0
  0
LINE
  8
DETAIL
  6
CONTINUOUS
 62
     5
 10
-287.5
 20
-179.352757
 30
0.0
 11
-287.5
 21
-178.252757
 31
0.0
  0
LINE
  8
DETAIL
  6
CONTINUOUS
 62
     5
 10
-286.8
 20
-179.752757
 30
0.0
 11
-286.8
 21
-178.252757
 31
0.0
  0
LINE
  8
DETAIL
  6
CONTINUOUS
 62
     5
 10
-286.8
 20
-178.252757
 30
0.0
 11
-288.3
 21
-178.252757
 31
0.0
  0
ARC
  8
DETAIL
  6
CONTINUOUS
 62
     5
 10
-287.1
 20
-179.352757
 30
0.0
 40
1.2
 50
180.0
 51
270.0
  0
ARC
  8
DETAIL
  6
CONTINUOUS
 62
     5
 10
-287.1
 20
-179.352757
 30
0.0
 40
0.4
 50
180.0
 51
270.0
  0
LINE
  8
DETAIL
  6
CONTINUOUS
 62
     5
 10
-253.3
 20
-190.552757
 30
0.0
 11
-253.3
 21
-180.952757
 31
0.0
  0
LINE
  8
DETAIL
  6
CONTINUOUS
 62
     5
 10
-252.5
 20
-190.552757
 30
0.0
 11
-252.5
 21
-180.952757
 31
0.0
  0
LINE
  8
DETAIL
  6
CONTINUOUS
 62
     5
 10
-253.3
 20
-178.252757
 30
0.0
 11
-254.8
 21
-178.252757
 31
0.0
  0
ARC
  8
DETAIL
  6
CONTINUOUS
 62
     5
 10
-253.7
 20
-180.952757
 30
0.0
 40
1.2
 50
0.0
 51
90.0
  0
ARC
  8
DETAIL
  6
CONTINUOUS
 62
     5
 10
-253.7
 20
-180.952757
 30
0.0
 40
0.4
 50
0.0
 51
90.0
  0
LINE
  8
DETAIL
  6
CONTINUOUS
 62
     5
 10
-254.8
 20
-179.752757
 30
0.0
 11
-254.8
 21
-178.252757
 31
0.0
  0
LINE
  8
DETAIL
  6
CONTINUOUS
 62
     5
 10
-253.3
 20
-179.539427
 30
0.0
 11
-253.3
 21
-159.539427
 31
0.0
  0
LINE
  8
DETAIL
  6
CONTINUOUS
 62
     5
 10
-253.3
 20
-179.539427
 30
0.0
 11
-252.5
 21
-179.539427
 31
0.0
  0
LINE
  8
DETAIL
  6
CONTINUOUS
 62
     5
 10
-252.5
 20
-179.539427
 30
0.0
 11
-252.5
 21
-159.539427
 31
0.0
  0
LINE
  8
DETAIL
  6
CONTINUOUS
 62
     5
 10
-251.7
 20
-162.239427
 30
0.0
 11
-251.7
 21
-162.639427
 31
0.0
  0
LINE
  8
DETAIL
  6
CONTINUOUS
 62
     5
 10
-252.5
 20
-162.639427
 30
0.0
 11
-237.5
 21
-162.639427
 31
0.0
  0
ARC
  8
DETAIL
  6
CONTINUOUS
 62
     5
 10
-251.3
 20
-162.239427
 30
0.0
 40
1.2
 50
90.0
 51
180.0
  0
ARC
  8
DETAIL
  6
CONTINUOUS
 62
     5
 10
-251.3
 20
-162.239427
 30
0.0
 40
0.4
 50
90.0
 51
180.0
  0
LINE
  8
DETAIL
  6
CONTINUOUS
 62
     5
 10
-251.3
 20
-162.639427
 30
0.0
 11
-251.3
 21
-159.539427
 31
0.0
  0
LINE
  8
DETAIL
  6
CONTINUOUS
 62
     5
 10
-252.5
 20
-190.552757
 30
0.0
 11
-253.3
 21
-190.552757
 31
0.0
  0
ARC
  8
DETAIL
  6
CONTINUOUS
 62
     5
 10
242.9
 20
518.560573
 30
0.0
 40
6.1
 50
67.054814
 51
131.05335
  0
LINE
  8
DETAIL
  6
CONTINUOUS
 62
     5
 10
320.0
 20
523.160573
 30
0.0
 11
235.94849
 21
523.160573
 31
0.0
  0
LINE
  8
DETAIL
  6
CONTINUOUS
 62
     5
 10
250.3
 20
520.160573
 30
0.0
 11
233.9
 21
520.160573
 31
0.0
  0
LINE
  8
DETAIL
  6
CONTINUOUS
 62
     5
 10
262.5
 20
521.160573
 30
0.0
 11
235.94849
 21
521.160573
 31
0.0
  0
LINE
  8
DETAIL
  6
CONTINUOUS
 62
     5
 10
251.3
 20
520.160573
 30
0.0
 11
234.5
 21
520.160573
 31
0.0
  0
LINE
  8
DETAIL
  6
CONTINUOUS
 62
     5
 10
251.3
 20
519.360573
 30
0.0
 11
234.5
 21
519.360573
 31
0.0
  0
LINE
  8
DETAIL
  6
CONTINUOUS
 62
     5
 10
252.5
 20
518.560573
 30
0.0
 11
237.5
 21
518.560573
 31
0.0
  0
LINE
  8
DETAIL
  6
CONTINUOUS
 62
     5
 10
121.0
 20
590.160573
 30
0.0
 11
129.0
 21
522.760573
 31
0.0
  0
LINE
  8
DETAIL
  6
CONTINUOUS
 62
     5
 10
142.5
 20
520.760573
 30
0.0
 11
142.5
 21
520.160573
 31
0.0
  0
ARC
  8
DETAIL
  6
CONTINUOUS
 62
     5
 10
131.0
 20
522.760573
 30
0.0
 40
2.0
 50
180.0
 51
270.0
  0
LINE
  8
DETAIL
  6
CONTINUOUS
 62
     5
 10
142.5
 20
520.160573
 30
0.0
 11
142.5
 21
520.760573
 31
0.0
  0
LINE
  8
DETAIL
  6
CONTINUOUS
 62
     5
 10
233.9
 20
520.160573
 30
0.0
 11
233.9
 21
522.160573
 31
0.0
  0
LINE
  8
DETAIL
  6
CONTINUOUS
 62
     5
 10
235.94849
 20
521.160573
 30
0.0
 11
235.94849
 21
523.160573
 31
0.0
  0
LINE
  8
DETAIL
  6
CONTINUOUS
 62
     5
 10
235.94849
 20
522.160573
 30
0.0
 11
233.9
 21
522.160573
 31
0.0
  0
LINE
  8
DETAIL
  6
CONTINUOUS
 62
     5
 10
234.5
 20
520.160573
 30
0.0
 11
234.5
 21
519.360573
 31
0.0
  0
LINE
  8
DETAIL
  6
CONTINUOUS
 62
     5
 10
237.5
 20
518.560573
 30
0.0
 11
234.5
 21
515.560573
 31
0.0
  0
LINE
  8
DETAIL
  6
DASHED
 62
     5
 10
243.74872
 20
518.560573
 30
0.0
 11
242.05129
 21
518.560573
 31
0.0
  0
LINE
  8
DETAIL
  6
CONTINUOUS
 62
     5
 10
213.8
 20
325.760573
 30
0.0
 11
206.8
 21
325.760573
 31
0.0
  0
LINE
  8
DETAIL
  6
CONTINUOUS
 62
     5
 10
213.8
 20
312.560573
 30
0.0
 11
206.8
 21
312.560573
 31
0.0
  0
LINE
  8
DETAIL
  6
CONTINUOUS
 62
     5
 10
179.8
 20
315.660573
 30
0.0
 11
213.8
 21
315.660573
 31
0.0
  0
LINE
  8
DETAIL
  6
CONTINUOUS
 62
     5
 10
213.8
 20
322.660573
 30
0.0
 11
179.8
 21
322.660573
 31
0.0
  0
LINE
  8
DETAIL
  6
CONTINUOUS
 62
     5
 10
223.3
 20
316.660573
 30
0.0
 11
179.8
 21
316.660573
 31
0.0
  0
LINE
  8
DETAIL
  6
CONTINUOUS
 62
     5
 10
223.3
 20
321.660573
 30
0.0
 11
179.8
 21
321.660573
 31
0.0
  0
LINE
  8
DETAIL
  6
CONTINUOUS
 62
     5
 10
206.8
 20
325.760573
 30
0.0
 11
179.8
 21
323.660573
 31
0.0
  0
LINE
  8
DETAIL
  6
CONTINUOUS
 62
     5
 10
206.8
 20
312.560573
 30
0.0
 11
179.8
 21
314.660573
 31
0.0
  0
LINE
  8
DETAIL
  6
CONTINUOUS
 62
     5
 10
179.8
 20
314.660573
 30
0.0
 11
179.8
 21
316.660573
 31
0.0
  0
LINE
  8
DETAIL
  6
CONTINUOUS
 62
     5
 10
179.8
 20
323.660573
 30
0.0
 11
179.8
 21
321.660573
 31
0.0
  0
LINE
  8
DETAIL
  6
CONTINUOUS
 62
     5
 10
213.8
 20
315.660573
 30
0.0
 11
213.8
 21
311.660573
 31
0.0
  0
LINE
  8
DETAIL
  6
CONTINUOUS
 62
     5
 10
213.8
 20
322.660573
 30
0.0
 11
213.8
 21
326.660573
 31
0.0
  0
LINE
  8
DETAIL
  6
CONTINUOUS
 62
     5
 10
223.3
 20
316.660573
 30
0.0
 11
223.3
 21
311.660573
 31
0.0
  0
LINE
  8
DETAIL
  6
CONTINUOUS
 62
     5
 10
223.3
 20
321.660573
 30
0.0
 11
223.3
 21
326.660573
 31
0.0
  0
LINE
  8
DETAIL
  6
CONTINUOUS
 62
     5
 10
213.8
 20
311.660573
 30
0.0
 11
213.8
 21
313.660573
 31
0.0
  0
LINE
  8
DETAIL
  6
CONTINUOUS
 62
     5
 10
223.3
 20
311.660573
 30
0.0
 11
213.8
 21
311.660573
 31
0.0
  0
LINE
  8
DETAIL
  6
CONTINUOUS
 62
     5
 10
213.8
 20
326.660573
 30
0.0
 11
213.8
 21
324.660573
 31
0.0
  0
LINE
  8
DETAIL
  6
CONTINUOUS
 62
     5
 10
223.3
 20
326.660573
 30
0.0
 11
213.8
 21
326.660573
 31
0.0
  0
LINE
  8
DETAIL
  6
CONTINUOUS
 62
     5
 10
305.5
 20
502.560573
 30
0.0
 11
305.5
 21
482.160573
 31
0.0
  0
LINE
  8
DETAIL
  6
CONTINUOUS
 62
     5
 10
294.5
 20
502.560573
 30
0.0
 11
294.5
 21
482.160573
 31
0.0
  0
LINE
  8
DETAIL
  6
CONTINUOUS
 62
     5
 10
320.0
 20
523.160573
 30
0.0
 11
320.0
 21
482.160573
 31
0.0
  0
LINE
  8
DETAIL
  6
CONTINUOUS
 62
     5
 10
252.5
 20
517.660573
 30
0.0
 11
252.5
 21
486.160573
 31
0.0
  0
LINE
  8
NOTE
  6
CENTER
 62
     4
 10
300.0
 20
481.560573
 30
0.0
 11
300.0
 21
522.560573
 31
0.0
  0
LINE
  8
NOTE
  6
CENTER
 62
     4
 10
320.5
 20
502.160573
 30
0.0
 11
278.9
 21
502.160573
 31
0.0
  0
LINE
  8
DETAIL
  6
CONTINUOUS
 62
     5
 10
276.7
 20
525.160573
 30
0.0
 11
247.0
 21
525.160573
 31
0.0
  0
ARC
  8
DETAIL
  6
CONTINUOUS
 62
     5
 10
250.3
 20
521.160573
 30
0.0
 40
1.0
 50
270.0
 51
0.0
  0
LINE
  8
DETAIL
  6
CONTINUOUS
 62
     5
 10
262.5
 20
517.660573
 30
0.0
 11
252.5
 21
517.660573
 31
0.0
  0
LINE
  8
DETAIL
  6
CONTINUOUS
 62
     5
 10
262.5
 20
521.160573
 30
0.0
 11
262.5
 21
517.660573
 31
0.0
  0
ARC
  8
DETAIL
  6
CONTINUOUS
 62
     5
 10
247.0
 20
523.160573
 30
0.0
 40
2.0
 50
90.0
 51
180.0
  0
ARC
  8
DETAIL
  6
CONTINUOUS
 62
     5
 10
251.3
 20
518.960573
 30
0.0
 40
0.4
 50
0.0
 51
90.0
  0
ARC
  8
DETAIL
  6
CONTINUOUS
 62
     5
 10
251.3
 20
518.960573
 30
0.0
 40
1.2
 50
0.0
 51
90.0
  0
LINE
  8
DETAIL
  6
CONTINUOUS
 62
     5
 10
251.7
 20
518.560573
 30
0.0
 11
251.7
 21
518.960573
 31
0.0
  0
LINE
  8
DETAIL
  6
CONTINUOUS
 62
     5
 10
251.3
 20
518.560573
 30
0.0
 11
251.3
 21
519.360573
 31
0.0
  0
LINE
  8
DETAIL
  6
DASHED
 62
     5
 10
247.60011
 20
518.560573
 30
0.0
 11
248.88379
 21
518.560573
 31
0.0
  0
LINE
  8
DETAIL
  6
CONTINUOUS
 62
     5
 10
286.0
 20
518.160573
 30
0.0
 11
286.0
 21
523.160573
 31
0.0
  0
LINE
  8
DETAIL
  6
CONTINUOUS
 62
     5
 10
286.0
 20
518.160573
 30
0.0
 11
288.88676
 21
523.160573
 31
0.0
  0
LINE
  8
DETAIL
  6
CONTINUOUS
 62
     5
 10
286.0
 20
518.160573
 30
0.0
 11
283.11325
 21
523.160573
 31
0.0
  0
ARC
  8
DETAIL
  6
CONTINUOUS
 62
     5
 10
300.0
 20
502.560573
 30
0.0
 40
5.5
 50
0.0
 51
180.0
  0
ARC
  8
DETAIL
  6
CONTINUOUS
 62
     5
 10
276.7
 20
523.160573
 30
0.0
 40
2.0
 50
0.0
 51
90.0
  0
LINE
  8
DETAIL
  6
CONTINUOUS
 62
     5
 10
314.0
 20
518.160573
 30
0.0
 11
314.0
 21
523.160573
 31
0.0
  0
LINE
  8
DETAIL
  6
CONTINUOUS
 62
     5
 10
314.0
 20
518.160573
 30
0.0
 11
311.11325
 21
523.160573
 31
0.0
  0
LINE
  8
DETAIL
  6
CONTINUOUS
 62
     5
 10
314.0
 20
518.160573
 30
0.0
 11
316.88676
 21
523.160573
 31
0.0
  0
LINE
  8
DETAIL
  6
CONTINUOUS
 62
     5
 10
320.0
 20
482.160573
 30
0.0
 11
305.5
 21
482.160573
 31
0.0
  0
LINE
  8
DETAIL
  6
CONTINUOUS
 62
     5
 10
294.5
 20
482.160573
 30
0.0
 11
256.5
 21
482.160573
 31
0.0
  0
LINE
  8
DETAIL
  6
CONTINUOUS
 62
     5
 10
256.5
 20
486.160573
 30
0.0
 11
252.5
 21
486.160573
 31
0.0
  0
LINE
  8
DETAIL
  6
CONTINUOUS
 62
     5
 10
256.5
 20
486.160573
 30
0.0
 11
256.5
 21
482.160573
 31
0.0
  0
LINE
  8
DETAIL
  6
CONTINUOUS
 62
     5
 10
121.0
 20
-590.839427
 30
0.0
 11
0.0
 21
-590.839427
 31
0.0
  0
LINE
  8
DETAIL
  6
CONTINUOUS
 62
     5
 10
0.0
 20
-521.439427
 30
0.0
 11
142.5
 21
-521.439427
 31
0.0
  0
LINE
  8
DETAIL
  6
CONTINUOUS
 62
     5
 10
142.5
 20
-520.839427
 30
0.0
 11
0.0
 21
-520.839427
 31
0.0
  0
LINE
  8
DETAIL
  6
CONTINUOUS
 62
     5
 10
118.4
 20
-605.839427
 30
0.0
 11
0.0
 21
-605.839427
 31
0.0
  0
LINE
  8
DETAIL
  6
CONTINUOUS
 62
     5
 10
228.3
 20
-502.039427
 30
0.0
 11
-228.3
 21
-502.039427
 31
0.0
  0
LINE
  8
DETAIL
  6
CONTINUOUS
 62
     5
 10
251.3
 20
-520.839427
 30
0.0
 11
-251.3
 21
-520.839427
 31
0.0
  0
LINE
  8
DETAIL
  6
DIVIDE
 62
     5
 10
-252.5
 20
-518.339427
 30
0.0
 11
-252.5
 21
-486.839427
 31
0.0
  0
LINE
  8
DETAIL
  6
CONTINUOUS
 62
     5
 10
-305.5
 20
-502.539427
 30
0.0
 11
-305.5
 21
-482.839427
 31
0.0
  0
LINE
  8
DETAIL
  6
CONTINUOUS
 62
     5
 10
-294.5
 20
-502.539427
 30
0.0
 11
-294.5
 21
-482.839427
 31
0.0
  0
LINE
  8
DETAIL
  6
CONTINUOUS
 62
     5
 10
-320.0
 20
-523.839427
 30
0.0
 11
-320.0
 21
-482.839427
 31
0.0
  0
LINE
  8
DETAIL
  6
CONTINUOUS
 62
     5
 10
-252.5
 20
-518.339427
 30
0.0
 11
-252.5
 21
-486.839427
 31
0.0
  0
LINE
  8
NOTE
  6
CENTER
 62
     4
 10
-300.0
 20
-523.639427
 30
0.0
 11
-300.0
 21
-482.639427
 31
0.0
  0
LINE
  8
DETAIL
  6
CONTINUOUS
 62
     5
 10
-320.0
 20
-482.839427
 30
0.0
 11
-305.5
 21
-482.839427
 31
0.0
  0
LINE
  8
DETAIL
  6
CONTINUOUS
 62
     5
 10
-294.5
 20
-482.839427
 30
0.0
 11
-256.5
 21
-482.839427
 31
0.0
  0
LINE
  8
DETAIL
  6
CONTINUOUS
 62
     5
 10
-256.5
 20
-486.839427
 30
0.0
 11
-252.5
 21
-486.839427
 31
0.0
  0
LINE
  8
DETAIL
  6
CONTINUOUS
 62
     5
 10
-256.5
 20
-486.839427
 30
0.0
 11
-256.5
 21
-482.839427
 31
0.0
  0
ARC
  8
DETAIL
  6
CONTINUOUS
 62
     5
 10
-300.0
 20
-502.539427
 30
0.0
 40
5.5
 50
180.0
 51
0.0
  0
LINE
  8
DETAIL
  6
CONTINUOUS
 62
     5
 10
-320.0
 20
-523.839427
 30
0.0
 11
-235.94848
 21
-523.839427
 31
0.0
  0
LINE
  8
NOTE
  6
CENTER
 62
     4
 10
-279.5
 20
-502.839427
 30
0.0
 11
-320.5
 21
-502.839427
 31
0.0
  0
LINE
  8
DETAIL
  6
CONTINUOUS
 62
     5
 10
-314.0
 20
-518.839427
 30
0.0
 11
-314.0
 21
-523.839427
 31
0.0
  0
LINE
  8
DETAIL
  6
CONTINUOUS
 62
     5
 10
-314.0
 20
-518.839427
 30
0.0
 11
-311.11324
 21
-523.839427
 31
0.0
  0
LINE
  8
DETAIL
  6
CONTINUOUS
 62
     5
 10
-314.0
 20
-518.839427
 30
0.0
 11
-316.88675
 21
-523.839427
 31
0.0
  0
LINE
  8
DETAIL
  6
CONTINUOUS
 62
     5
 10
-250.3
 20
-520.839427
 30
0.0
 11
-233.9
 21
-520.839427
 31
0.0
  0
LINE
  8
DETAIL
  6
CONTINUOUS
 62
     5
 10
-262.5
 20
-521.839427
 30
0.0
 11
-235.94848
 21
-521.839427
 31
0.0
  0
LINE
  8
DETAIL
  6
CONTINUOUS
 62
     5
 10
-231.3
 20
-519.239427
 30
0.0
 11
-251.3
 21
-519.239427
 31
0.0
  0
LINE
  8
DETAIL
  6
DASHED
 62
     5
 10
-238.19989
 20
-519.239427
 30
0.0
 11
-236.91621
 21
-519.239427
 31
0.0
  0
LINE
  8
DETAIL
  6
CONTINUOUS
 62
     5
 10
-237.5
 20
-519.239427
 30
0.0
 11
-234.5
 21
-516.239427
 31
0.0
  0
LINE
  8
DETAIL
  6
CONTINUOUS
 62
     5
 10
-251.3
 20
-520.039427
 30
0.0
 11
-234.5
 21
-520.039427
 31
0.0
  0
LINE
  8
DETAIL
  6
CONTINUOUS
 62
     5
 10
-251.3
 20
-520.839427
 30
0.0
 11
-234.5
 21
-520.839427
 31
0.0
  0
LINE
  8
DETAIL
  6
CONTINUOUS
 62
     5
 10
-276.7
 20
-525.839427
 30
0.0
 11
-247.0
 21
-525.839427
 31
0.0
  0
LINE
  8
DETAIL
  6
CONTINUOUS
 62
     5
 10
-286.0
 20
-518.839427
 30
0.0
 11
-286.0
 21
-523.839427
 31
0.0
  0
LINE
  8
DETAIL
  6
CONTINUOUS
 62
     5
 10
-286.0
 20
-518.839427
 30
0.0
 11
-288.88675
 21
-523.839427
 31
0.0
  0
LINE
  8
DETAIL
  6
CONTINUOUS
 62
     5
 10
-286.0
 20
-518.839427
 30
0.0
 11
-283.11324
 21
-523.839427
 31
0.0
  0
ARC
  8
DETAIL
  6
CONTINUOUS
 62
     5
 10
-276.7
 20
-523.839427
 30
0.0
 40
2.0
 50
180.0
 51
270.0
  0
CIRCLE
  8
DETAIL
  6
CONTINUOUS
 62
     5
 10
-243.5
 20
-502.539427
 30
0.0
 40
4.7
  0
LINE
  8
DETAIL
  6
CONTINUOUS
 62
     5
 10
-242.01507
 20
-504.024357
 30
0.0
 11
-244.98492
 21
-501.054497
 31
0.0
  0
LINE
  8
DETAIL
  6
CONTINUOUS
 62
     5
 10
-242.01507
 20
-501.054507
 30
0.0
 11
-244.98492
 21
-504.024347
 31
0.0
  0
ARC
  8
DETAIL
  6
CONTINUOUS
 62
     5
 10
-242.9
 20
-519.239427
 30
0.0
 40
6.1
 50
247.054814
 51
311.05335
  0
ARC
  8
DETAIL
  6
CONTINUOUS
 62
     5
 10
-250.3
 20
-521.839427
 30
0.0
 40
1.0
 50
90.0
 51
180.0
  0
LINE
  8
DETAIL
  6
CONTINUOUS
 62
     5
 10
-262.5
 20
-518.339427
 30
0.0
 11
-252.5
 21
-518.339427
 31
0.0
  0
LINE
  8
DETAIL
  6
CONTINUOUS
 62
     5
 10
-262.5
 20
-521.839427
 30
0.0
 11
-262.5
 21
-518.339427
 31
0.0
  0
ARC
  8
DETAIL
  6
CONTINUOUS
 62
     5
 10
-247.0
 20
-523.839427
 30
0.0
 40
2.0
 50
270.0
 51
0.0
  0
LINE
  8
DETAIL
  6
CONTINUOUS
 62
     5
 10
-251.3
 20
-520.039427
 30
0.0
 11
-251.3
 21
-519.239427
 31
0.0
  0
LINE
  8
DETAIL
  6
CONTINUOUS
 62
     5
 10
-248.3
 20
-520.039427
 30
0.0
 11
-248.3
 21
-519.239427
 31
0.0
  0
LINE
  8
DETAIL
  6
DASHED
 62
     5
 10
-247.6001
 20
-519.239427
 30
0.0
 11
-248.88378
 21
-519.239427
 31
0.0
  0
LINE
  8
DETAIL
  6
DASHED
 62
     5
 10
-242.05128
 20
-519.239427
 30
0.0
 11
-243.74871
 21
-519.239427
 31
0.0
  0
LINE
  8
DETAIL
  6
CONTINUOUS
 62
     5
 10
-251.7
 20
-519.239427
 30
0.0
 11
-251.7
 21
-519.639427
 31
0.0
  0
LINE
  8
DETAIL
  6
CONTINUOUS
 62
     5
 10
-252.5
 20
-519.239427
 30
0.0
 11
-237.5
 21
-519.239427
 31
0.0
  0
ARC
  8
DETAIL
  6
CONTINUOUS
 62
     5
 10
-251.3
 20
-519.639427
 30
0.0
 40
0.4
 50
180.0
 51
270.0
  0
ARC
  8
DETAIL
  6
CONTINUOUS
 62
     5
 10
-251.3
 20
-519.639427
 30
0.0
 40
1.2
 50
180.0
 51
270.0
  0
LINE
  8
DETAIL
  6
CONTINUOUS
 62
     5
 10
-231.3
 20
-520.839427
 30
0.0
 11
-231.3
 21
-505.039427
 31
0.0
  0
LINE
  8
DETAIL
  6
CONTINUOUS
 62
     5
 10
-231.3
 20
-505.039427
 30
0.0
 11
-228.3
 21
-502.039427
 31
0.0
  0
LINE
  8
DETAIL
  6
CONTINUOUS
 62
     5
 10
-233.9
 20
-520.839427
 30
0.0
 11
-233.9
 21
-522.839427
 31
0.0
  0
LINE
  8
DETAIL
  6
CONTINUOUS
 62
     5
 10
-235.94848
 20
-521.839427
 30
0.0
 11
-235.94848
 21
-523.839427
 31
0.0
  0
LINE
  8
DETAIL
  6
CONTINUOUS
 62
     5
 10
-235.94848
 20
-522.839427
 30
0.0
 11
-233.9
 21
-522.839427
 31
0.0
  0
LINE
  8
DETAIL
  6
CONTINUOUS
 62
     5
 10
-234.5
 20
-520.839427
 30
0.0
 11
-234.5
 21
-520.039427
 31
0.0
  0
LINE
  8
DETAIL
  6
CONTINUOUS
 62
     5
 10
-231.3
 20
-518.439427
 30
0.0
 11
-236.7
 21
-518.439427
 31
0.0
  0
LINE
  8
DETAIL
  6
CONTINUOUS
 62
     5
 10
-142.5
 20
-520.839427
 30
0.0
 11
0.0
 21
-520.839427
 31
0.0
  0
LINE
  8
DETAIL
  6
CONTINUOUS
 62
     5
 10
-118.4
 20
-605.839427
 30
0.0
 11
0.0
 21
-605.839427
 31
0.0
  0
LINE
  8
DETAIL
  6
CONTINUOUS
 62
     5
 10
-121.0
 20
-590.839427
 30
0.0
 11
0.0
 21
-590.839427
 31
0.0
  0
LINE
  8
DETAIL
  6
CONTINUOUS
 62
     5
 10
0.0
 20
-521.439427
 30
0.0
 11
-142.5
 21
-521.439427
 31
0.0
  0
LINE
  8
DETAIL
  6
CONTINUOUS
 62
     5
 10
-121.0
 20
-590.839427
 30
0.0
 11
-129.0
 21
-523.439427
 31
0.0
  0
ARC
  8
DETAIL
  6
CONTINUOUS
 62
     5
 10
-131.0
 20
-523.439427
 30
0.0
 40
2.0
 50
0.0
 51
90.0
  0
LINE
  8
DETAIL
  6
CONTINUOUS
 62
     5
 10
-142.5
 20
-520.839427
 30
0.0
 11
-142.5
 21
-521.439427
 31
0.0
  0
ARC
  8
DETAIL
  6
CONTINUOUS
 62
     5
 10
-118.4
 20
-603.239427
 30
0.0
 40
2.6
 50
180.0
 51
270.0
  0
LINE
  8
DETAIL
  6
CONTINUOUS
 62
     5
 10
-121.0
 20
-603.239427
 30
0.0
 11
-121.0
 21
-590.839427
 31
0.0
  0
LINE
  8
DETAIL
  6
CONTINUOUS
 62
     5
 10
305.5
 20
-502.839427
 30
0.0
 11
305.5
 21
-482.839427
 31
0.0
  0
LINE
  8
DETAIL
  6
CONTINUOUS
 62
     5
 10
294.5
 20
-502.839427
 30
0.0
 11
294.5
 21
-482.839427
 31
0.0
  0
LINE
  8
DETAIL
  6
CONTINUOUS
 62
     5
 10
320.0
 20
-523.839427
 30
0.0
 11
320.0
 21
-482.839427
 31
0.0
  0
LINE
  8
DETAIL
  6
CONTINUOUS
 62
     5
 10
252.5
 20
-518.339427
 30
0.0
 11
252.5
 21
-486.839427
 31
0.0
  0
LINE
  8
NOTE
  6
CENTER
 62
     4
 10
300.0
 20
-523.639427
 30
0.0
 11
300.0
 21
-482.639427
 31
0.0
  0
LINE
  8
DETAIL
  6
CONTINUOUS
 62
     5
 10
320.0
 20
-482.839427
 30
0.0
 11
305.5
 21
-482.839427
 31
0.0
  0
LINE
  8
DETAIL
  6
CONTINUOUS
 62
     5
 10
294.5
 20
-482.839427
 30
0.0
 11
256.5
 21
-482.839427
 31
0.0
  0
LINE
  8
DETAIL
  6
CONTINUOUS
 62
     5
 10
256.5
 20
-486.839427
 30
0.0
 11
252.5
 21
-486.839427
 31
0.0
  0
LINE
  8
DETAIL
  6
CONTINUOUS
 62
     5
 10
256.5
 20
-486.839427
 30
0.0
 11
256.5
 21
-482.839427
 31
0.0
  0
ARC
  8
DETAIL
  6
CONTINUOUS
 62
     5
 10
242.9
 20
-519.239427
 30
0.0
 40
6.1
 50
228.94665
 51
292.945186
  0
LINE
  8
DETAIL
  6
CONTINUOUS
 62
     5
 10
320.0
 20
-523.839427
 30
0.0
 11
235.94849
 21
-523.839427
 31
0.0
  0
LINE
  8
DETAIL
  6
CONTINUOUS
 62
     5
 10
250.3
 20
-520.839427
 30
0.0
 11
233.9
 21
-520.839427
 31
0.0
  0
LINE
  8
DETAIL
  6
CONTINUOUS
 62
     5
 10
262.5
 20
-521.839427
 30
0.0
 11
235.94849
 21
-521.839427
 31
0.0
  0
LINE
  8
DETAIL
  6
CONTINUOUS
 62
     5
 10
251.3
 20
-519.239427
 30
0.0
 11
231.3
 21
-519.239427
 31
0.0
  0
LINE
  8
DETAIL
  6
CONTINUOUS
 62
     5
 10
252.5
 20
-519.239427
 30
0.0
 11
237.5
 21
-519.239427
 31
0.0
  0
LINE
  8
DETAIL
  6
CONTINUOUS
 62
     5
 10
251.3
 20
-520.839427
 30
0.0
 11
234.5
 21
-520.839427
 31
0.0
  0
LINE
  8
DETAIL
  6
CONTINUOUS
 62
     5
 10
251.3
 20
-520.039427
 30
0.0
 11
234.5
 21
-520.039427
 31
0.0
  0
LINE
  8
DETAIL
  6
CONTINUOUS
 62
     5
 10
121.0
 20
-590.839427
 30
0.0
 11
129.0
 21
-523.439427
 31
0.0
  0
ARC
  8
DETAIL
  6
CONTINUOUS
 62
     5
 10
131.0
 20
-523.439427
 30
0.0
 40
2.0
 50
90.0
 51
180.0
  0
LINE
  8
DETAIL
  6
CONTINUOUS
 62
     5
 10
142.5
 20
-520.839427
 30
0.0
 11
142.5
 21
-521.439427
 31
0.0
  0
LINE
  8
DETAIL
  6
CONTINUOUS
 62
     5
 10
231.3
 20
-520.039427
 30
0.0
 11
231.3
 21
-505.039427
 31
0.0
  0
LINE
  8
DETAIL
  6
CONTINUOUS
 62
     5
 10
231.3
 20
-505.039427
 30
0.0
 11
228.3
 21
-502.039427
 31
0.0
  0
LINE
  8
DETAIL
  6
CONTINUOUS
 62
     5
 10
233.9
 20
-520.839427
 30
0.0
 11
233.9
 21
-522.839427
 31
0.0
  0
LINE
  8
DETAIL
  6
CONTINUOUS
 62
     5
 10
235.94849
 20
-521.839427
 30
0.0
 11
235.94849
 21
-523.839427
 31
0.0
  0
LINE
  8
DETAIL
  6
CONTINUOUS
 62
     5
 10
235.94849
 20
-522.839427
 30
0.0
 11
233.9
 21
-522.839427
 31
0.0
  0
LINE
  8
DETAIL
  6
DASHED
 62
     5
 10
238.1999
 20
-519.239427
 30
0.0
 11
236.91622
 21
-519.239427
 31
0.0
  0
LINE
  8
DETAIL
  6
DASHED
 62
     5
 10
243.74872
 20
-519.239427
 30
0.0
 11
242.05129
 21
-519.239427
 31
0.0
  0
LINE
  8
DETAIL
  6
CONTINUOUS
 62
     5
 10
234.5
 20
-516.239427
 30
0.0
 11
237.5
 21
-519.239427
 31
0.0
  0
LINE
  8
DETAIL
  6
CONTINUOUS
 62
     5
 10
234.5
 20
-520.839427
 30
0.0
 11
234.5
 21
-520.039427
 31
0.0
  0
LINE
  8
DETAIL
  6
CONTINUOUS
 62
     5
 10
121.0
 20
-603.239427
 30
0.0
 11
121.0
 21
-590.839427
 31
0.0
  0
ARC
  8
DETAIL
  6
CONTINUOUS
 62
     5
 10
118.4
 20
-603.239427
 30
0.0
 40
2.6
 50
270.0
 51
0.0
  0
LINE
  8
NOTE
  6
CENTER
 62
     4
 10
320.5
 20
-502.839427
 30
0.0
 11
278.9
 21
-502.839427
 31
0.0
  0
LINE
  8
DETAIL
  6
CONTINUOUS
 62
     5
 10
276.7
 20
-525.839427
 30
0.0
 11
247.0
 21
-525.839427
 31
0.0
  0
ARC
  8
DETAIL
  6
CONTINUOUS
 62
     5
 10
250.3
 20
-521.839427
 30
0.0
 40
1.0
 50
0.0
 51
90.0
  0
LINE
  8
DETAIL
  6
CONTINUOUS
 62
     5
 10
262.5
 20
-518.339427
 30
0.0
 11
252.5
 21
-518.339427
 31
0.0
  0
LINE
  8
DETAIL
  6
CONTINUOUS
 62
     5
 10
262.5
 20
-521.839427
 30
0.0
 11
262.5
 21
-518.339427
 31
0.0
  0
ARC
  8
DETAIL
  6
CONTINUOUS
 62
     5
 10
247.0
 20
-523.839427
 30
0.0
 40
2.0
 50
180.0
 51
270.0
  0
LINE
  8
DETAIL
  6
CONTINUOUS
 62
     5
 10
251.3
 20
-520.039427
 30
0.0
 11
251.3
 21
-519.239427
 31
0.0
  0
LINE
  8
DETAIL
  6
CONTINUOUS
 62
     5
 10
248.3
 20
-520.039427
 30
0.0
 11
248.3
 21
-519.239427
 31
0.0
  0
LINE
  8
DETAIL
  6
DASHED
 62
     5
 10
247.60011
 20
-519.239427
 30
0.0
 11
248.88379
 21
-519.239427
 31
0.0
  0
ARC
  8
DETAIL
  6
CONTINUOUS
 62
     5
 10
251.3
 20
-519.639427
 30
0.0
 40
1.2
 50
270.0
 51
0.0
  0
ARC
  8
DETAIL
  6
CONTINUOUS
 62
     5
 10
251.3
 20
-519.639427
 30
0.0
 40
0.4
 50
270.0
 51
0.0
  0
LINE
  8
DETAIL
  6
CONTINUOUS
 62
     5
 10
251.7
 20
-519.639427
 30
0.0
 11
251.7
 21
-519.239427
 31
0.0
  0
ARC
  8
DETAIL
  6
CONTINUOUS
 62
     5
 10
300.0
 20
-502.839427
 30
0.0
 40
5.5
 50
180.0
 51
0.0
  0
LINE
  8
DETAIL
  6
CONTINUOUS
 62
     5
 10
286.0
 20
-518.839427
 30
0.0
 11
286.0
 21
-523.839427
 31
0.0
  0
LINE
  8
DETAIL
  6
CONTINUOUS
 62
     5
 10
286.0
 20
-518.839427
 30
0.0
 11
288.88676
 21
-523.839427
 31
0.0
  0
LINE
  8
DETAIL
  6
CONTINUOUS
 62
     5
 10
286.0
 20
-518.839427
 30
0.0
 11
283.11325
 21
-523.839427
 31
0.0
  0
ARC
  8
DETAIL
  6
CONTINUOUS
 62
     5
 10
276.7
 20
-523.839427
 30
0.0
 40
2.0
 50
270.0
 51
0.0
  0
LINE
  8
DETAIL
  6
CONTINUOUS
 62
     5
 10
314.0
 20
-518.839427
 30
0.0
 11
314.0
 21
-523.839427
 31
0.0
  0
LINE
  8
DETAIL
  6
CONTINUOUS
 62
     5
 10
314.0
 20
-518.839427
 30
0.0
 11
311.11325
 21
-523.839427
 31
0.0
  0
LINE
  8
DETAIL
  6
CONTINUOUS
 62
     5
 10
314.0
 20
-518.839427
 30
0.0
 11
316.88676
 21
-523.839427
 31
0.0
  0
LINE
  8
DETAIL
  6
CONTINUOUS
 62
     5
 10
221.484926
 20
-510.354506
 30
0.0
 11
218.515074
 21
-513.324348
 31
0.0
  0
LINE
  8
DETAIL
  6
CONTINUOUS
 62
     5
 10
221.484921
 20
-513.324353
 30
0.0
 11
218.515079
 21
-510.354501
 31
0.0
  0
CIRCLE
  8
DETAIL
  6
CONTINUOUS
 62
     5
 10
220.0
 20
-511.839427
 30
0.0
 40
4.7
  0
LINE
  8
DETAIL
  6
CONTINUOUS
 62
     5
 10
244.984926
 20
-268.854506
 30
0.0
 11
242.015074
 21
-271.824348
 31
0.0
  0
LINE
  8
DETAIL
  6
CONTINUOUS
 62
     5
 10
244.984921
 20
-271.824353
 30
0.0
 11
242.015079
 21
-268.854501
 31
0.0
  0
CIRCLE
  8
DETAIL
  6
CONTINUOUS
 62
     5
 10
243.5
 20
-270.339427
 30
0.0
 40
4.7
  0
LINE
  8
DETAIL
  6
CONTINUOUS
 62
     5
 10
244.984926
 20
-487.854506
 30
0.0
 11
242.015074
 21
-490.824348
 31
0.0
  0
LINE
  8
DETAIL
  6
CONTINUOUS
 62
     5
 10
244.984921
 20
-490.824353
 30
0.0
 11
242.015079
 21
-487.854501
 31
0.0
  0
CIRCLE
  8
DETAIL
  6
CONTINUOUS
 62
     5
 10
243.5
 20
-489.339427
 30
0.0
 40
4.7
  0
LINE
  8
DETAIL
  6
CONTINUOUS
 62
     5
 10
73.984926
 20
-510.354506
 30
0.0
 11
71.015074
 21
-513.324348
 31
0.0
  0
LINE
  8
DETAIL
  6
CONTINUOUS
 62
     5
 10
73.984921
 20
-513.324353
 30
0.0
 11
71.015079
 21
-510.354501
 31
0.0
  0
CIRCLE
  8
DETAIL
  6
CONTINUOUS
 62
     5
 10
72.5
 20
-511.839427
 30
0.0
 40
4.7
  0
LINE
  8
DETAIL
  6
CONTINUOUS
 62
     5
 10
-71.015074
 20
-510.354506
 30
0.0
 11
-73.984926
 21
-513.324348
 31
0.0
  0
LINE
  8
DETAIL
  6
CONTINUOUS
 62
     5
 10
-71.015079
 20
-513.324353
 30
0.0
 11
-73.984921
 21
-510.354501
 31
0.0
  0
CIRCLE
  8
DETAIL
  6
CONTINUOUS
 62
     5
 10
-72.5
 20
-511.839427
 30
0.0
 40
4.7
  0
LINE
  8
DETAIL
  6
CONTINUOUS
 62
     5
 10
-218.515074
 20
-510.354506
 30
0.0
 11
-221.484926
 21
-513.324348
 31
0.0
  0
LINE
  8
DETAIL
  6
CONTINUOUS
 62
     5
 10
-218.515079
 20
-513.324353
 30
0.0
 11
-221.484921
 21
-510.354501
 31
0.0
  0
CIRCLE
  8
DETAIL
  6
CONTINUOUS
 62
     5
 10
-220.0
 20
-511.839427
 30
0.0
 40
4.7
  0
LINE
  8
DETAIL
  6
CONTINUOUS
 62
     5
 10
-242.015074
 20
-312.054506
 30
0.0
 11
-244.984926
 21
-315.024348
 31
0.0
  0
LINE
  8
DETAIL
  6
CONTINUOUS
 62
     5
 10
-242.015079
 20
-315.024353
 30
0.0
 11
-244.984921
 21
-312.054501
 31
0.0
  0
CIRCLE
  8
DETAIL
  6
CONTINUOUS
 62
     5
 10
-243.5
 20
-313.539427
 30
0.0
 40
4.7
  0
LINE
  8
DETAIL
  6
CONTINUOUS
 62
     5
 10
252.788445
 20
-236.539427
 30
0.0
 11
252.788445
 21
-245.939427
 31
0.0
  0
LINE
  8
DETAIL
  6
CONTINUOUS
 62
     5
 10
252.5
 20
-245.939427
 30
0.0
 11
252.788445
 21
-245.939427
 31
0.0
  0
LINE
  8
DETAIL
  6
CONTINUOUS
 62
     5
 10
252.5
 20
-236.539427
 30
0.0
 11
252.788445
 21
-236.539427
 31
0.0
  0
LINE
  8
DETAIL
  6
CONTINUOUS
 62
     5
 10
252.5
 20
-245.939427
 30
0.0
 11
252.5
 21
-236.539427
 31
0.0
  0
ARC
  8
DETAIL
  6
CONTINUOUS
 62
     5
 10
248.9
 20
-241.239427
 30
0.0
 40
6.1
 50
309.601965
 51
50.398017
  0
LINE
  8
DETAIL
  6
CONTINUOUS
 62
     5
 10
252.788445
 20
-136.339427
 30
0.0
 11
252.788445
 21
-145.739427
 31
0.0
  0
LINE
  8
DETAIL
  6
CONTINUOUS
 62
     5
 10
252.5
 20
-145.739427
 30
0.0
 11
252.788445
 21
-145.739427
 31
0.0
  0
LINE
  8
DETAIL
  6
CONTINUOUS
 62
     5
 10
252.5
 20
-136.339427
 30
0.0
 11
252.788445
 21
-136.339427
 31
0.0
  0
LINE
  8
DETAIL
  6
CONTINUOUS
 62
     5
 10
252.5
 20
-145.739427
 30
0.0
 11
252.5
 21
-136.339427
 31
0.0
  0
ARC
  8
DETAIL
  6
CONTINUOUS
 62
     5
 10
248.9
 20
-141.039427
 30
0.0
 40
6.1
 50
309.601965
 51
50.398017
  0
LINE
  8
DETAIL
  6
CONTINUOUS
 62
     5
 10
171.484926
 20
-239.754506
 30
0.0
 11
168.515074
 21
-242.724348
 31
0.0
  0
LINE
  8
DETAIL
  6
CONTINUOUS
 62
     5
 10
171.484921
 20
-242.724353
 30
0.0
 11
168.515079
 21
-239.754501
 31
0.0
  0
CIRCLE
  8
DETAIL
  6
CONTINUOUS
 62
     5
 10
170.0
 20
-241.239427
 30
0.0
 40
4.7
  0
LINE
  8
DETAIL
  6
CONTINUOUS
 62
     5
 10
244.984926
 20
-103.854506
 30
0.0
 11
242.015074
 21
-106.824348
 31
0.0
  0
LINE
  8
DETAIL
  6
CONTINUOUS
 62
     5
 10
244.984921
 20
-106.824353
 30
0.0
 11
242.015079
 21
-103.854501
 31
0.0
  0
CIRCLE
  8
DETAIL
  6
CONTINUOUS
 62
     5
 10
243.5
 20
-105.339427
 30
0.0
 40
4.7
  0
LINE
  8
DETAIL
  6
CONTINUOUS
 62
     5
 10
244.984926
 20
61.145494
 30
0.0
 11
242.015074
 21
58.175652
 31
0.0
  0
LINE
  8
DETAIL
  6
CONTINUOUS
 62
     5
 10
244.984921
 20
58.175647
 30
0.0
 11
242.015079
 21
61.145499
 31
0.0
  0
CIRCLE
  8
DETAIL
  6
CONTINUOUS
 62
     5
 10
243.5
 20
59.660573
 30
0.0
 40
4.7
  0
LINE
  8
DETAIL
  6
CONTINUOUS
 62
     5
 10
244.984926
 20
226.145494
 30
0.0
 11
242.015074
 21
223.175652
 31
0.0
  0
LINE
  8
DETAIL
  6
CONTINUOUS
 62
     5
 10
244.984921
 20
223.175647
 30
0.0
 11
242.015079
 21
226.145499
 31
0.0
  0
CIRCLE
  8
DETAIL
  6
CONTINUOUS
 62
     5
 10
243.5
 20
224.660573
 30
0.0
 40
4.7
  0
LINE
  8
DETAIL
  6
CONTINUOUS
 62
     5
 10
244.984926
 20
491.345494
 30
0.0
 11
242.015074
 21
488.375652
 31
0.0
  0
LINE
  8
DETAIL
  6
CONTINUOUS
 62
     5
 10
244.984921
 20
488.375647
 30
0.0
 11
242.015079
 21
491.345499
 31
0.0
  0
CIRCLE
  8
DETAIL
  6
CONTINUOUS
 62
     5
 10
243.5
 20
489.860573
 30
0.0
 40
4.7
  0
LINE
  8
DETAIL
  6
CONTINUOUS
 62
     5
 10
-13.515074
 20
-239.754506
 30
0.0
 11
-16.484926
 21
-242.724348
 31
0.0
  0
LINE
  8
DETAIL
  6
CONTINUOUS
 62
     5
 10
-13.515079
 20
-242.724353
 30
0.0
 11
-16.484921
 21
-239.754501
 31
0.0
  0
CIRCLE
  8
DETAIL
  6
CONTINUOUS
 62
     5
 10
-15.0
 20
-241.239427
 30
0.0
 40
4.7
  0
LINE
  8
DETAIL
  6
CONTINUOUS
 62
     5
 10
-92.515074
 20
-221.954506
 30
0.0
 11
-95.484926
 21
-224.924348
 31
0.0
  0
LINE
  8
DETAIL
  6
CONTINUOUS
 62
     5
 10
-92.515079
 20
-224.924353
 30
0.0
 11
-95.484921
 21
-221.954501
 31
0.0
  0
CIRCLE
  8
DETAIL
  6
CONTINUOUS
 62
     5
 10
-94.0
 20
-223.439427
 30
0.0
 40
4.7
  0
LINE
  8
DETAIL
  6
CONTINUOUS
 62
     5
 10
-92.515074
 20
-77.754506
 30
0.0
 11
-95.484926
 21
-80.724348
 31
0.0
  0
LINE
  8
DETAIL
  6
CONTINUOUS
 62
     5
 10
-92.515079
 20
-80.724353
 30
0.0
 11
-95.484921
 21
-77.754501
 31
0.0
  0
CIRCLE
  8
DETAIL
  6
CONTINUOUS
 62
     5
 10
-94.0
 20
-79.239427
 30
0.0
 40
4.7
  0
LINE
  8
DETAIL
  6
CONTINUOUS
 62
     5
 10
-92.515074
 20
87.245494
 30
0.0
 11
-95.484926
 21
84.275652
 31
0.0
  0
LINE
  8
DETAIL
  6
CONTINUOUS
 62
     5
 10
-92.515079
 20
84.275647
 30
0.0
 11
-95.484921
 21
87.245499
 31
0.0
  0
CIRCLE
  8
DETAIL
  6
CONTINUOUS
 62
     5
 10
-94.0
 20
85.760573
 30
0.0
 40
4.7
  0
LINE
  8
DETAIL
  6
CONTINUOUS
 62
     5
 10
-193.515074
 20
-239.754506
 30
0.0
 11
-196.484926
 21
-242.724348
 31
0.0
  0
LINE
  8
DETAIL
  6
CONTINUOUS
 62
     5
 10
-193.515079
 20
-242.724353
 30
0.0
 11
-196.484921
 21
-239.754501
 31
0.0
  0
CIRCLE
  8
DETAIL
  6
CONTINUOUS
 62
     5
 10
-195.0
 20
-241.239427
 30
0.0
 40
4.7
  0
LINE
  8
DETAIL
  6
CONTINUOUS
 62
     5
 10
-252.788445
 20
-236.539427
 30
0.0
 11
-252.788445
 21
-245.939427
 31
0.0
  0
LINE
  8
DETAIL
  6
CONTINUOUS
 62
     5
 10
-252.5
 20
-245.939427
 30
0.0
 11
-252.788445
 21
-245.939427
 31
0.0
  0
LINE
  8
DETAIL
  6
CONTINUOUS
 62
     5
 10
-252.5
 20
-236.539427
 30
0.0
 11
-252.788445
 21
-236.539427
 31
0.0
  0
LINE
  8
DETAIL
  6
CONTINUOUS
 62
     5
 10
-252.5
 20
-245.939427
 30
0.0
 11
-252.5
 21
-236.539427
 31
0.0
  0
ARC
  8
DETAIL
  6
CONTINUOUS
 62
     5
 10
-248.9
 20
-241.239427
 30
0.0
 40
6.1
 50
129.601983
 51
230.398035
  0
ARC
  8
DETAIL
  6
CONTINUOUS
 62
     5
 10
-250.5
 20
-169.139427
 30
0.0
 40
6.1
 50
129.601965
 51
230.398017
  0
LINE
  8
DETAIL
  6
CONTINUOUS
 62
     5
 10
-254.1
 20
-164.439427
 30
0.0
 11
-254.1
 21
-173.839427
 31
0.0
  0
LINE
  8
DETAIL
  6
CONTINUOUS
 62
     5
 10
-254.1
 20
-173.839427
 30
0.0
 11
-254.388445
 21
-173.839427
 31
0.0
  0
LINE
  8
DETAIL
  6
CONTINUOUS
 62
     5
 10
-254.1
 20
-164.439427
 30
0.0
 11
-254.388445
 21
-164.439427
 31
0.0
  0
LINE
  8
DETAIL
  6
CONTINUOUS
 62
     5
 10
-254.388445
 20
-173.839427
 30
0.0
 11
-254.388445
 21
-164.439427
 31
0.0
  0
LINE
  8
DETAIL
  6
CONTINUOUS
 62
     5
 10
-242.015074
 20
-177.054506
 30
0.0
 11
-244.984926
 21
-180.024348
 31
0.0
  0
LINE
  8
DETAIL
  6
CONTINUOUS
 62
     5
 10
-242.015079
 20
-180.024353
 30
0.0
 11
-244.984921
 21
-177.054501
 31
0.0
  0
CIRCLE
  8
DETAIL
  6
CONTINUOUS
 62
     5
 10
-243.5
 20
-178.539427
 30
0.0
 40
4.7
  0
LINE
  8
DETAIL
  6
CONTINUOUS
 62
     5
 10
-92.515074
 20
168.045494
 30
0.0
 11
-95.484926
 21
165.075652
 31
0.0
  0
LINE
  8
DETAIL
  6
CONTINUOUS
 62
     5
 10
-92.515079
 20
165.075647
 30
0.0
 11
-95.484921
 21
168.045499
 31
0.0
  0
CIRCLE
  8
DETAIL
  6
CONTINUOUS
 62
     5
 10
-94.0
 20
166.560573
 30
0.0
 40
4.7
  0
LINE
  8
DETAIL
  6
CONTINUOUS
 62
     5
 10
-242.015074
 20
185.245494
 30
0.0
 11
-244.984926
 21
182.275652
 31
0.0
  0
LINE
  8
DETAIL
  6
CONTINUOUS
 62
     5
 10
-242.015079
 20
182.275647
 30
0.0
 11
-244.984921
 21
185.245499
 31
0.0
  0
CIRCLE
  8
DETAIL
  6
CONTINUOUS
 62
     5
 10
-243.5
 20
183.760573
 30
0.0
 40
4.7
  0
ARC
  8
DETAIL
  6
CONTINUOUS
 62
     5
 10
-249.7
 20
199.360573
 30
0.0
 40
6.1
 50
129.601965
 51
230.398017
  0
LINE
  8
DETAIL
  6
CONTINUOUS
 62
     5
 10
-253.3
 20
204.060573
 30
0.0
 11
-253.3
 21
194.660573
 31
0.0
  0
LINE
  8
DETAIL
  6
CONTINUOUS
 62
     5
 10
-253.3
 20
194.660573
 30
0.0
 11
-253.588445
 21
194.660573
 31
0.0
  0
LINE
  8
DETAIL
  6
CONTINUOUS
 62
     5
 10
-253.3
 20
204.060573
 30
0.0
 11
-253.588445
 21
204.060573
 31
0.0
  0
LINE
  8
DETAIL
  6
CONTINUOUS
 62
     5
 10
-253.588445
 20
194.660573
 30
0.0
 11
-253.588445
 21
204.060573
 31
0.0
  0
LINE
  8
DETAIL
  6
CONTINUOUS
 62
     5
 10
-242.015074
 20
295.245494
 30
0.0
 11
-244.984926
 21
292.275652
 31
0.0
  0
LINE
  8
DETAIL
  6
CONTINUOUS
 62
     5
 10
-242.015079
 20
292.275647
 30
0.0
 11
-244.984921
 21
295.245499
 31
0.0
  0
CIRCLE
  8
DETAIL
  6
CONTINUOUS
 62
     5
 10
-243.5
 20
293.760573
 30
0.0
 40
4.7
  0
LINE
  8
DETAIL
  6
CONTINUOUS
 62
     5
 10
-242.015074
 20
505.445494
 30
0.0
 11
-244.984926
 21
502.475652
 31
0.0
  0
LINE
  8
DETAIL
  6
CONTINUOUS
 62
     5
 10
-242.015079
 20
502.475647
 30
0.0
 11
-244.984921
 21
505.445499
 31
0.0
  0
CIRCLE
  8
DETAIL
  6
CONTINUOUS
 62
     5
 10
-243.5
 20
503.960573
 30
0.0
 40
4.7
  0
LINE
  8
DETAIL
  6
CONTINUOUS
 62
     5
 10
95.484926
 20
168.045494
 30
0.0
 11
92.515074
 21
165.075652
 31
0.0
  0
LINE
  8
DETAIL
  6
CONTINUOUS
 62
     5
 10
95.484921
 20
165.075647
 30
0.0
 11
92.515079
 21
168.045499
 31
0.0
  0
CIRCLE
  8
DETAIL
  6
CONTINUOUS
 62
     5
 10
94.0
 20
166.560573
 30
0.0
 40
4.7
  0
LINE
  8
DETAIL
  6
CONTINUOUS
 62
     5
 10
95.484926
 20
87.245494
 30
0.0
 11
92.515074
 21
84.275652
 31
0.0
  0
LINE
  8
DETAIL
  6
CONTINUOUS
 62
     5
 10
95.484921
 20
84.275647
 30
0.0
 11
92.515079
 21
87.245499
 31
0.0
  0
CIRCLE
  8
DETAIL
  6
CONTINUOUS
 62
     5
 10
94.0
 20
85.760573
 30
0.0
 40
4.7
  0
LINE
  8
DETAIL
  6
CONTINUOUS
 62
     5
 10
95.484926
 20
-77.754506
 30
0.0
 11
92.515074
 21
-80.724348
 31
0.0
  0
LINE
  8
DETAIL
  6
CONTINUOUS
 62
     5
 10
95.484921
 20
-80.724353
 30
0.0
 11
92.515079
 21
-77.754501
 31
0.0
  0
CIRCLE
  8
DETAIL
  6
CONTINUOUS
 62
     5
 10
94.0
 20
-79.239427
 30
0.0
 40
4.7
  0
LINE
  8
DETAIL
  6
CONTINUOUS
 62
     5
 10
95.484926
 20
-221.954506
 30
0.0
 11
92.515074
 21
-224.924348
 31
0.0
  0
LINE
  8
DETAIL
  6
CONTINUOUS
 62
     5
 10
95.484921
 20
-224.924353
 30
0.0
 11
92.515079
 21
-221.954501
 31
0.0
  0
CIRCLE
  8
DETAIL
  6
CONTINUOUS
 62
     5
 10
94.0
 20
-223.439427
 30
0.0
 40
4.7
  0
LINE
  8
OUTLINE
  6
CONTINUOUS
 62
     3
 39
50.0
 10
-252.5
 20
520.160573
 30
0.0
 11
-252.5
 21
-520.039427
 31
0.0
  0
LINE
  8
OUTLINE
  6
CONTINUOUS
 62
     3
 39
50.0
 10
-252.5
 20
-520.839427
 30
0.0
 11
252.5
 21
-520.839427
 31
0.0
  0
LINE
  8
OUTLINE
  6
CONTINUOUS
 62
     3
 39
50.0
 10
252.5
 20
-520.839427
 30
0.0
 11
252.5
 21
520.160573
 31
0.0
  0
LINE
  8
OUTLINE
  6
CONTINUOUS
 62
     3
 39
50.0
 10
252.5
 20
520.160573
 30
0.0
 11
-252.5
 21
520.160573
 31
0.0
  0
LINE
  8
NOTE
  6
CENTER
 62
     4
 10
-279.5
 20
502.160573
 30
0.0
 11
-320.5
 21
502.160573
 31
0.0
  0
LINE
  8
NOTE
  6
CONTINUOUS
 62
     4
 39
50.0
 10
300.0
 20
501.960573
 30
0.0
 11
445.745106
 21
673.114884
 31
0.0
  0
LINE
  8
NOTE
  6
CONTINUOUS
 62
     4
 39
50.0
 10
445.745106
 20
673.114884
 30
0.0
 11
646.659174
 21
673.114884
 31
0.0
  0
TEXT
  8
NOTE
  6
CONTINUOUS
 62
     4
 10
474.670395
 20
690.916003
 30
0.0
 40
40.0
  1
AH-4
 41
0.9
  0
LINE
  8
NOTE
  6
CONTINUOUS
 62
     4
 39
50.0
 10
300.0
 20
501.960573
 30
0.0
 11
305.201013
 21
519.671316
 31
0.0
  0
LINE
  8
NOTE
  6
CONTINUOUS
 62
     4
 39
50.0
 10
300.170209
 20
502.160573
 30
0.0
 11
316.16233
 21
510.318596
 31
0.0
  0
LINE
  8
SIZE
  6
CONTINUOUS
 62
    30
 10
-121.0
 20
-617.039427
 30
0.0
 11
-121.0
 21
-794.519419
 31
0.0
  0
LINE
  8
SIZE
  6
CONTINUOUS
 62
    30
 10
121.0
 20
-617.039427
 30
0.0
 11
121.0
 21
-794.519419
 31
0.0
  0
LINE
  8
SIZE
  6
CONTINUOUS
 62
    30
 10
-133.0
 20
-774.519419
 30
0.0
 11
-145.0
 21
-774.519419
 31
0.0
  0
LINE
  8
SIZE
  6
CONTINUOUS
 62
    30
 10
133.0
 20
-774.519419
 30
0.0
 11
145.0
 21
-774.519419
 31
0.0
  0
LINE
  8
SIZE
  6
CONTINUOUS
 62
    30
 10
-121.0
 20
-774.519419
 30
0.0
 11
121.0
 21
-774.519419
 31
0.0
  0
CIRCLE
  8
SIZE
  6
CONTINUOUS
 62
    30
 10
-121.0
 20
-774.519419
 30
0.0
 40
6.0
  0
LINE
  8
SIZE
  6
CONTINUOUS
 62
    30
 10
-121.0
 20
-774.519419
 30
0.0
 11
-133.0
 21
-774.519419
 31
0.0
  0
CIRCLE
  8
SIZE
  6
CONTINUOUS
 62
    30
 10
121.0
 20
-774.519419
 30
0.0
 40
6.0
  0
LINE
  8
SIZE
  6
CONTINUOUS
 62
    30
 10
121.0
 20
-774.519419
 30
0.0
 11
133.0
 21
-774.519419
 31
0.0
  0
TEXT
  8
SIZE
  6
CONTINUOUS
 62
    30
 10
-115.488
 20
-749.519419
 30
0.0
 40
64.0
  1
φ242
 50
0.0
 41
0.9
 51
0.0
  7
STANDARD
 71
     0
 72
     1
 11
0.0
 21
-749.519419
 31
0.0
210
0.0
220
0.0
230
1.0
  0
POINT
  8
DEFPOINTS
  6
CONTINUOUS
 62
    30
 10
-121.0
 20
-597.039427
 30
0.0
  0
POINT
  8
DEFPOINTS
  6
CONTINUOUS
 62
    30
 10
121.0
 20
-597.039427
 30
0.0
  0
POINT
  8
DEFPOINTS
  6
CONTINUOUS
 62
    30
 10
121.0
 20
-774.519419
 30
0.0
  0
LINE
  8
SIZE
  6
CONTINUOUS
 62
    30
 10
-129.0
 20
-543.439427
 30
0.0
 11
-129.0
 21
-914.519419
 31
0.0
  0
LINE
  8
SIZE
  6
CONTINUOUS
 62
    30
 10
129.0
 20
-543.439427
 30
0.0
 11
129.0
 21
-914.519419
 31
0.0
  0
LINE
  8
SIZE
  6
CONTINUOUS
 62
    30
 10
-117.0
 20
-894.519419
 30
0.0
 11
117.0
 21
-894.519419
 31
0.0
  0
CIRCLE
  8
SIZE
  6
CONTINUOUS
 62
    30
 10
-129.0
 20
-894.519419
 30
0.0
 40
6.0
  0
LINE
  8
SIZE
  6
CONTINUOUS
 62
    30
 10
-129.0
 20
-894.519419
 30
0.0
 11
-117.0
 21
-894.519419
 31
0.0
  0
CIRCLE
  8
SIZE
  6
CONTINUOUS
 62
    30
 10
129.0
 20
-894.519419
 30
0.0
 40
6.0
  0
LINE
  8
SIZE
  6
CONTINUOUS
 62
    30
 10
129.0
 20
-894.519419
 30
0.0
 11
117.0
 21
-894.519419
 31
0.0
  0
TEXT
  8
SIZE
  6
CONTINUOUS
 62
    30
 10
-114.912
 20
-869.519419
 30
0.0
 40
64.0
  1
φ258
 50
0.0
 41
0.9
 51
0.0
  7
STANDARD
 71
     0
 72
     1
 11
0.0
 21
-869.519419
 31
0.0
210
0.0
220
0.0
230
1.0
  0
POINT
  8
DEFPOINTS
  6
CONTINUOUS
 62
    30
 10
-129.0
 20
-523.439427
 30
0.0
  0
POINT
  8
DEFPOINTS
  6
CONTINUOUS
 62
    30
 10
129.0
 20
-523.439427
 30
0.0
  0
POINT
  8
DEFPOINTS
  6
CONTINUOUS
 62
    30
 10
129.0
 20
-894.519419
 30
0.0
  0
LINE
  8
SIZE
  6
CONTINUOUS
 62
    30
 10
340.0
 20
-482.839427
 30
0.0
 11
606.174284
 21
-482.839427
 31
0.0
  0
LINE
  8
SIZE
  6
CONTINUOUS
 62
    30
 10
340.0
 20
-523.839427
 30
0.0
 11
606.174284
 21
-523.839427
 31
0.0
  0
LINE
  8
SIZE
  6
CONTINUOUS
 62
    30
 10
586.174284
 20
-535.839427
 30
0.0
 11
586.174284
 21
-547.839427
 31
0.0
  0
LINE
  8
SIZE
  6
CONTINUOUS
 62
    30
 10
586.174284
 20
-470.839427
 30
0.0
 11
586.174284
 21
-334.382018
 31
0.0
  0
LINE
  8
SIZE
  6
CONTINUOUS
 62
    30
 10
586.174284
 20
-523.839427
 30
0.0
 11
586.174284
 21
-482.839427
 31
0.0
  0
CIRCLE
  8
SIZE
  6
CONTINUOUS
 62
    30
 10
586.174284
 20
-523.839427
 30
0.0
 40
6.0
  0
LINE
  8
SIZE
  6
CONTINUOUS
 62
    30
 10
586.174284
 20
-523.839427
 30
0.0
 11
586.174284
 21
-535.839427
 31
0.0
  0
CIRCLE
  8
SIZE
  6
CONTINUOUS
 62
    30
 10
586.174284
 20
-482.839427
 30
0.0
 40
6.0
  0
LINE
  8
SIZE
  6
CONTINUOUS
 62
    30
 10
586.174284
 20
-482.839427
 30
0.0
 11
586.174284
 21
-470.839427
 31
0.0
  0
TEXT
  8
SIZE
  6
CONTINUOUS
 62
    30
 10
561.174284
 20
-442.051732
 30
0.0
 40
64.0
  1
41
 50
90.0
 41
0.9
 51
0.0
  7
STANDARD
 71
     0
 72
     1
 11
561.174284
 21
-393.667732
 31
0.0
210
0.0
220
0.0
230
1.0
  0
POINT
  8
DEFPOINTS
  6
CONTINUOUS
 62
    30
 10
320.0
 20
-482.839427
 30
0.0
  0
POINT
  8
DEFPOINTS
  6
CONTINUOUS
 62
    30
 10
320.0
 20
-523.839427
 30
0.0
  0
POINT
  8
DEFPOINTS
  6
CONTINUOUS
 62
    30
 10
586.174284
 20
-523.839427
 30
0.0
  0
LINE
  8
SIZE
  6
CONTINUOUS
 62
    30
 10
340.0
 20
-482.839427
 30
0.0
 11
486.174284
 21
-482.839427
 31
0.0
  0
LINE
  8
SIZE
  6
CONTINUOUS
 62
    30
 10
340.5
 20
-502.839427
 30
0.0
 11
486.174284
 21
-502.839427
 31
0.0
  0
LINE
  8
SIZE
  6
CONTINUOUS
 62
    30
 10
466.174284
 20
-514.839427
 30
0.0
 11
466.174284
 21
-526.839427
 31
0.0
  0
LINE
  8
SIZE
  6
CONTINUOUS
 62
    30
 10
466.174284
 20
-470.839427
 30
0.0
 11
466.174284
 21
-261.582284
 31
0.0
  0
LINE
  8
SIZE
  6
CONTINUOUS
 62
    30
 10
466.174284
 20
-502.839427
 30
0.0
 11
466.174284
 21
-482.839427
 31
0.0
  0
CIRCLE
  8
SIZE
  6
CONTINUOUS
 62
    30
 10
466.174284
 20
-502.839427
 30
0.0
 40
6.0
  0
LINE
  8
SIZE
  6
CONTINUOUS
 62
    30
 10
466.174284
 20
-502.839427
 30
0.0
 11
466.174284
 21
-514.839427
 31
0.0
  0
CIRCLE
  8
SIZE
  6
CONTINUOUS
 62
    30
 10
466.174284
 20
-482.839427
 30
0.0
 40
6.0
  0
LINE
  8
SIZE
  6
CONTINUOUS
 62
    30
 10
466.174284
 20
-482.839427
 30
0.0
 11
466.174284
 21
-470.839427
 31
0.0
  0
TEXT
  8
SIZE
  6
CONTINUOUS
 62
    30
 10
441.174284
 20
-387.354856
 30
0.0
 40
64.0
  1
20
 50
90.0
 41
0.9
 51
0.0
  7
STANDARD
 71
     0
 72
     1
 11
441.174284
 21
-333.210856
 31
0.0
210
0.0
220
0.0
230
1.0
  0
POINT
  8
DEFPOINTS
  6
CONTINUOUS
 62
    30
 10
320.0
 20
-482.839427
 30
0.0
  0
POINT
  8
DEFPOINTS
  6
CONTINUOUS
 62
    30
 10
320.5
 20
-502.839427
 30
0.0
  0
POINT
  8
DEFPOINTS
  6
CONTINUOUS
 62
    30
 10
466.174284
 20
-502.839427
 30
0.0
  0
LINE
  8
SIZE
  6
CONTINUOUS
 62
    30
 10
320.0
 20
-462.839427
 30
0.0
 11
320.0
 21
-403.137698
 31
0.0
  0
LINE
  8
SIZE
  6
CONTINUOUS
 62
    30
 10
300.0
 20
-462.639427
 30
0.0
 11
300.0
 21
-403.137698
 31
0.0
  0
LINE
  8
SIZE
  6
CONTINUOUS
 62
    30
 10
332.0
 20
-423.137698
 30
0.0
 11
344.0
 21
-423.137698
 31
0.0
  0
LINE
  8
SIZE
  6
CONTINUOUS
 62
    30
 10
288.0
 20
-423.137698
 30
0.0
 11
276.0
 21
-423.137698
 31
0.0
  0
LINE
  8
SIZE
  6
CONTINUOUS
 62
    30
 10
320.0
 20
-423.137698
 30
0.0
 11
300.0
 21
-423.137698
 31
0.0
  0
CIRCLE
  8
SIZE
  6
CONTINUOUS
 62
    30
 10
320.0
 20
-423.137698
 30
0.0
 40
6.0
  0
LINE
  8
SIZE
  6
CONTINUOUS
 62
    30
 10
320.0
 20
-423.137698
 30
0.0
 11
332.0
 21
-423.137698
 31
0.0
  0
CIRCLE
  8
SIZE
  6
CONTINUOUS
 62
    30
 10
300.0
 20
-423.137698
 30
0.0
 40
6.0
  0
LINE
  8
SIZE
  6
CONTINUOUS
 62
    30
 10
300.0
 20
-423.137698
 30
0.0
 11
288.0
 21
-423.137698
 31
0.0
  0
TEXT
  8
SIZE
  6
CONTINUOUS
 62
    30
 10
255.856
 20
-398.137698
 30
0.0
 40
64.0
  1
20
 50
0.0
 41
0.9
 51
0.0
  7
STANDARD
 71
     0
 72
     1
 11
310.0
 21
-398.137698
 31
0.0
210
0.0
220
0.0
230
1.0
  0
POINT
  8
DEFPOINTS
  6
CONTINUOUS
 62
    30
 10
320.0
 20
-482.839427
 30
0.0
  0
POINT
  8
DEFPOINTS
  6
CONTINUOUS
 62
    30
 10
300.0
 20
-482.639427
 30
0.0
  0
POINT
  8
DEFPOINTS
  6
CONTINUOUS
 62
    30
 10
300.0
 20
-423.137698
 30
0.0
  0
LINE
  8
SIZE
  6
CONTINUOUS
 62
    30
 10
-336.082483
 20
502.160573
 30
0.0
 11
-396.316847
 21
502.160573
 31
0.0
  0
LINE
  8
SIZE
  6
CONTINUOUS
 62
    30
 10
-336.082483
 20
-502.839427
 30
0.0
 11
-396.316847
 21
-502.839427
 31
0.0
  0
LINE
  8
SIZE
  6
CONTINUOUS
 62
    30
 10
-376.316847
 20
490.160573
 30
0.0
 11
-376.316847
 21
-490.839427
 31
0.0
  0
CIRCLE
  8
SIZE
  6
CONTINUOUS
 62
    30
 10
-376.316847
 20
502.160573
 30
0.0
 40
6.0
  0
LINE
  8
SIZE
  6
CONTINUOUS
 62
    30
 10
-376.316847
 20
502.160573
 30
0.0
 11
-376.316847
 21
490.160573
 31
0.0
  0
CIRCLE
  8
SIZE
  6
CONTINUOUS
 62
    30
 10
-376.316847
 20
-502.839427
 30
0.0
 40
6.0
  0
LINE
  8
SIZE
  6
CONTINUOUS
 62
    30
 10
-376.316847
 20
-502.839427
 30
0.0
 11
-376.316847
 21
-490.839427
 31
0.0
  0
TEXT
  8
SIZE
  6
CONTINUOUS
 62
    30
 10
-401.316847
 20
-102.867427
 30
0.0
 40
64.0
  1
1005
 50
90.0
 41
0.9
 51
0.0
  7
STANDARD
 71
     0
 72
     1
 11
-401.316847
 21
-0.339427
 31
0.0
210
0.0
220
0.0
230
1.0
  0
POINT
  8
DEFPOINTS
  6
CONTINUOUS
 62
    30
 10
-316.082483
 20
502.160573
 30
0.0
  0
POINT
  8
DEFPOINTS
  6
CONTINUOUS
 62
    30
 10
-316.082483
 20
-502.839427
 30
0.0
  0
POINT
  8
DEFPOINTS
  6
CONTINUOUS
 62
    30
 10
-376.316847
 20
-502.839427
 30
0.0
  0
LINE
  8
SIZE
  6
CONTINUOUS
 62
    30
 10
-340.0
 20
523.160573
 30
0.0
 11
-636.316847
 21
523.160573
 31
0.0
  0
LINE
  8
SIZE
  6
CONTINUOUS
 62
    30
 10
-340.0
 20
-523.839427
 30
0.0
 11
-636.316847
 21
-523.839427
 31
0.0
  0
LINE
  8
SIZE
  6
CONTINUOUS
 62
    30
 10
-616.316847
 20
511.160573
 30
0.0
 11
-616.316847
 21
-511.839427
 31
0.0
  0
CIRCLE
  8
SIZE
  6
CONTINUOUS
 62
    30
 10
-616.316847
 20
523.160573
 30
0.0
 40
6.0
  0
LINE
  8
SIZE
  6
CONTINUOUS
 62
    30
 10
-616.316847
 20
523.160573
 30
0.0
 11
-616.316847
 21
511.160573
 31
0.0
  0
CIRCLE
  8
SIZE
  6
CONTINUOUS
 62
    30
 10
-616.316847
 20
-523.839427
 30
0.0
 40
6.0
  0
LINE
  8
SIZE
  6
CONTINUOUS
 62
    30
 10
-616.316847
 20
-523.839427
 30
0.0
 11
-616.316847
 21
-511.839427
 31
0.0
  0
TEXT
  8
SIZE
  6
CONTINUOUS
 62
    30
 10
-641.316847
 20
-125.867427
 30
0.0
 40
64.0
  1
1047
 50
90.0
 41
0.9
 51
0.0
  7
STANDARD
 71
     0
 72
     1
 11
-641.316847
 21
-23.339427
 31
0.0
210
0.0
220
0.0
230
1.0
  0
POINT
  8
DEFPOINTS
  6
CONTINUOUS
 62
    30
 10
-320.0
 20
523.160573
 30
0.0
  0
POINT
  8
DEFPOINTS
  6
CONTINUOUS
 62
    30
 10
-320.0
 20
-523.839427
 30
0.0
  0
POINT
  8
DEFPOINTS
  6
CONTINUOUS
 62
    30
 10
-616.316847
 20
-523.839427
 30
0.0
  0
LINE
  8
SIZE
  6
CONTINUOUS
 62
    30
 10
-90.250059
 20
-605.839427
 30
0.0
 11
-516.316847
 21
-605.839427
 31
0.0
  0
LINE
  8
SIZE
  6
CONTINUOUS
 62
    30
 10
-251.3
 20
-520.839427
 30
0.0
 11
-516.316847
 21
-520.839427
 31
0.0
  0
LINE
  8
SIZE
  6
CONTINUOUS
 62
    30
 10
-496.316847
 20
-532.839427
 30
0.0
 11
-496.316847
 21
-593.839427
 31
0.0
  0
LINE
  8
SIZE
  6
CONTINUOUS
 62
    30
 10
-496.316847
 20
-605.839427
 30
0.0
 11
-496.316847
 21
-761.09657
 31
0.0
  0
CIRCLE
  8
SIZE
  6
CONTINUOUS
 62
    30
 10
-496.316847
 20
-520.839427
 30
0.0
 40
6.0
  0
LINE
  8
SIZE
  6
CONTINUOUS
 62
    30
 10
-496.316847
 20
-520.839427
 30
0.0
 11
-496.316847
 21
-532.839427
 31
0.0
  0
CIRCLE
  8
SIZE
  6
CONTINUOUS
 62
    30
 10
-496.316847
 20
-605.839427
 30
0.0
 40
6.0
  0
LINE
  8
SIZE
  6
CONTINUOUS
 62
    30
 10
-496.316847
 20
-605.839427
 30
0.0
 11
-496.316847
 21
-593.839427
 31
0.0
  0
TEXT
  8
SIZE
  6
CONTINUOUS
 62
    30
 10
-521.316847
 20
-743.035999
 30
0.0
 40
64.0
  1
85
 50
90.0
 41
0.9
 51
0.0
  7
STANDARD
 71
     0
 72
     1
 11
-521.316847
 21
-689.467999
 31
0.0
210
0.0
220
0.0
230
1.0
  0
POINT
  8
DEFPOINTS
  6
CONTINUOUS
 62
    30
 10
-70.250059
 20
-605.839427
 30
0.0
  0
POINT
  8
DEFPOINTS
  6
CONTINUOUS
 62
    30
 10
-231.3
 20
-520.839427
 30
0.0
  0
POINT
  8
DEFPOINTS
  6
CONTINUOUS
 62
    30
 10
-496.316847
 20
-520.839427
 30
0.0
  0
LINE
  8
SIZE
  6
CONTINUOUS
 62
    30
 10
-129.724189
 20
605.160573
 30
0.0
 11
-516.316847
 21
605.160573
 31
0.0
  0
LINE
  8
SIZE
  6
CONTINUOUS
 62
    30
 10
-226.207002
 20
520.160573
 30
0.0
 11
-516.316847
 21
520.160573
 31
0.0
  0
LINE
  8
SIZE
  6
CONTINUOUS
 62
    30
 10
-496.316847
 20
532.160573
 30
0.0
 11
-496.316847
 21
593.160573
 31
0.0
  0
LINE
  8
SIZE
  6
CONTINUOUS
 62
    30
 10
-496.316847
 20
605.160573
 30
0.0
 11
-496.316847
 21
760.417716
 31
0.0
  0
CIRCLE
  8
SIZE
  6
CONTINUOUS
 62
    30
 10
-496.316847
 20
520.160573
 30
0.0
 40
6.0
  0
LINE
  8
SIZE
  6
CONTINUOUS
 62
    30
 10
-496.316847
 20
520.160573
 30
0.0
 11
-496.316847
 21
532.160573
 31
0.0
  0
CIRCLE
  8
SIZE
  6
CONTINUOUS
 62
    30
 10
-496.316847
 20
605.160573
 30
0.0
 40
6.0
  0
LINE
  8
SIZE
  6
CONTINUOUS
 62
    30
 10
-496.316847
 20
605.160573
 30
0.0
 11
-496.316847
 21
593.160573
 31
0.0
  0
TEXT
  8
SIZE
  6
CONTINUOUS
 62
    30
 10
-521.316847
 20
635.221144
 30
0.0
 40
64.0
  1
85
 50
90.0
 41
0.9
 51
0.0
  7
STANDARD
 71
     0
 72
     1
 11
-521.316847
 21
688.789144
 31
0.0
210
0.0
220
0.0
230
1.0
  0
POINT
  8
DEFPOINTS
  6
CONTINUOUS
 62
    30
 10
-109.724189
 20
605.160573
 30
0.0
  0
POINT
  8
DEFPOINTS
  6
CONTINUOUS
 62
    30
 10
-206.207002
 20
520.160573
 30
0.0
  0
POINT
  8
DEFPOINTS
  6
CONTINUOUS
 62
    30
 10
-496.316847
 20
520.160573
 30
0.0
  0
LINE
  8
SIZE
  6
CONTINUOUS
 62
    30
 10
-220.016768
 20
520.160573
 30
0.0
 11
-516.316847
 21
520.160573
 31
0.0
  0
LINE
  8
SIZE
  6
CONTINUOUS
 62
    30
 10
-220.016768
 20
-520.839427
 30
0.0
 11
-516.316847
 21
-520.839427
 31
0.0
  0
LINE
  8
SIZE
  6
CONTINUOUS
 62
    30
 10
-496.316847
 20
508.160573
 30
0.0
 11
-496.316847
 21
-508.839427
 31
0.0
  0
CIRCLE
  8
SIZE
  6
CONTINUOUS
 62
    30
 10
-496.316847
 20
520.160573
 30
0.0
 40
6.0
  0
LINE
  8
SIZE
  6
CONTINUOUS
 62
    30
 10
-496.316847
 20
520.160573
 30
0.0
 11
-496.316847
 21
508.160573
 31
0.0
  0
CIRCLE
  8
SIZE
  6
CONTINUOUS
 62
    30
 10
-496.316847
 20
-520.839427
 30
0.0
 40
6.0
  0
LINE
  8
SIZE
  6
CONTINUOUS
 62
    30
 10
-496.316847
 20
-520.839427
 30
0.0
 11
-496.316847
 21
-508.839427
 31
0.0
  0
TEXT
  8
SIZE
  6
CONTINUOUS
 62
    30
 10
-521.316847
 20
-120.107427
 30
0.0
 40
64.0
  1
1041
 50
90.0
 41
0.9
 51
0.0
  7
STANDARD
 71
     0
 72
     1
 11
-521.316847
 21
-23.339427
 31
0.0
210
0.0
220
0.0
230
1.0
  0
POINT
  8
DEFPOINTS
  6
CONTINUOUS
 62
    30
 10
-200.016768
 20
520.160573
 30
0.0
  0
POINT
  8
DEFPOINTS
  6
CONTINUOUS
 62
    30
 10
-200.016768
 20
-520.839427
 30
0.0
  0
POINT
  8
DEFPOINTS
  6
CONTINUOUS
 62
    30
 10
-496.316847
 20
-520.839427
 30
0.0
  0
LINE
  8
SIZE
  6
CONTINUOUS
 62
    30
 10
294.5
 20
-512.839427
 30
0.0
 11
294.5
 21
-663.655288
 31
0.0
  0
LINE
  8
SIZE
  6
CONTINUOUS
 62
    30
 10
305.5
 20
-512.839427
 30
0.0
 11
305.5
 21
-663.655288
 31
0.0
  0
LINE
  8
SIZE
  6
CONTINUOUS
 62
    30
 10
282.5
 20
-643.655288
 30
0.0
 11
270.5
 21
-643.655288
 31
0.0
  0
LINE
  8
SIZE
  6
CONTINUOUS
 62
    30
 10
317.5
 20
-643.655288
 30
0.0
 11
437.1
 21
-643.655288
 31
0.0
  0
LINE
  8
SIZE
  6
CONTINUOUS
 62
    30
 10
294.5
 20
-643.655288
 30
0.0
 11
305.5
 21
-643.655288
 31
0.0
  0
CIRCLE
  8
SIZE
  6
CONTINUOUS
 62
    30
 10
294.5
 20
-643.655288
 30
0.0
 40
6.0
  0
LINE
  8
SIZE
  6
CONTINUOUS
 62
    30
 10
294.5
 20
-643.655288
 30
0.0
 11
282.5
 21
-643.655288
 31
0.0
  0
CIRCLE
  8
SIZE
  6
CONTINUOUS
 62
    30
 10
305.5
 20
-643.655288
 30
0.0
 40
6.0
  0
LINE
  8
SIZE
  6
CONTINUOUS
 62
    30
 10
305.5
 20
-643.655288
 30
0.0
 11
317.5
 21
-643.655288
 31
0.0
  0
TEXT
  8
SIZE
  6
CONTINUOUS
 62
    30
 10
341.252
 20
-618.655288
 30
0.0
 40
64.0
  1
11
 50
0.0
 41
0.9
 51
0.0
  7
STANDARD
 71
     0
 72
     1
 11
383.3
 21
-618.655288
 31
0.0
210
0.0
220
0.0
230
1.0
  0
POINT
  8
DEFPOINTS
  6
CONTINUOUS
 62
    30
 10
294.5
 20
-492.839427
 30
0.0
  0
POINT
  8
DEFPOINTS
  6
CONTINUOUS
 62
    30
 10
305.5
 20
-492.839427
 30
0.0
  0
POINT
  8
DEFPOINTS
  6
CONTINUOUS
 62
    30
 10
305.5
 20
-643.655288
 30
0.0
  0
LINE
  8
SIZE
  6
CONTINUOUS
 62
    30
 10
-300.0
 20
536.612156
 30
0.0
 11
-300.0
 21
855.373768
 31
0.0
  0
LINE
  8
SIZE
  6
CONTINUOUS
 62
    30
 10
300.0
 20
539.961139
 30
0.0
 11
300.0
 21
855.373768
 31
0.0
  0
LINE
  8
SIZE
  6
CONTINUOUS
 62
    30
 10
-288.0
 20
835.373768
 30
0.0
 11
288.0
 21
835.373768
 31
0.0
  0
CIRCLE
  8
SIZE
  6
CONTINUOUS
 62
    30
 10
-300.0
 20
835.373768
 30
0.0
 40
6.0
  0
LINE
  8
SIZE
  6
CONTINUOUS
 62
    30
 10
-300.0
 20
835.373768
 30
0.0
 11
-288.0
 21
835.373768
 31
0.0
  0
CIRCLE
  8
SIZE
  6
CONTINUOUS
 62
    30
 10
300.0
 20
835.373768
 30
0.0
 40
6.0
  0
LINE
  8
SIZE
  6
CONTINUOUS
 62
    30
 10
300.0
 20
835.373768
 30
0.0
 11
288.0
 21
835.373768
 31
0.0
  0
TEXT
  8
SIZE
  6
CONTINUOUS
 62
    30
 10
-81.504
 20
860.373768
 30
0.0
 40
64.0
  1
600
 50
0.0
 41
0.9
 51
0.0
  7
STANDARD
 71
     0
 72
     1
 11
0.0
 21
860.373768
 31
0.0
210
0.0
220
0.0
230
1.0
  0
POINT
  8
DEFPOINTS
  6
CONTINUOUS
 62
    30
 10
-300.0
 20
516.612156
 30
0.0
  0
POINT
  8
DEFPOINTS
  6
CONTINUOUS
 62
    30
 10
300.0
 20
519.961139
 30
0.0
  0
POINT
  8
DEFPOINTS
  6
CONTINUOUS
 62
    30
 10
300.0
 20
835.373768
 30
0.0
  0
LINE
  8
SIZE
  6
CONTINUOUS
 62
    30
 10
320.0
 20
538.405536
 30
0.0
 11
320.0
 21
975.373768
 31
0.0
  0
LINE
  8
SIZE
  6
CONTINUOUS
 62
    30
 10
-320.0
 20
535.257236
 30
0.0
 11
-320.0
 21
975.373768
 31
0.0
  0
LINE
  8
SIZE
  6
CONTINUOUS
 62
    30
 10
308.0
 20
955.373768
 30
0.0
 11
-308.0
 21
955.373768
 31
0.0
  0
CIRCLE
  8
SIZE
  6
CONTINUOUS
 62
    30
 10
320.0
 20
955.373768
 30
0.0
 40
6.0
  0
LINE
  8
SIZE
  6
CONTINUOUS
 62
    30
 10
320.0
 20
955.373768
 30
0.0
 11
308.0
 21
955.373768
 31
0.0
  0
CIRCLE
  8
SIZE
  6
CONTINUOUS
 62
    30
 10
-320.0
 20
955.373768
 30
0.0
 40
6.0
  0
LINE
  8
SIZE
  6
CONTINUOUS
 62
    30
 10
-320.0
 20
955.373768
 30
0.0
 11
-308.0
 21
955.373768
 31
0.0
  0
TEXT
  8
SIZE
  6
CONTINUOUS
 62
    30
 10
-81.504
 20
980.373768
 30
0.0
 40
64.0
  1
640
 50
0.0
 41
0.9
 51
0.0
  7
STANDARD
 71
     0
 72
     1
 11
0.0
 21
980.373768
 31
0.0
210
0.0
220
0.0
230
1.0
  0
POINT
  8
DEFPOINTS
  6
CONTINUOUS
 62
    30
 10
320.0
 20
518.405536
 30
0.0
  0
POINT
  8
DEFPOINTS
  6
CONTINUOUS
 62
    30
 10
-320.0
 20
515.257236
 30
0.0
  0
POINT
  8
DEFPOINTS
  6
CONTINUOUS
 62
    30
 10
-320.0
 20
955.373768
 30
0.0
  0
LINE
  8
NOTE
  6
CONTINUOUS
 62
     4
 39
50.0
 10
-270.8
 20
-0.352757
 30
0.0
 11
-683.14051
 21
369.597563
 31
0.0
  0
LINE
  8
NOTE
  6
CONTINUOUS
 62
     4
 39
50.0
 10
-683.14051
 20
369.597563
 30
0.0
 11
-815.091091
 21
369.597563
 31
0.0
  0
TEXT
  8
NOTE
  6
CONTINUOUS
 62
     4
 10
-783.748606
 20
389.229942
 30
0.0
 40
40.0
  1
EL
 41
0.9
  0
LINE
  8
NOTE
  6
CONTINUOUS
 62
     4
 39
50.0
 10
-271.691667
 20
0.447243
 30
0.0
 11
-283.330543
 21
41.730104
 31
0.0
  0
LINE
  8
NOTE
  6
CONTINUOUS
 62
     4
 39
50.0
 10
-271.691667
 20
0.447243
 30
0.0
 11
-310.530298
 21
13.819421
 31
0.0
  0
CIRCLE
  8
FIX
  6
CONTINUOUS
 62
    11
 39
50.0
 10
300.170385
 20
502.160663
 30
0.0
 40
5.5
  0
CIRCLE
  8
FIX
  6
CONTINUOUS
 62
    11
 39
50.0
 10
-300.0
 20
502.160573
 30
0.0
 40
5.5
  0
CIRCLE
  8
FIX
  6
CONTINUOUS
 62
    11
 39
50.0
 10
-300.0
 20
-502.839427
 30
0.0
 40
5.5
  0
CIRCLE
  8
FIX
  6
CONTINUOUS
 62
    11
 39
50.0
 10
300.0
 20
-502.839427
 30
0.0
 40
5.5
  0
LINE
  8
SIZE
  6
CONTINUOUS
 62
    30
 10
-252.5
 20
528.446685
 30
0.0
 11
-252.5
 21
735.373768
 31
0.0
  0
LINE
  8
SIZE
  6
CONTINUOUS
 62
    30
 10
252.5
 20
528.446685
 30
0.0
 11
252.5
 21
735.373768
 31
0.0
  0
LINE
  8
SIZE
  6
CONTINUOUS
 62
    30
 10
-240.5
 20
715.373768
 30
0.0
 11
240.5
 21
715.373768
 31
0.0
  0
CIRCLE
  8
SIZE
  6
CONTINUOUS
 62
    30
 10
-252.5
 20
715.373768
 30
0.0
 40
6.0
  0
LINE
  8
SIZE
  6
CONTINUOUS
 62
    30
 10
-252.5
 20
715.373768
 30
0.0
 11
-240.5
 21
715.373768
 31
0.0
  0
CIRCLE
  8
SIZE
  6
CONTINUOUS
 62
    30
 10
252.5
 20
715.373768
 30
0.0
 40
6.0
  0
LINE
  8
SIZE
  6
CONTINUOUS
 62
    30
 10
252.5
 20
715.373768
 30
0.0
 11
240.5
 21
715.373768
 31
0.0
  0
TEXT
  8
SIZE
  6
CONTINUOUS
 62
    30
 10
-80.928
 20
740.373768
 30
0.0
 40
64.0
  1
505
 50
0.0
 41
0.9
 51
0.0
  7
STANDARD
 71
     0
 72
     1
 11
0.0
 21
740.373768
 31
0.0
210
0.0
220
0.0
230
1.0
  0
POINT
  8
DEFPOINTS
  6
CONTINUOUS
 62
    30
 10
-252.5
 20
508.446685
 30
0.0
  0
POINT
  8
DEFPOINTS
  6
CONTINUOUS
 62
    30
 10
252.5
 20
508.446685
 30
0.0
  0
POINT
  8
DEFPOINTS
  6
CONTINUOUS
 62
    30
 10
252.5
 20
715.373768
 30
0.0
  0
ENDSEC
  0
EOF
