  0
SECTION
  2
HEADER
  9
$ACADVER
  1
AC1009
  9
$DWGCODEPAGE
  3
dos932
  9
$INSBASE
 10
0.0
 20
0.0
 30
0.0
  9
$EXTMIN
 10
-650.9763830000004
 20
-409.04441600000001
 30
0.0
  9
$EXTMAX
 10
974.05636623017153
 20
509.25626970778433
 30
0.0
  9
$LIMMIN
 10
-2970.0
 20
-2100.0
  9
$LIMMAX
 10
2970.0
 20
2100.0
  9
$ORTHOMODE
 70
     1
  9
$REGENMODE
 70
     1
  9
$FILLMODE
 70
     1
  9
$QTEXTMODE
 70
     0
  9
$MIRRTEXT
 70
     0
  9
$LTSCALE
 40
20.0
  9
$ATTMODE
 70
     1
  9
$TEXTSIZE
 40
64.0
  9
$TRACEWID
 40
0.05
  9
$TEXTSTYLE
  7
STANDARD
  9
$CLAYER
  8
SIZE
  9
$CELTYPE
  6
CONTINUOUS
  9
$CECOLOR
 62
     7
  9
$DIMSCALE
 40
1.0
  9
$DIMASZ
 40
12.0
  9
$DIMEXO
 40
20.0
  9
$DIMDLI
 40
200.0
  9
$DIMRND
 40
0.0
  9
$DIMDLE
 40
0.0
  9
$DIMEXE
 40
20.0
  9
$DIMTP
 40
0.0
  9
$DIMTM
 40
0.0
  9
$DIMTXT
 40
64.0
  9
$DIMCEN
 40
0.09
  9
$DIMTSZ
 40
0.0
  9
$DIMTOL
 70
     0
  9
$DIMLIM
 70
     0
  9
$DIMTIH
 70
     0
  9
$DIMTOH
 70
     0
  9
$DIMSE1
 70
     0
  9
$DIMSE2
 70
     0
  9
$DIMTAD
 70
     1
  9
$DIMZIN
 70
     8
  9
$DIMBLK
  1

  9
$DIMASO
 70
     1
  9
$DIMSHO
 70
     0
  9
$DIMPOST
  1

  9
$DIMAPOST
  1

  9
$DIMALT
 70
     0
  9
$DIMALTD
 70
     2
  9
$DIMALTF
 40
25.399999999999999
  9
$DIMLFAC
 40
1.0
  9
$DIMTOFL
 70
     1
  9
$DIMTVP
 40
0.0
  9
$DIMTIX
 70
     1
  9
$DIMSOXD
 70
     0
  9
$DIMSAH
 70
     0
  9
$DIMBLK1
  1

  9
$DIMBLK2
  1

  9
$DIMSTYLE
  2
STANDARD
  9
$DIMCLRD
 70
     7
  9
$DIMCLRE
 70
     7
  9
$DIMCLRT
 70
     7
  9
$DIMTFAC
 40
1.0
  9
$DIMGAP
 40
25.0
  9
$LUNITS
 70
     2
  9
$LUPREC
 70
     4
  9
$SKETCHINC
 40
0.1
  9
$FILLETRAD
 40
3.0
  9
$AUNITS
 70
     1
  9
$AUPREC
 70
     3
  9
$MENU
  1
ACAD
  9
$ELEVATION
 40
0.0
  9
$PELEVATION
 40
0.0
  9
$THICKNESS
 40
50.0
  9
$LIMCHECK
 70
     0
  9
$CHAMFERA
 40
0.0
  9
$CHAMFERB
 40
0.0
  9
$SKPOLY
 70
     0
  9
$TDCREATE
 40
2453019.62301037
  9
$TDUPDATE
 40
2458659.399469294
  9
$TDINDWG
 40
1.8539164468
  9
$TDUSRTIMER
 40
1.8539164468
  9
$USRTIMER
 70
     1
  9
$ANGBASE
 50
0.0
  9
$ANGDIR
 70
     0
  9
$PDMODE
 70
     3
  9
$PDSIZE
 40
-2.0
  9
$PLINEWID
 40
0.0
  9
$SPLFRAME
 70
     0
  9
$SPLINETYPE
 70
     6
  9
$SPLINESEGS
 70
     8
  9
$SURFTAB1
 70
     6
  9
$SURFTAB2
 70
     6
  9
$SURFTYPE
 70
     6
  9
$SURFU
 70
     6
  9
$SURFV
 70
     6
  9
$UCSNAME
  2

  9
$UCSORG
 10
0.0
 20
0.0
 30
0.0
  9
$UCSXDIR
 10
1.0
 20
0.0
 30
0.0
  9
$UCSYDIR
 10
0.0
 20
1.0
 30
0.0
  9
$PUCSNAME
  2

  9
$PUCSORG
 10
0.0
 20
0.0
 30
0.0
  9
$PUCSXDIR
 10
1.0
 20
0.0
 30
0.0
  9
$PUCSYDIR
 10
0.0
 20
1.0
 30
0.0
  9
$USERI1
 70
     0
  9
$USERI2
 70
     0
  9
$USERI3
 70
     0
  9
$USERI4
 70
     0
  9
$USERI5
 70
     0
  9
$USERR1
 40
20.0
  9
$USERR2
 40
0.0
  9
$USERR3
 40
0.0
  9
$USERR4
 40
0.0
  9
$USERR5
 40
0.0
  9
$WORLDVIEW
 70
     1
  9
$SHADEDGE
 70
     3
  9
$SHADEDIF
 70
    70
  9
$TILEMODE
 70
     1
  9
$MAXACTVP
 70
    48
  9
$PINSBASE
 10
0.0
 20
0.0
 30
0.0
  9
$PLIMCHECK
 70
     0
  9
$PEXTMIN
 10
-100000000000000000000.0
 20
-100000000000000000000.0
 30
-100000000000000000000.0
  9
$PEXTMAX
 10
100000000000000000000.0
 20
100000000000000000000.0
 30
100000000000000000000.0
  9
$PLIMMIN
 10
0.0
 20
0.0
  9
$PLIMMAX
 10
12.0
 20
9.0
  9
$UNITMODE
 70
     0
  9
$VISRETAIN
 70
     0
  9
$PLINEGEN
 70
     0
  9
$PSLTSCALE
 70
     0
  9
$TREEDEPTH
 70
  3020
  9
$ATTDIA
 70
     0
  9
$ATTREQ
 70
     1
  9
$BLIPMODE
 70
     1
  9
$COORDS
 70
     1
  9
$DRAGMODE
 70
     2
  9
$OSMODE
 70
     0
  9
$HANDLING
 70
     0
  9
$HANDSEED
  5
10197
  0
ENDSEC
  0
SECTION
  2
TABLES
  0
TABLE
  2
LTYPE
 70
     2
  0
LTYPE
  2
CONTINUOUS
 70
     0
  3
実線
 72
    65
 73
     0
 40
0.0
  0
LTYPE
  2
DASHDOT
 70
     0
  3
____ _ ____ _ ____ _ ____ _ ____ _ ____ _ ____
 72
    65
 73
     4
 40
5.5
 49
4.0
 49
-0.6
 49
0.3
 49
-0.6
  0
ENDTAB
  0
TABLE
  2
LAYER
 70
    12
  0
LAYER
  2
0
 70
     0
 62
     7
  6
CONTINUOUS
  0
LAYER
  2
BASIS
 70
     0
 62
     6
  6
DASHDOT
  0
LAYER
  2
OUTLINE
 70
     0
 62
     3
  6
CONTINUOUS
  0
LAYER
  2
DETAIL
 70
     0
 62
     5
  6
CONTINUOUS
  0
LAYER
  2
SIZE
 70
     0
 62
    30
  6
CONTINUOUS
  0
LAYER
  2
ARRANGE
 70
     0
 62
     1
  6
CONTINUOUS
  0
LAYER
  2
DEFPOINTS
 70
     0
 62
     7
  6
CONTINUOUS
  0
LAYER
  2
ETC
 70
     0
 62
    61
  6
CONTINUOUS
  0
LAYER
  2
FIX
 70
     0
 62
    11
  6
CONTINUOUS
  0
LAYER
  2
NOTE
 70
     0
 62
     4
  6
CONTINUOUS
  0
LAYER
  2
SERVICESPACE
 70
    64
 62
     2
  6
DASHDOT
  0
LAYER
  2
SYMBOLLINE
 70
    64
 62
    15
  6
CONTINUOUS
  0
ENDTAB
  0
TABLE
  2
STYLE
 70
     1
  0
STYLE
  2
STANDARD
 70
     0
 40
64.0
 41
0.9
 50
0.0
 71
     0
 42
64.0
  3
SIMPLEX.shx
  4
BIGFONT.shx
  0
ENDTAB
  0
TABLE
  2
APPID
 70
    18
  0
APPID
  2
ACAD
 70
     0
  0
APPID
  2
AUTOCAD_POSTSCRIPT_FIGURE
 70
     0
  0
APPID
  2
ACAD_EXEMPT_FROM_CAD_STANDARDS
 70
     0
  0
APPID
  2
ACAD_PSEXT
 70
     0
  0
APPID
  2
ACAUTHENVIRON
 70
     0
  0
APPID
  2
GENIUS_GENOENT_13
 70
     0
  0
APPID
  2
GENIUS_GENCFG_13
 70
     0
  0
APPID
  2
GENIUS_GENCFG0_13
 70
     0
  0
APPID
  2
GENIUS_GENCFG1_13
 70
     0
  0
APPID
  2
GENIUS_GENCFG2_13
 70
     0
  0
APPID
  2
GENIUS_GENCFG3_13
 70
     0
  0
APPID
  2
GENIUS_GENCFG4_13
 70
     0
  0
APPID
  2
GENIUS_GEVCFG0_13
 70
     0
  0
APPID
  2
CONTENTBLOCKICON
 70
     0
  0
APPID
  2
CONTENTBLOCKDESCRIPTION
 70
     0
  0
APPID
  2
ACAD_NAV_VCDISPLAY
 70
     0
  0
APPID
  2
ACAD_MLEADERVER
 70
     0
  0
APPID
  2
ACAD_DSTYLE_DIMRADIAL_EXTENSION
 70
     0
  0
ENDTAB
  0
TABLE
  2
DIMSTYLE
 70
     1
  0
DIMSTYLE
  2
STANDARD
 70
     0
  3

  4

  5
_ORIGIN
  6

  7

 40
1.0
 41
12.0
 42
20.0
 43
200.0
 44
20.0
 45
0.0
 46
0.0
 47
0.0
 48
0.0
140
64.0
141
0.09
142
0.0
143
25.399999999999999
144
1.0
145
0.0
146
1.0
147
25.0
 71
     0
 72
     0
 73
     0
 74
     0
 75
     0
 76
     0
 77
     1
 78
     8
170
     0
171
     2
172
     1
173
     0
174
     1
175
     0
176
     7
177
     7
178
     7
  0
ENDTAB
  0
TABLE
  2
VIEW
 70
     1
  0
VIEW
  2
ALL
 70
     0
 40
4282.6198079999986
 10
0.0
 20
41.309904000000003
 41
5940.0
 11
0.0
 21
0.0
 31
1.0
 12
0.0
 22
0.0
 32
0.0
 42
50.0
 43
0.0
 44
0.0
 50
0.0
 71
     0
  0
ENDTAB
  0
TABLE
  2
UCS
 70
     0
  0
ENDTAB
  0
TABLE
  2
VPORT
 70
     1
  0
VPORT
  2
*ACTIVE
 70
     0
 10
0.0
 20
0.0
 11
1.0
 21
1.0
 12
2.7892333474501361
 22
-236.7193609637188
 13
0.0
 23
0.0
 14
1.0
 24
1.0
 15
0.0
 25
0.0
 16
0.0
 26
0.0
 36
1.0
 17
0.0
 27
0.0
 37
0.0
 40
2051.685487877477
 41
2.0223642172523961
 42
50.0
 43
0.0
 44
0.0
 50
0.0
 51
0.0
 71
     0
 72
  1000
 73
     1
 74
     3
 75
     0
 76
     0
 77
     0
 78
     0
  0
ENDTAB
  0
ENDSEC
  0
SECTION
  2
BLOCKS
  0
BLOCK
  8
0
  2
_ORIGIN
 70
     0
 10
0.0
 20
0.0
 30
0.0
  3
_ORIGIN
  1
_ORIGIN
  0
CIRCLE
  8
0
  6
CONTINUOUS
 62
     7
 10
0.0
 20
0.0
 30
0.0
 40
0.5
  0
LINE
  8
0
  6
CONTINUOUS
 62
     7
 10
0.0
 20
0.0
 30
0.0
 11
-1.0
 21
0.0
 31
0.0
  0
ENDBLK
  8
0
  0
ENDSEC
  0
SECTION
  2
ENTITIES
  0
TEXT
  8
ETC
  6
CONTINUOUS
 62
    61
 10
356.91350908731471
 20
449.25626970778399
 30
0.0
 40
60.0
  1
BFS-180TUG2_2
 41
0.9
  0
TEXT
  8
ETC
  6
CONTINUOUS
 62
    61
 10
350.78618158731479
 20
355.13758720778378
 30
0.0
 40
60.0
  1
産業扇
 41
0.9
  0
TEXT
  8
ETC
  6
CONTINUOUS
 62
    61
 10
405.5372832222356
 20
284.56414480832018
 30
0.0
 40
40.0
  1
BFS-180TUG2
 41
0.9
  0
POINT
  8
ARRANGE
  6
CONTINUOUS
 62
     1
 10
0.0
 20
0.0
 30
0.0
 50
180.0
  0
LINE
  8
OUTLINE
  6
CONTINUOUS
 62
     3
 10
252.5
 20
0.0
 30
0.0
 11
-252.5
 21
0.0
 31
0.0
  0
LINE
  8
OUTLINE
  6
CONTINUOUS
 62
     3
 10
252.5
 20
-350.0
 30
0.0
 11
-252.5
 21
-350.0
 31
0.0
  0
LINE
  8
BASIS
  6
DASHDOT
 62
     6
 10
-327.08452499999999
 20
-175.0
 30
0.0
 11
327.08452499999999
 21
-175.0
 31
0.0
  0
LINE
  8
DETAIL
  6
CONTINUOUS
 62
     5
 10
252.5
 20
-350.0
 30
0.0
 11
-252.5
 21
-350.0
 31
0.0
  0
LINE
  8
DETAIL
  6
CONTINUOUS
 62
     5
 10
252.5
 20
0.0
 30
0.0
 11
-252.5
 21
0.0
 31
0.0
  0
LINE
  8
DETAIL
  6
CONTINUOUS
 62
     5
 10
204.8471650000001
 20
0.0
 30
0.0
 11
-252.5
 21
0.0
 31
0.0
  0
CIRCLE
  8
ARRANGE
  6
CONTINUOUS
 62
     1
 10
0.0
 20
0.0
 30
0.0
 40
44.210526000000002
  0
LINE
  8
OUTLINE
  6
CONTINUOUS
 62
     3
 10
310.5
 20
-165.0
 30
0.0
 11
310.5
 21
-192.606863
 31
0.0
  0
LINE
  8
OUTLINE
  6
CONTINUOUS
 62
     3
 10
218.19964100000021
 20
-212.465239
 30
0.0
 11
232.39060399999991
 21
-168.465239
 31
0.0
  0
LINE
  8
NOTE
  6
CONTINUOUS
 62
     4
 10
290.5
 20
-145.0
 30
0.0
 11
290.5
 21
-185.0
 31
0.0
  0
CIRCLE
  8
FIX
  6
CONTINUOUS
 62
    11
 10
290.5
 20
-165.0
 30
0.0
 40
5.5
  0
LINE
  8
DETAIL
  6
CONTINUOUS
 62
     5
 10
310.5
 20
-165.0
 30
0.0
 11
310.5
 21
-192.606863
 31
0.0
  0
LINE
  8
DETAIL
  6
CONTINUOUS
 62
     5
 10
218.19964100000021
 20
-212.465239
 30
0.0
 11
232.39060399999991
 21
-168.465239
 31
0.0
  0
LINE
  8
BASIS
  6
DASHDOT
 62
     6
 10
0.0
 20
-409.04441600000001
 30
0.0
 11
0.0
 21
59.044416000000012
 31
0.0
  0
ARC
  8
OUTLINE
  6
CONTINUOUS
 62
     3
 10
222.95826500000001
 20
-214.0
 30
0.0
 40
5.0
 50
162.12435200000121
 51
270.0
  0
ARC
  8
DETAIL
  6
CONTINUOUS
 62
     5
 10
222.95826500000001
 20
-214.0
 30
0.0
 40
5.0
 50
162.12435200000121
 51
270.0
  0
LINE
  8
OUTLINE
  6
CONTINUOUS
 62
     3
 10
247.6904789999999
 20
-219.0
 30
0.0
 11
247.6904789999999
 21
-350.0
 31
0.0
  0
LINE
  8
OUTLINE
  6
CONTINUOUS
 62
     3
 10
252.5
 20
-219.0
 30
0.0
 11
252.5
 21
-343.33333299999998
 31
0.0
  0
LINE
  8
DETAIL
  6
CONTINUOUS
 62
     5
 10
252.5
 20
-219.0
 30
0.0
 11
252.5
 21
-350.0
 31
0.0
  0
LINE
  8
DETAIL
  6
CONTINUOUS
 62
     5
 10
247.6904789999999
 20
-219.0
 30
0.0
 11
247.6904789999999
 21
-350.0
 31
0.0
  0
LINE
  8
OUTLINE
  6
CONTINUOUS
 62
     3
 10
222.95826500000001
 20
-219.0
 30
0.0
 11
295.44429300000002
 21
-219.0
 31
0.0
  0
LINE
  8
DETAIL
  6
CONTINUOUS
 62
     5
 10
222.95826500000001
 20
-219.0
 30
0.0
 11
295.44429300000002
 21
-219.0
 31
0.0
  0
LINE
  8
OUTLINE
  6
CONTINUOUS
 62
     3
 10
310.5
 20
-192.606863
 30
0.0
 11
295.44429300000002
 21
-219.0
 31
0.0
  0
LINE
  8
DETAIL
  6
CONTINUOUS
 62
     5
 10
310.5
 20
-192.606863
 30
0.0
 11
295.44429300000002
 21
-219.0
 31
0.0
  0
LINE
  8
OUTLINE
  6
CONTINUOUS
 62
     3
 10
252.50000300000011
 20
-165.0
 30
0.0
 11
252.5
 21
0.0
 31
0.0
  0
LINE
  8
OUTLINE
  6
CONTINUOUS
 62
     3
 10
247.6904789999999
 20
-165.0
 30
0.0
 11
247.6904789999999
 21
0.0
 31
0.0
  0
LINE
  8
DETAIL
  6
CONTINUOUS
 62
     5
 10
247.6904789999999
 20
-165.0
 30
0.0
 11
247.6904789999999
 21
0.0
 31
0.0
  0
LINE
  8
DETAIL
  6
CONTINUOUS
 62
     5
 10
252.50000300000011
 20
-165.0
 30
0.0
 11
252.5
 21
0.0
 31
0.0
  0
LINE
  8
OUTLINE
  6
CONTINUOUS
 62
     3
 10
310.5
 20
-165.0
 30
0.0
 11
237.1492290000001
 21
-165.0
 31
0.0
  0
LINE
  8
DETAIL
  6
CONTINUOUS
 62
     5
 10
310.5
 20
-165.0
 30
0.0
 11
237.1492290000001
 21
-165.0
 31
0.0
  0
ARC
  8
OUTLINE
  6
CONTINUOUS
 62
     3
 10
237.1492290000001
 20
-170.0
 30
0.0
 40
5.0
 50
90.0
 51
162.12435200000121
  0
ARC
  8
DETAIL
  6
CONTINUOUS
 62
     5
 10
237.1492290000001
 20
-170.0
 30
0.0
 40
5.0
 50
90.0
 51
162.12435200000121
  0
LINE
  8
OUTLINE
  6
CONTINUOUS
 62
     3
 10
-221.32473200000001
 20
-212.465239
 30
0.0
 11
-235.51569500000011
 21
-168.465239
 31
0.0
  0
LINE
  8
OUTLINE
  6
CONTINUOUS
 62
     3
 10
-310.5
 20
-165.0
 30
0.0
 11
-310.5
 21
-192.606863
 31
0.0
  0
LINE
  8
DETAIL
  6
CONTINUOUS
 62
     5
 10
-310.5
 20
-165.0
 30
0.0
 11
-310.5
 21
-192.606863
 31
0.0
  0
LINE
  8
NOTE
  6
CONTINUOUS
 62
     4
 10
-290.5
 20
-145.0
 30
0.0
 11
-290.5
 21
-185.0
 31
0.0
  0
CIRCLE
  8
FIX
  6
CONTINUOUS
 62
    11
 10
-290.5
 20
-165.0
 30
0.0
 40
5.5
  0
LINE
  8
DETAIL
  6
CONTINUOUS
 62
     5
 10
-221.32473200000001
 20
-212.465239
 30
0.0
 11
-235.51569500000011
 21
-168.465239
 31
0.0
  0
ARC
  8
OUTLINE
  6
CONTINUOUS
 62
     3
 10
-226.08335600000009
 20
-214.0
 30
0.0
 40
5.0
 50
270.0
 51
17.875647999998861
  0
ARC
  8
DETAIL
  6
CONTINUOUS
 62
     5
 10
-226.08335600000009
 20
-214.0
 30
0.0
 40
5.0
 50
270.0
 51
17.875647999998861
  0
LINE
  8
OUTLINE
  6
CONTINUOUS
 62
     3
 10
-252.5
 20
-343.33333299999998
 30
0.0
 11
-252.5
 21
-219.0
 31
0.0
  0
LINE
  8
OUTLINE
  6
CONTINUOUS
 62
     3
 10
-247.69047599999999
 20
-219.0
 30
0.0
 11
-247.69047599999999
 21
-343.33333299999998
 31
0.0
  0
LINE
  8
DETAIL
  6
CONTINUOUS
 62
     5
 10
-247.69047599999999
 20
-219.0
 30
0.0
 11
-247.69047599999999
 21
-350.0
 31
0.0
  0
LINE
  8
DETAIL
  6
CONTINUOUS
 62
     5
 10
-252.5
 20
-350.0
 30
0.0
 11
-252.5
 21
-219.0
 31
0.0
  0
LINE
  8
OUTLINE
  6
CONTINUOUS
 62
     3
 10
-226.08335600000009
 20
-219.0
 30
0.0
 11
-298.5693839999999
 21
-219.0
 31
0.0
  0
LINE
  8
DETAIL
  6
CONTINUOUS
 62
     5
 10
-226.08335600000009
 20
-219.0
 30
0.0
 11
-298.5693839999999
 21
-219.0
 31
0.0
  0
LINE
  8
OUTLINE
  6
CONTINUOUS
 62
     3
 10
-310.5
 20
-192.606863
 30
0.0
 11
-298.5693839999999
 21
-219.0
 31
0.0
  0
LINE
  8
DETAIL
  6
CONTINUOUS
 62
     5
 10
-310.5
 20
-192.606863
 30
0.0
 11
-298.5693839999999
 21
-219.0
 31
0.0
  0
LINE
  8
OUTLINE
  6
CONTINUOUS
 62
     3
 10
-252.5
 20
0.0
 30
0.0
 11
-252.5
 21
-165.0
 31
0.0
  0
LINE
  8
OUTLINE
  6
CONTINUOUS
 62
     3
 10
-247.69047599999999
 20
-165.0
 30
0.0
 11
-247.69047599999999
 21
0.0
 31
0.0
  0
LINE
  8
DETAIL
  6
CONTINUOUS
 62
     5
 10
-247.69047599999999
 20
-165.0
 30
0.0
 11
-247.69047599999999
 21
0.0
 31
0.0
  0
LINE
  8
DETAIL
  6
CONTINUOUS
 62
     5
 10
-252.5
 20
-6.6666670000000181
 30
0.0
 11
-252.5
 21
-165.0
 31
0.0
  0
LINE
  8
OUTLINE
  6
CONTINUOUS
 62
     3
 10
-310.5
 20
-165.0
 30
0.0
 11
-240.27431999999999
 21
-165.0
 31
0.0
  0
LINE
  8
DETAIL
  6
CONTINUOUS
 62
     5
 10
-310.5
 20
-165.0
 30
0.0
 11
-240.27431999999999
 21
-165.0
 31
0.0
  0
ARC
  8
OUTLINE
  6
CONTINUOUS
 62
     3
 10
-240.27431999999999
 20
-170.0
 30
0.0
 40
5.0
 50
17.875647999998861
 51
90.0
  0
ARC
  8
DETAIL
  6
CONTINUOUS
 62
     5
 10
-240.27431999999999
 20
-170.0
 30
0.0
 40
5.0
 50
17.875647999998861
 51
90.0
  0
LINE
  8
DETAIL
  6
CONTINUOUS
 62
     5
 10
-275.70432199999999
 20
-60.437095999999997
 30
0.0
 11
-275.70432199999999
 21
-145.227777
 31
0.0
  0
ARC
  8
DETAIL
  6
CONTINUOUS
 62
     5
 10
-265.37037900000001
 20
-61.026641999999981
 30
0.0
 40
10.350745999999999
 50
88.381378999992847
 51
176.73484700000171
  0
ARC
  8
DETAIL
  6
CONTINUOUS
 62
     5
 10
-267.7587880000001
 20
-147.18631400000001
 30
0.0
 40
8.1833600000000004
 50
166.15290199999839
 51
260.41376500000172
  0
LINE
  8
DETAIL
  6
CONTINUOUS
 62
     5
 10
-265.07800700000013
 20
-50.680025999999998
 30
0.0
 11
-252.5
 21
-50.680025999999998
 31
0.0
  0
LINE
  8
DETAIL
  6
CONTINUOUS
 62
     5
 10
-269.121578
 20
-155.255403
 30
0.0
 11
-252.5
 21
-155.255403
 31
0.0
  0
ARC
  8
DETAIL
  6
CONTINUOUS
 62
     5
 10
-264.68736600000011
 20
-73.092176999999992
 30
0.0
 40
11.021967
 50
98.730143999990673
 51
178.27217399999989
  0
LINE
  8
DETAIL
  6
CONTINUOUS
 62
     5
 10
-266.36029000000008
 20
-62.197907999999977
 30
0.0
 11
-252.5
 21
-62.197907999999977
 31
0.0
  0
LINE
  8
OUTLINE
  6
CONTINUOUS
 62
     3
 10
-266.36029000000008
 20
-62.197907999999977
 30
0.0
 11
-252.5
 21
-62.197907999999977
 31
0.0
  0
LINE
  8
OUTLINE
  6
CONTINUOUS
 62
     3
 10
-265.07800700000013
 20
-50.680025999999998
 30
0.0
 11
-252.5
 21
-50.680025999999998
 31
0.0
  0
LINE
  8
OUTLINE
  6
CONTINUOUS
 62
     3
 10
-275.70432199999999
 20
-60.437095999999997
 30
0.0
 11
-275.70432199999999
 21
-145.227777
 31
0.0
  0
ARC
  8
OUTLINE
  6
CONTINUOUS
 62
     3
 10
-264.68736600000011
 20
-73.092176999999992
 30
0.0
 40
11.021967
 50
98.730143999990673
 51
178.27217399999989
  0
ARC
  8
OUTLINE
  6
CONTINUOUS
 62
     3
 10
-265.37037900000001
 20
-61.026641999999981
 30
0.0
 40
10.350745999999999
 50
88.381378999992847
 51
176.73484700000171
  0
LINE
  8
OUTLINE
  6
CONTINUOUS
 62
     3
 10
-269.121578
 20
-155.255403
 30
0.0
 11
-252.5
 21
-155.255403
 31
0.0
  0
ARC
  8
OUTLINE
  6
CONTINUOUS
 62
     3
 10
-267.7587880000001
 20
-147.18631400000001
 30
0.0
 40
8.1833600000000004
 50
166.15290199999839
 51
260.41376500000172
  0
CIRCLE
  8
DETAIL
  6
CONTINUOUS
 62
     5
 10
0.0
 20
-175.0
 30
0.0
 40
121.0
  0
CIRCLE
  8
DETAIL
  6
CONTINUOUS
 62
     5
 10
0.0
 20
-175.0
 30
0.0
 40
129.0
  0
LINE
  8
SIZE
  6
CONTINUOUS
 62
    30
 10
-252.5
 20
13.33333299999998
 30
0.0
 11
-252.5
 21
182.67392000000001
 31
0.0
  0
LINE
  8
SIZE
  6
CONTINUOUS
 62
    30
 10
252.5
 20
13.33334200000002
 30
0.0
 11
252.5
 21
182.67392000000001
 31
0.0
  0
LINE
  8
SIZE
  6
CONTINUOUS
 62
    30
 10
-250.5
 20
152.67392000000001
 30
0.0
 11
250.5
 21
152.67392000000001
 31
0.0
  0
CIRCLE
  8
SIZE
  6
CONTINUOUS
 62
    30
 10
-252.5
 20
152.67392000000001
 30
0.0
 40
6.0
  0
CIRCLE
  8
SIZE
  6
CONTINUOUS
 62
    30
 10
252.5
 20
152.67392000000001
 30
0.0
 40
6.0
  0
TEXT
  8
SIZE
  6
CONTINUOUS
 62
    30
 10
-74.05714285714285
 20
172.67392000000001
 30
0.0
 40
64.0
  1
505
 41
0.9
 72
     1
 11
0.0
 21
172.67392000000001
 31
0.0
  0
POINT
  8
DEFPOINTS
  6
CONTINUOUS
 62
    30
 10
-252.5
 20
-6.6666670000000181
 30
0.0
  0
POINT
  8
DEFPOINTS
  6
CONTINUOUS
 62
    30
 10
252.5
 20
-6.666657999999984
 30
0.0
  0
POINT
  8
DEFPOINTS
  6
CONTINUOUS
 62
    30
 10
252.5
 20
152.67392000000001
 30
0.0
  0
LINE
  8
SIZE
  6
CONTINUOUS
 62
    30
 10
290.5
 20
-124.1872037896273
 30
0.0
 11
290.5
 21
292.99946199999999
 31
0.0
  0
LINE
  8
SIZE
  6
CONTINUOUS
 62
    30
 10
-290.5
 20
-119.98345870573119
 30
0.0
 11
-290.5
 21
292.99946199999999
 31
0.0
  0
LINE
  8
SIZE
  6
CONTINUOUS
 62
    30
 10
288.5
 20
262.99946199999999
 30
0.0
 11
-288.5
 21
262.99946199999999
 31
0.0
  0
CIRCLE
  8
SIZE
  6
CONTINUOUS
 62
    30
 10
290.5
 20
262.99946199999999
 30
0.0
 40
6.0
  0
CIRCLE
  8
SIZE
  6
CONTINUOUS
 62
    30
 10
-290.5
 20
262.99946199999999
 30
0.0
 40
6.0
  0
TEXT
  8
SIZE
  6
CONTINUOUS
 62
    30
 10
-61.714285714285687
 20
282.99946199999999
 30
0.0
 40
64.0
  1
581
 41
0.9
 72
     1
 11
0.0
 21
282.99946199999999
 31
0.0
  0
POINT
  8
DEFPOINTS
  6
CONTINUOUS
 62
    30
 10
290.5
 20
-175.0
 30
0.0
  0
POINT
  8
DEFPOINTS
  6
CONTINUOUS
 62
    30
 10
-290.5
 20
-175.0
 30
0.0
  0
POINT
  8
DEFPOINTS
  6
CONTINUOUS
 62
    30
 10
-290.5
 20
262.99946199999999
 30
0.0
  0
LINE
  8
SIZE
  6
CONTINUOUS
 62
    30
 10
310.5
 20
-145.0
 30
0.0
 11
310.5
 21
436.64235400000013
 31
0.0
  0
LINE
  8
SIZE
  6
CONTINUOUS
 62
    30
 10
-310.5
 20
-145.0
 30
0.0
 11
-310.5
 21
436.64235400000013
 31
0.0
  0
LINE
  8
SIZE
  6
CONTINUOUS
 62
    30
 10
308.5
 20
406.64235400000013
 30
0.0
 11
-308.5
 21
406.64235400000013
 31
0.0
  0
CIRCLE
  8
SIZE
  6
CONTINUOUS
 62
    30
 10
310.5
 20
406.64235400000013
 30
0.0
 40
6.0
  0
CIRCLE
  8
SIZE
  6
CONTINUOUS
 62
    30
 10
-310.5
 20
406.64235400000013
 30
0.0
 40
6.0
  0
TEXT
  8
SIZE
  6
CONTINUOUS
 62
    30
 10
-61.714285714285701
 20
426.64235400000013
 30
0.0
 40
64.0
  1
621
 41
0.9
 72
     1
 11
0.0
 21
426.64235400000013
 31
0.0
  0
POINT
  8
DEFPOINTS
  6
CONTINUOUS
 62
    30
 10
310.5
 20
-165.0
 30
0.0
  0
POINT
  8
DEFPOINTS
  6
CONTINUOUS
 62
    30
 10
-310.5
 20
-165.0
 30
0.0
  0
POINT
  8
DEFPOINTS
  6
CONTINUOUS
 62
    30
 10
-310.5
 20
406.64235400000013
 30
0.0
  0
LINE
  8
SIZE
  6
CONTINUOUS
 62
    30
 10
556.0877230000001
 20
-363.73181599999998
 30
0.0
 11
116.47460700000011
 21
-214.53056900000001
 31
0.0
  0
LINE
  8
SIZE
  6
CONTINUOUS
 62
    30
 10
-116.47460700000011
 20
-135.46943099999999
 30
0.0
 11
-118.3685030000001
 21
-134.82665800000001
 31
0.0
  0
TEXT
  8
SIZE
  6
CONTINUOUS
 62
    30
 10
340.46426450636977
 20
-269.43039005907542
 30
0.0
 40
64.0
  1
φ242
 50
341.253176
 41
0.9
 72
     1
 11
448.77346500000021
 21
-306.18971399999998
 31
0.0
  0
LINE
  8
SIZE
  6
CONTINUOUS
 62
    30
 10
-114.58071100000009
 20
-136.11220399999999
 30
0.0
 11
114.58071100000009
 21
-213.88779600000001
 31
0.0
  0
CIRCLE
  8
SIZE
  6
CONTINUOUS
 62
    30
 10
-114.58071100000009
 20
-136.11220399999999
 30
0.0
 40
6.0
  0
CIRCLE
  8
SIZE
  6
CONTINUOUS
 62
    30
 10
114.58071100000009
 20
-213.88779600000001
 30
0.0
 40
6.0
  0
POINT
  8
DEFPOINTS
  6
CONTINUOUS
 62
    30
 10
114.58071100000009
 20
-213.88779600000001
 30
0.0
  0
POINT
  8
DEFPOINTS
  6
CONTINUOUS
 62
    30
 10
-114.58071100000009
 20
-136.11220399999999
 30
0.0
  0
LINE
  8
SIZE
  6
CONTINUOUS
 62
    30
 10
587.41619499999979
 20
15.43907000000002
 30
0.0
 11
124.6148130000001
 21
-134.600145
 31
0.0
  0
LINE
  8
SIZE
  6
CONTINUOUS
 62
    30
 10
-124.6148130000001
 20
-215.399855
 30
0.0
 11
-126.5173300000001
 21
-216.01664700000001
 31
0.0
  0
TEXT
  8
SIZE
  6
CONTINUOUS
 62
    30
 10
358.18641623206429
 20
-37.851968075545983
 30
0.0
 40
64.0
  1
φ258
 50
17.962593999999999
 41
0.9
 72
     1
 11
466.9885949999998
 21
-2.5785119999999888
 31
0.0
  0
LINE
  8
SIZE
  6
CONTINUOUS
 62
    30
 10
-122.71229700000001
 20
-214.783063
 30
0.0
 11
122.71229700000001
 21
-135.216937
 31
0.0
  0
CIRCLE
  8
SIZE
  6
CONTINUOUS
 62
    30
 10
-122.71229700000001
 20
-214.783063
 30
0.0
 40
6.0
  0
CIRCLE
  8
SIZE
  6
CONTINUOUS
 62
    30
 10
122.71229700000001
 20
-135.216937
 30
0.0
 40
6.0
  0
POINT
  8
DEFPOINTS
  6
CONTINUOUS
 62
    30
 10
122.71229700000001
 20
-135.216937
 30
0.0
  0
POINT
  8
DEFPOINTS
  6
CONTINUOUS
 62
    30
 10
-122.71229700000001
 20
-214.783063
 30
0.0
  0
LINE
  8
SIZE
  6
CONTINUOUS
 62
    30
 10
-267.69047599999999
 20
0.0
 30
0.0
 11
-596.97638300000017
 21
0.0
 31
0.0
  0
LINE
  8
SIZE
  6
CONTINUOUS
 62
    30
 10
-267.69047599999999
 20
-350.0
 30
0.0
 11
-596.97638300000017
 21
-350.0
 31
0.0
  0
LINE
  8
SIZE
  6
CONTINUOUS
 62
    30
 10
-566.97638300000017
 20
-2.0
 30
0.0
 11
-566.97638300000017
 21
-348.0
 31
0.0
  0
CIRCLE
  8
SIZE
  6
CONTINUOUS
 62
    30
 10
-566.97638300000017
 20
0.0
 30
0.0
 40
6.0
  0
CIRCLE
  8
SIZE
  6
CONTINUOUS
 62
    30
 10
-566.97638300000017
 20
-350.0
 30
0.0
 40
6.0
  0
TEXT
  8
SIZE
  6
CONTINUOUS
 62
    30
 10
-586.97638300000017
 20
-249.05714285714279
 30
0.0
 40
64.0
  1
350
 50
90.0
 41
0.9
 72
     1
 11
-586.97638300000017
 21
-175.0
 31
0.0
  0
POINT
  8
DEFPOINTS
  6
CONTINUOUS
 62
    30
 10
-247.69047599999999
 20
0.0
 30
0.0
  0
POINT
  8
DEFPOINTS
  6
CONTINUOUS
 62
    30
 10
-247.69047599999999
 20
-350.0
 30
0.0
  0
POINT
  8
DEFPOINTS
  6
CONTINUOUS
 62
    30
 10
-566.97638300000017
 20
-350.0
 30
0.0
  0
TEXT
  8
NOTE
  6
CONTINUOUS
 62
     4
 10
-491.92800499999998
 20
45.253126999999949
 30
0.0
 40
70.73684200000001
  1
AH
 41
0.9
  0
LINE
  8
NOTE
  6
CONTINUOUS
 62
     4
 10
-509.09186199999999
 20
26.225574999999939
 30
0.0
 11
-376.69652400000001
 21
26.225583000000029
 31
0.0
  0
LINE
  8
NOTE
  6
CONTINUOUS
 62
     4
 10
-290.5
 20
-165.0
 30
0.0
 11
-376.69652400000001
 21
26.225583000000029
 31
0.0
  0
LINE
  8
NOTE
  6
CONTINUOUS
 62
     4
 10
-320.75446099999999
 20
-132.76279
 30
0.0
 11
-290.5
 21
-165.0
 31
0.0
  0
LINE
  8
NOTE
  6
CONTINUOUS
 62
     4
 10
-290.5
 20
-165.0
 30
0.0
 11
-300.58252599999992
 21
-121.954527
 31
0.0
  0
ENDSEC
  0
EOF
