  0
SECTION
  2
HEADER
  9
$ACADVER
  1
AC1009
  9
$DWGCODEPAGE
  3
dos932
  9
$INSBASE
 10
0.0
 20
0.0
 30
0.0
  9
$EXTMIN
 10
-810.8102070000001
 20
-534.76018099999999
 30
0.0
  9
$EXTMAX
 10
949.95162040659625
 20
338.4771507197247
 30
0.0
  9
$LIMMIN
 10
-2970.0
 20
-2100.0
  9
$LIMMAX
 10
2970.0
 20
2100.0
  9
$ORTHOMODE
 70
     1
  9
$REGENMODE
 70
     1
  9
$FILLMODE
 70
     1
  9
$QTEXTMODE
 70
     0
  9
$MIRRTEXT
 70
     0
  9
$LTSCALE
 40
20.0
  9
$ATTMODE
 70
     1
  9
$TEXTSIZE
 40
64.0
  9
$TRACEWID
 40
0.05
  9
$TEXTSTYLE
  7
STANDARD
  9
$CLAYER
  8
SIZE
  9
$CELTYPE
  6
CONTINUOUS
  9
$CECOLOR
 62
     7
  9
$DIMSCALE
 40
1.0
  9
$DIMASZ
 40
12.0
  9
$DIMEXO
 40
20.0
  9
$DIMDLI
 40
200.0
  9
$DIMRND
 40
0.0
  9
$DIMDLE
 40
0.0
  9
$DIMEXE
 40
20.0
  9
$DIMTP
 40
0.0
  9
$DIMTM
 40
0.0
  9
$DIMTXT
 40
64.0
  9
$DIMCEN
 40
0.09
  9
$DIMTSZ
 40
0.0
  9
$DIMTOL
 70
     0
  9
$DIMLIM
 70
     0
  9
$DIMTIH
 70
     0
  9
$DIMTOH
 70
     0
  9
$DIMSE1
 70
     0
  9
$DIMSE2
 70
     0
  9
$DIMTAD
 70
     1
  9
$DIMZIN
 70
     8
  9
$DIMBLK
  1

  9
$DIMASO
 70
     1
  9
$DIMSHO
 70
     0
  9
$DIMPOST
  1

  9
$DIMAPOST
  1

  9
$DIMALT
 70
     0
  9
$DIMALTD
 70
     2
  9
$DIMALTF
 40
25.399999999999999
  9
$DIMLFAC
 40
1.0
  9
$DIMTOFL
 70
     1
  9
$DIMTVP
 40
0.0
  9
$DIMTIX
 70
     1
  9
$DIMSOXD
 70
     0
  9
$DIMSAH
 70
     0
  9
$DIMBLK1
  1

  9
$DIMBLK2
  1

  9
$DIMSTYLE
  2
STANDARD
  9
$DIMCLRD
 70
     7
  9
$DIMCLRE
 70
     7
  9
$DIMCLRT
 70
     7
  9
$DIMTFAC
 40
1.0
  9
$DIMGAP
 40
25.0
  9
$LUNITS
 70
     2
  9
$LUPREC
 70
     4
  9
$SKETCHINC
 40
0.1
  9
$FILLETRAD
 40
3.0
  9
$AUNITS
 70
     1
  9
$AUPREC
 70
     3
  9
$MENU
  1
ACAD
  9
$ELEVATION
 40
0.0
  9
$PELEVATION
 40
0.0
  9
$THICKNESS
 40
50.0
  9
$LIMCHECK
 70
     0
  9
$CHAMFERA
 40
0.0
  9
$CHAMFERB
 40
0.0
  9
$SKPOLY
 70
     0
  9
$TDCREATE
 40
2453019.62301037
  9
$TDUPDATE
 40
2458659.695278518
  9
$TDINDWG
 40
1.7638409259
  9
$TDUSRTIMER
 40
1.7638409259
  9
$USRTIMER
 70
     1
  9
$ANGBASE
 50
0.0
  9
$ANGDIR
 70
     0
  9
$PDMODE
 70
     3
  9
$PDSIZE
 40
-2.0
  9
$PLINEWID
 40
0.0
  9
$SPLFRAME
 70
     0
  9
$SPLINETYPE
 70
     6
  9
$SPLINESEGS
 70
     8
  9
$SURFTAB1
 70
     6
  9
$SURFTAB2
 70
     6
  9
$SURFTYPE
 70
     6
  9
$SURFU
 70
     6
  9
$SURFV
 70
     6
  9
$UCSNAME
  2

  9
$UCSORG
 10
0.0
 20
0.0
 30
0.0
  9
$UCSXDIR
 10
1.0
 20
0.0
 30
0.0
  9
$UCSYDIR
 10
0.0
 20
1.0
 30
0.0
  9
$PUCSNAME
  2

  9
$PUCSORG
 10
0.0
 20
0.0
 30
0.0
  9
$PUCSXDIR
 10
1.0
 20
0.0
 30
0.0
  9
$PUCSYDIR
 10
0.0
 20
1.0
 30
0.0
  9
$USERI1
 70
     0
  9
$USERI2
 70
     0
  9
$USERI3
 70
     0
  9
$USERI4
 70
     0
  9
$USERI5
 70
     0
  9
$USERR1
 40
20.0
  9
$USERR2
 40
0.0
  9
$USERR3
 40
0.0
  9
$USERR4
 40
0.0
  9
$USERR5
 40
0.0
  9
$WORLDVIEW
 70
     1
  9
$SHADEDGE
 70
     3
  9
$SHADEDIF
 70
    70
  9
$TILEMODE
 70
     1
  9
$MAXACTVP
 70
    48
  9
$PINSBASE
 10
0.0
 20
0.0
 30
0.0
  9
$PLIMCHECK
 70
     0
  9
$PEXTMIN
 10
-100000000000000000000.0
 20
-100000000000000000000.0
 30
-100000000000000000000.0
  9
$PEXTMAX
 10
100000000000000000000.0
 20
100000000000000000000.0
 30
100000000000000000000.0
  9
$PLIMMIN
 10
0.0
 20
0.0
  9
$PLIMMAX
 10
12.0
 20
9.0
  9
$UNITMODE
 70
     0
  9
$VISRETAIN
 70
     0
  9
$PLINEGEN
 70
     0
  9
$PSLTSCALE
 70
     0
  9
$TREEDEPTH
 70
  3020
  9
$ATTDIA
 70
     0
  9
$ATTREQ
 70
     1
  9
$BLIPMODE
 70
     1
  9
$COORDS
 70
     1
  9
$DRAGMODE
 70
     2
  9
$OSMODE
 70
     0
  9
$HANDLING
 70
     0
  9
$HANDSEED
  5
F00D
  0
ENDSEC
  0
SECTION
  2
TABLES
  0
TABLE
  2
LTYPE
 70
     2
  0
LTYPE
  2
CONTINUOUS
 70
     0
  3
実線
 72
    65
 73
     0
 40
0.0
  0
LTYPE
  2
DASHDOT
 70
     0
  3
____ _ ____ _ ____ _ ____ _ ____ _ ____ _ ____
 72
    65
 73
     4
 40
5.5
 49
4.0
 49
-0.6
 49
0.3
 49
-0.6
  0
ENDTAB
  0
TABLE
  2
LAYER
 70
    12
  0
LAYER
  2
0
 70
     0
 62
     7
  6
CONTINUOUS
  0
LAYER
  2
BASIS
 70
     0
 62
     6
  6
DASHDOT
  0
LAYER
  2
OUTLINE
 70
     0
 62
     3
  6
CONTINUOUS
  0
LAYER
  2
DETAIL
 70
     0
 62
     5
  6
CONTINUOUS
  0
LAYER
  2
SIZE
 70
     0
 62
    30
  6
CONTINUOUS
  0
LAYER
  2
ARRANGE
 70
     0
 62
     1
  6
CONTINUOUS
  0
LAYER
  2
DEFPOINTS
 70
     0
 62
     7
  6
CONTINUOUS
  0
LAYER
  2
ETC
 70
     0
 62
    61
  6
CONTINUOUS
  0
LAYER
  2
FIX
 70
     0
 62
    11
  6
CONTINUOUS
  0
LAYER
  2
NOTE
 70
     0
 62
     4
  6
CONTINUOUS
  0
LAYER
  2
SERVICESPACE
 70
    64
 62
     2
  6
DASHDOT
  0
LAYER
  2
SYMBOLLINE
 70
    64
 62
    15
  6
CONTINUOUS
  0
ENDTAB
  0
TABLE
  2
STYLE
 70
     1
  0
STYLE
  2
STANDARD
 70
     0
 40
64.0
 41
0.9
 50
0.0
 71
     0
 42
64.0
  3
SIMPLEX.shx
  4
BIGFONT.shx
  0
ENDTAB
  0
TABLE
  2
APPID
 70
    17
  0
APPID
  2
ACAD
 70
     0
  0
APPID
  2
AUTOCAD_POSTSCRIPT_FIGURE
 70
     0
  0
APPID
  2
ACAD_EXEMPT_FROM_CAD_STANDARDS
 70
     0
  0
APPID
  2
ACAD_PSEXT
 70
     0
  0
APPID
  2
ACAUTHENVIRON
 70
     0
  0
APPID
  2
GENIUS_GENOENT_13
 70
     0
  0
APPID
  2
GENIUS_GENCFG_13
 70
     0
  0
APPID
  2
GENIUS_GENCFG0_13
 70
     0
  0
APPID
  2
GENIUS_GENCFG1_13
 70
     0
  0
APPID
  2
GENIUS_GENCFG2_13
 70
     0
  0
APPID
  2
GENIUS_GENCFG3_13
 70
     0
  0
APPID
  2
GENIUS_GENCFG4_13
 70
     0
  0
APPID
  2
GENIUS_GEVCFG0_13
 70
     0
  0
APPID
  2
CONTENTBLOCKICON
 70
     0
  0
APPID
  2
CONTENTBLOCKDESCRIPTION
 70
     0
  0
APPID
  2
ACAD_NAV_VCDISPLAY
 70
     0
  0
APPID
  2
ACAD_MLEADERVER
 70
     0
  0
ENDTAB
  0
TABLE
  2
DIMSTYLE
 70
     1
  0
DIMSTYLE
  2
STANDARD
 70
     0
  3

  4

  5
_ORIGIN
  6

  7

 40
1.0
 41
12.0
 42
20.0
 43
200.0
 44
20.0
 45
0.0
 46
0.0
 47
0.0
 48
0.0
140
64.0
141
0.09
142
0.0
143
25.399999999999999
144
1.0
145
0.0
146
1.0
147
25.0
 71
     0
 72
     0
 73
     0
 74
     0
 75
     0
 76
     0
 77
     1
 78
     8
170
     0
171
     2
172
     1
173
     0
174
     1
175
     0
176
     7
177
     7
178
     7
  0
ENDTAB
  0
TABLE
  2
VIEW
 70
     1
  0
VIEW
  2
ALL
 70
     0
 40
4282.6198079999986
 10
0.0
 20
41.309904000000003
 41
5940.0
 11
0.0
 21
0.0
 31
1.0
 12
0.0
 22
0.0
 32
0.0
 42
50.0
 43
0.0
 44
0.0
 50
0.0
 71
     0
  0
ENDTAB
  0
TABLE
  2
UCS
 70
     0
  0
ENDTAB
  0
TABLE
  2
VPORT
 70
     1
  0
VPORT
  2
*ACTIVE
 70
     0
 10
0.0
 20
0.0
 11
1.0
 21
1.0
 12
146.8559625714571
 22
-98.052968850887737
 13
0.0
 23
0.0
 14
1.0
 24
1.0
 15
0.0
 25
0.0
 16
0.0
 26
0.0
 36
1.0
 17
0.0
 27
0.0
 37
0.0
 40
1069.3913789118781
 41
1.7980884109916371
 42
50.0
 43
0.0
 44
0.0
 50
0.0
 51
0.0
 71
     0
 72
  1000
 73
     1
 74
     3
 75
     0
 76
     0
 77
     0
 78
     0
  0
ENDTAB
  0
ENDSEC
  0
SECTION
  2
BLOCKS
  0
BLOCK
  8
0
  2
_ORIGIN
 70
     0
 10
0.0
 20
0.0
 30
0.0
  3
_ORIGIN
  1
_ORIGIN
  0
CIRCLE
  8
0
  6
CONTINUOUS
 62
     7
 10
0.0
 20
0.0
 30
0.0
 40
0.5
  0
LINE
  8
0
  6
CONTINUOUS
 62
     7
 10
0.0
 20
0.0
 30
0.0
 11
-1.0
 21
0.0
 31
0.0
  0
ENDBLK
  8
0
  0
ENDSEC
  0
SECTION
  2
ENTITIES
  0
TEXT
  8
ETC
  6
CONTINUOUS
 62
    61
 10
325.09447754945319
 20
234.29598404928379
 30
0.0
 40
60.0
  1
BFS-20SLDC2_4
 41
0.9
  0
TEXT
  8
ETC
  6
CONTINUOUS
 62
    61
 10
318.96715004945332
 20
140.17730154928361
 30
0.0
 40
60.0
  1
産業扇
 41
0.9
  0
TEXT
  8
ETC
  6
CONTINUOUS
 62
    61
 10
373.71825168437391
 20
69.603859149819982
 30
0.0
 40
40.0
  1
BFS-20SLDC2
 41
0.9
  0
CIRCLE
  8
ARRANGE
  6
CONTINUOUS
 62
     1
 10
0.0
 20
0.0
 30
0.0
 40
44.210526000000002
  0
POINT
  8
ARRANGE
  6
CONTINUOUS
 62
     1
 10
0.0
 20
0.0
 30
0.0
  0
LINE
  8
SIZE
  6
CONTINUOUS
 62
    30
 10
167.5
 20
-243.38885200000001
 30
0.0
 11
167.5
 21
-534.76018099999999
 31
0.0
  0
LINE
  8
SIZE
  6
CONTINUOUS
 62
    30
 10
-167.5
 20
-242.778378
 30
0.0
 11
-167.5
 21
-534.76018099999999
 31
0.0
  0
LINE
  8
SIZE
  6
CONTINUOUS
 62
    30
 10
165.5
 20
-504.76018099999987
 30
0.0
 11
-190.5
 21
-504.76018099999987
 31
0.0
  0
CIRCLE
  8
SIZE
  6
CONTINUOUS
 62
    30
 10
167.5
 20
-504.76018099999987
 30
0.0
 40
6.0
  0
CIRCLE
  8
SIZE
  6
CONTINUOUS
 62
    30
 10
-167.5
 20
-504.76018099999987
 30
0.0
 40
6.0
  0
TEXT
  8
SIZE
  6
CONTINUOUS
 62
    30
 10
-80.30714285714285
 20
-484.76018099999987
 30
0.0
 40
64.0
  1
335
 41
0.9
 72
     1
 11
-6.25
 21
-484.76018099999987
 31
0.0
  0
POINT
  8
DEFPOINTS
  6
CONTINUOUS
 62
    30
 10
167.5
 20
-223.38885200000001
 30
0.0
  0
POINT
  8
DEFPOINTS
  6
CONTINUOUS
 62
    30
 10
-192.5
 20
-504.76018099999987
 30
0.0
  0
LINE
  8
SIZE
  6
CONTINUOUS
 62
    30
 10
-167.5
 20
-234.67262000000011
 30
0.0
 11
-167.5
 21
-534.76018099999999
 31
0.0
  0
LINE
  8
SIZE
  6
CONTINUOUS
 62
    30
 10
-227.5
 20
-179.714572
 30
0.0
 11
-227.5
 21
-534.76018099999999
 31
0.0
  0
LINE
  8
SIZE
  6
CONTINUOUS
 62
    30
 10
-194.5
 20
-504.76018099999987
 30
0.0
 11
-250.5
 21
-504.76018099999987
 31
0.0
  0
LINE
  8
SIZE
  6
CONTINUOUS
 62
    30
 10
-484.62332900000001
 20
-504.76018099999987
 30
0.0
 11
-227.5
 21
-504.76018099999987
 31
0.0
  0
TEXT
  8
SIZE
  6
CONTINUOUS
 62
    30
 10
-464.62332842857143
 20
-484.76018099999987
 30
0.0
 40
64.0
  1
60
 41
0.9
 72
     1
 11
-417.99475699999988
 21
-484.76018099999987
 31
0.0
  0
CIRCLE
  8
SIZE
  6
CONTINUOUS
 62
    30
 10
-167.5
 20
-504.76018099999987
 30
0.0
 40
6.0
  0
CIRCLE
  8
SIZE
  6
CONTINUOUS
 62
    30
 10
-227.5
 20
-504.76018099999987
 30
0.0
 40
6.0
  0
POINT
  8
DEFPOINTS
  6
CONTINUOUS
 62
    30
 10
-227.5
 20
-159.714572
 30
0.0
  0
POINT
  8
DEFPOINTS
  6
CONTINUOUS
 62
    30
 10
-252.5
 20
-504.76018099999987
 30
0.0
  0
LINE
  8
DETAIL
  6
CONTINUOUS
 62
     5
 10
-167.5
 20
-2.190143000000035
 30
0.0
 11
-167.5
 21
-222.778378
 31
0.0
  0
LINE
  8
SIZE
  6
CONTINUOUS
 62
    30
 10
167.5
 20
-234.893551
 30
0.0
 11
167.5
 21
-534.76018099999999
 31
0.0
  0
LINE
  8
SIZE
  6
CONTINUOUS
 62
    30
 10
227.5
 20
-169.081346
 30
0.0
 11
227.5
 21
-534.76018099999999
 31
0.0
  0
LINE
  8
SIZE
  6
CONTINUOUS
 62
    30
 10
169.5
 20
-504.76018099999987
 30
0.0
 11
225.5
 21
-504.76018099999987
 31
0.0
  0
LINE
  8
SIZE
  6
CONTINUOUS
 62
    30
 10
457.09537799999998
 20
-504.76018099999987
 30
0.0
 11
227.5
 21
-504.76018099999987
 31
0.0
  0
TEXT
  8
SIZE
  6
CONTINUOUS
 62
    30
 10
343.83823457142847
 20
-484.76018099999987
 30
0.0
 40
64.0
  1
60
 41
0.9
 72
     1
 11
390.46680599999991
 21
-484.76018099999987
 31
0.0
  0
CIRCLE
  8
SIZE
  6
CONTINUOUS
 62
    30
 10
167.5
 20
-504.76018099999987
 30
0.0
 40
6.0
  0
CIRCLE
  8
SIZE
  6
CONTINUOUS
 62
    30
 10
227.5
 20
-504.76018099999987
 30
0.0
 40
6.0
  0
POINT
  8
DEFPOINTS
  6
CONTINUOUS
 62
    30
 10
167.5
 20
-214.893551
 30
0.0
  0
POINT
  8
DEFPOINTS
  6
CONTINUOUS
 62
    30
 10
227.5
 20
-149.081346
 30
0.0
  0
POINT
  8
DEFPOINTS
  6
CONTINUOUS
 62
    30
 10
227.5
 20
-504.76018099999987
 30
0.0
  0
LINE
  8
DETAIL
  6
CONTINUOUS
 62
     5
 10
-167.5
 20
0.0
 30
0.0
 11
167.5
 21
0.0
 31
0.0
  0
LINE
  8
DETAIL
  6
CONTINUOUS
 62
     5
 10
-167.5
 20
0.0
 30
0.0
 11
-167.5
 21
-225.0
 31
0.0
  0
LINE
  8
DETAIL
  6
CONTINUOUS
 62
     5
 10
-167.5
 20
-20.825472999999992
 30
0.0
 11
-167.5
 21
-204.33506600000001
 31
0.0
  0
CIRCLE
  8
DETAIL
  6
CONTINUOUS
 62
     5
 10
-139.89232399999989
 20
-113.33698800000001
 30
0.0
 40
5.0
  0
LINE
  8
DETAIL
  6
CONTINUOUS
 62
     5
 10
-133.62879599999999
 20
-104.855716
 30
0.0
 11
-133.62879599999999
 21
-117.838229
 31
0.0
  0
ARC
  8
DETAIL
  6
CONTINUOUS
 62
     5
 10
-161.4417039864575
 20
-110.4771915052947
 30
0.0
 40
7.599094
 50
97.717030999993682
 51
183.29947299999671
  0
ARC
  8
DETAIL
  6
CONTINUOUS
 62
     5
 10
-161.6910849864573
 20
-110.6154675052947
 30
0.0
 40
5.8161149999999999
 50
97.983100000004896
 51
182.85127899999759
  0
CIRCLE
  8
DETAIL
  6
CONTINUOUS
 62
     5
 10
-159.241432
 20
-113.031058
 30
0.0
 40
5.0
  0
CIRCLE
  8
DETAIL
  6
CONTINUOUS
 62
     5
 10
-159.241432
 20
-113.031058
 30
0.0
 40
5.0
  0
LINE
  8
DETAIL
  6
CONTINUOUS
 62
     5
 10
-136.59555399999999
 20
-121.445711
 30
0.0
 11
-165.7601589999999
 21
-121.409676
 31
0.0
  0
LINE
  8
DETAIL
  6
CONTINUOUS
 62
     5
 10
-167.5
 20
-110.904782
 30
0.0
 11
-167.5
 21
-137.75591900000001
 31
0.0
  0
ARC
  8
DETAIL
  6
CONTINUOUS
 62
     5
 10
-162.46103099999999
 20
-117.32551100000001
 30
0.0
 40
5.2502050000000002
 50
196.3080049999991
 51
231.06923999999219
  0
LINE
  8
DETAIL
  6
CONTINUOUS
 62
     5
 10
-167.5
 20
-131.66198700000001
 30
0.0
 11
-169.02820100000011
 21
-131.66198700000001
 31
0.0
  0
LINE
  8
DETAIL
  6
CONTINUOUS
 62
     5
 10
-170.52707199999989
 20
-128.998288
 30
0.0
 11
-169.01995700000001
 21
-129.698125
 31
0.0
  0
LINE
  8
DETAIL
  6
CONTINUOUS
 62
     5
 10
-169.02820100000011
 20
-124.33523700000001
 30
0.0
 11
-170.52707199999989
 21
-124.685632
 31
0.0
  0
LINE
  8
DETAIL
  6
CONTINUOUS
 62
     5
 10
-170.52707199999989
 20
-124.685632
 30
0.0
 11
-170.52707199999989
 21
-128.998288
 31
0.0
  0
LINE
  8
DETAIL
  6
CONTINUOUS
 62
     5
 10
-169.02820100000011
 20
-137.75591900000001
 30
0.0
 11
-169.02820100000011
 21
-110.914556
 31
0.0
  0
ARC
  8
DETAIL
  6
CONTINUOUS
 62
     5
 10
-137.02865
 20
-118.06588000000001
 30
0.0
 40
3.407467
 50
277.30215799999752
 51
3.830755000000547
  0
LINE
  8
DETAIL
  6
CONTINUOUS
 62
     5
 10
-133.62879599999999
 20
-104.855716
 30
0.0
 11
-162.4988330000001
 21
-104.855716
 31
0.0
  0
LINE
  8
DETAIL
  6
CONTINUOUS
 62
     5
 10
-162.4621159999999
 20
-102.94692000000001
 30
0.0
 11
-133.763811
 21
-102.94692000000001
 31
0.0
  0
ARC
  8
DETAIL
  6
CONTINUOUS
 62
     5
 10
-134.77025
 20
-109.441455
 30
0.0
 40
6.5720550000000006
 50
355.5889569999959
 51
81.191116999997391
  0
ARC
  8
DETAIL
  6
CONTINUOUS
 62
     5
 10
-135.19634999999991
 20
-109.76394500000001
 30
0.0
 40
5.152469
 50
357.9648759999975
 51
72.287943000000553
  0
LINE
  8
DETAIL
  6
CONTINUOUS
 62
     5
 10
167.5
 20
-6.9160130000000208
 30
0.0
 11
167.5
 21
-214.893551
 31
0.0
  0
ARC
  8
DETAIL
  6
CONTINUOUS
 62
     5
 10
161.6910849999999
 20
-110.615467
 30
0.0
 40
5.8161149999999999
 50
357.14872100000241
 51
82.016900000008249
  0
ARC
  8
DETAIL
  6
CONTINUOUS
 62
     5
 10
161.4417040000001
 20
-110.477191
 30
0.0
 40
7.599094
 50
356.70052700000332
 51
82.282969000006318
  0
LINE
  8
DETAIL
  6
CONTINUOUS
 62
     5
 10
133.62879599999999
 20
-104.855716
 30
0.0
 11
133.62879599999999
 21
-117.838229
 31
0.0
  0
CIRCLE
  8
DETAIL
  6
CONTINUOUS
 62
     5
 10
139.89232399999989
 20
-113.33698800000001
 30
0.0
 40
5.0
  0
CIRCLE
  8
DETAIL
  6
CONTINUOUS
 62
     5
 10
159.241432
 20
-113.031058
 30
0.0
 40
5.0
  0
CIRCLE
  8
DETAIL
  6
CONTINUOUS
 62
     5
 10
159.241432
 20
-113.031058
 30
0.0
 40
5.0
  0
LINE
  8
DETAIL
  6
CONTINUOUS
 62
     5
 10
136.59555399999999
 20
-121.445711
 30
0.0
 11
165.7601589999999
 21
-121.409676
 31
0.0
  0
ARC
  8
DETAIL
  6
CONTINUOUS
 62
     5
 10
137.02865
 20
-118.06588000000001
 30
0.0
 40
3.407467
 50
176.16924499999951
 51
262.69784200000248
  0
LINE
  8
DETAIL
  6
CONTINUOUS
 62
     5
 10
169.02820100000011
 20
-124.33523700000001
 30
0.0
 11
170.52707199999989
 21
-124.685632
 31
0.0
  0
LINE
  8
DETAIL
  6
CONTINUOUS
 62
     5
 10
170.52707199999989
 20
-124.685632
 30
0.0
 11
170.52707199999989
 21
-128.998288
 31
0.0
  0
ARC
  8
DETAIL
  6
CONTINUOUS
 62
     5
 10
162.46103099999999
 20
-117.32551100000001
 30
0.0
 40
5.2502050000000002
 50
308.93076000000792
 51
343.69199500000082
  0
LINE
  8
DETAIL
  6
CONTINUOUS
 62
     5
 10
169.02820100000011
 20
-137.75591900000001
 30
0.0
 11
169.02820100000011
 21
-110.914556
 31
0.0
  0
LINE
  8
DETAIL
  6
CONTINUOUS
 62
     5
 10
167.5
 20
-110.904782
 30
0.0
 11
167.5
 21
-137.75591900000001
 31
0.0
  0
LINE
  8
DETAIL
  6
CONTINUOUS
 62
     5
 10
167.5
 20
-137.75591900000001
 30
0.0
 11
169.02820100000011
 21
-137.75591900000001
 31
0.0
  0
LINE
  8
DETAIL
  6
CONTINUOUS
 62
     5
 10
167.5
 20
-131.66198700000001
 30
0.0
 11
169.02820100000011
 21
-131.66198700000001
 31
0.0
  0
LINE
  8
DETAIL
  6
CONTINUOUS
 62
     5
 10
170.52707199999989
 20
-128.998288
 30
0.0
 11
169.01995700000001
 21
-129.698125
 31
0.0
  0
LINE
  8
DETAIL
  6
CONTINUOUS
 62
     5
 10
162.4621159999999
 20
-102.94692000000001
 30
0.0
 11
133.763811
 21
-102.94692000000001
 31
0.0
  0
LINE
  8
DETAIL
  6
CONTINUOUS
 62
     5
 10
133.62879599999999
 20
-104.855716
 30
0.0
 11
162.4988330000001
 21
-104.855716
 31
0.0
  0
LINE
  8
DETAIL
  6
CONTINUOUS
 62
     5
 10
130.04713100000001
 20
-109.94692000000001
 30
0.0
 11
128.20326800000001
 21
-109.94692000000001
 31
0.0
  0
ARC
  8
DETAIL
  6
CONTINUOUS
 62
     5
 10
134.77025
 20
-109.441455
 30
0.0
 40
6.5720550000000006
 50
98.808883000002623
 51
184.41104300000401
  0
ARC
  8
DETAIL
  6
CONTINUOUS
 62
     5
 10
135.19634999999991
 20
-109.76394500000001
 30
0.0
 40
5.152469
 50
107.7120569999995
 51
182.03512400000241
  0
LINE
  8
DETAIL
  6
CONTINUOUS
 62
     5
 10
167.5
 20
0.0
 30
0.0
 11
167.5
 21
-225.0
 31
0.0
  0
LINE
  8
SIZE
  6
CONTINUOUS
 62
    30
 10
-182.6924427980193
 20
0.0
 30
0.0
 11
-756.81020699999999
 21
0.0
 31
0.0
  0
LINE
  8
SIZE
  6
CONTINUOUS
 62
    30
 10
-176.07576810828871
 20
-225.0
 30
0.0
 11
-756.81020699999999
 21
-225.0
 31
0.0
  0
LINE
  8
SIZE
  6
CONTINUOUS
 62
    30
 10
-726.81020699999999
 20
-2.0
 30
0.0
 11
-726.81020699999999
 21
-223.0
 31
0.0
  0
CIRCLE
  8
SIZE
  6
CONTINUOUS
 62
    30
 10
-726.81020699999999
 20
0.0
 30
0.0
 40
6.0
  0
CIRCLE
  8
SIZE
  6
CONTINUOUS
 62
    30
 10
-726.81020699999999
 20
-225.0
 30
0.0
 40
6.0
  0
TEXT
  8
SIZE
  6
CONTINUOUS
 62
    30
 10
-746.81020699999999
 20
-186.55714285714279
 30
0.0
 40
64.0
  1
225
 50
90.0
 41
0.9
 72
     1
 11
-746.81020699999999
 21
-112.5
 31
0.0
  0
POINT
  8
DEFPOINTS
  6
CONTINUOUS
 62
    30
 10
-207.09079900000009
 20
0.0
 30
0.0
  0
POINT
  8
DEFPOINTS
  6
CONTINUOUS
 62
    30
 10
-205.59119400000009
 20
-225.0
 30
0.0
  0
POINT
  8
DEFPOINTS
  6
CONTINUOUS
 62
    30
 10
-726.81020699999999
 20
-225.0
 30
0.0
  0
LINE
  8
SIZE
  6
CONTINUOUS
 62
    30
 10
-247.5
 20
-61.714571999999983
 30
0.0
 11
-493.88225199999988
 21
-61.714571999999983
 31
0.0
  0
LINE
  8
SIZE
  6
CONTINUOUS
 62
    30
 10
-247.5
 20
-159.714572
 30
0.0
 11
-493.88225199999988
 21
-159.714572
 31
0.0
  0
LINE
  8
SIZE
  6
CONTINUOUS
 62
    30
 10
-463.88225199999988
 20
-59.714571999999983
 30
0.0
 11
-463.88225199999988
 21
-57.714571999999983
 31
0.0
  0
LINE
  8
SIZE
  6
CONTINUOUS
 62
    30
 10
-463.88225199999988
 20
-161.714572
 30
0.0
 11
-463.88225199999988
 21
-163.714572
 31
0.0
  0
LINE
  8
SIZE
  6
CONTINUOUS
 62
    30
 10
-463.88225199999988
 20
-61.714571999999983
 30
0.0
 11
-463.88225199999988
 21
-413.58316829138312
 31
0.0
  0
CIRCLE
  8
SIZE
  6
CONTINUOUS
 62
    30
 10
-463.88225199999988
 20
-61.714571999999983
 30
0.0
 40
6.0
  0
CIRCLE
  8
SIZE
  6
CONTINUOUS
 62
    30
 10
-463.88225199999988
 20
-159.714572
 30
0.0
 40
6.0
  0
TEXT
  8
SIZE
  6
CONTINUOUS
 62
    30
 10
-483.88225199999988
 20
-406.70398037531629
 30
0.0
 40
64.0
  1
φ98
 50
90.0
 41
0.9
 72
     1
 11
-483.88225199999988
 21
-319.75540894674492
 31
0.0
  0
POINT
  8
DEFPOINTS
  6
CONTINUOUS
 62
    30
 10
-227.5
 20
-61.714571999999983
 30
0.0
  0
POINT
  8
DEFPOINTS
  6
CONTINUOUS
 62
    30
 10
-227.5
 20
-159.714572
 30
0.0
  0
POINT
  8
DEFPOINTS
  6
CONTINUOUS
 62
    30
 10
-463.88225199999988
 20
-159.714572
 30
0.0
  0
LINE
  8
SIZE
  6
CONTINUOUS
 62
    30
 10
-187.5
 20
-55.714571999999983
 30
0.0
 11
-628.95336100000009
 21
-55.714571999999983
 31
0.0
  0
LINE
  8
SIZE
  6
CONTINUOUS
 62
    30
 10
-187.5
 20
-165.714572
 30
0.0
 11
-628.95336100000009
 21
-165.714572
 31
0.0
  0
LINE
  8
SIZE
  6
CONTINUOUS
 62
    30
 10
-598.95336100000009
 20
-53.714571999999983
 30
0.0
 11
-598.95336100000009
 21
-51.714571999999983
 31
0.0
  0
LINE
  8
SIZE
  6
CONTINUOUS
 62
    30
 10
-598.95336100000009
 20
-167.714572
 30
0.0
 11
-598.95336100000009
 21
-169.714572
 31
0.0
  0
LINE
  8
SIZE
  6
CONTINUOUS
 62
    30
 10
-598.95336100000009
 20
-55.714571999999983
 30
0.0
 11
-598.95336100000009
 21
-445.16165603773061
 31
0.0
  0
CIRCLE
  8
SIZE
  6
CONTINUOUS
 62
    30
 10
-598.95336100000009
 20
-55.714571999999983
 30
0.0
 40
6.0
  0
CIRCLE
  8
SIZE
  6
CONTINUOUS
 62
    30
 10
-598.95336100000009
 20
-165.714572
 30
0.0
 40
6.0
  0
TEXT
  8
SIZE
  6
CONTINUOUS
 62
    30
 10
-618.95336100000009
 20
-434.34950837272271
 30
0.0
 40
64.0
  1
φ110
 50
90.0
 41
0.9
 72
     1
 11
-618.95336100000009
 21
-330.94379408700843
 31
0.0
  0
POINT
  8
DEFPOINTS
  6
CONTINUOUS
 62
    30
 10
-192.5
 20
-55.714571999999983
 30
0.0
  0
POINT
  8
DEFPOINTS
  6
CONTINUOUS
 62
    30
 10
-167.5
 20
-165.714572
 30
0.0
  0
POINT
  8
DEFPOINTS
  6
CONTINUOUS
 62
    30
 10
-598.95336100000009
 20
-165.714572
 30
0.0
  0
LINE
  8
SIZE
  6
CONTINUOUS
 62
    30
 10
167.5
 20
-234.893551
 30
0.0
 11
167.5
 21
-371.20450599999998
 31
0.0
  0
POINT
  8
DEFPOINTS
  6
CONTINUOUS
 62
    30
 10
167.5
 20
-214.893551
 30
0.0
  0
POINT
  8
DEFPOINTS
  6
CONTINUOUS
 62
    30
 10
167.5
 20
-341.20450599999998
 30
0.0
  0
LINE
  8
DETAIL
  6
CONTINUOUS
 62
     5
 10
-128.21766100000011
 20
-109.94692000000001
 30
0.0
 11
-130.04713100000001
 21
-109.94692000000001
 31
0.0
  0
LINE
  8
DETAIL
  6
CONTINUOUS
 62
     5
 10
-167.5
 20
-225.0
 30
0.0
 11
167.5
 21
-225.0
 31
0.0
  0
LINE
  8
BASIS
  6
DASHDOT
 62
     6
 10
-389.13753600000001
 20
-110.714572
 30
0.0
 11
414.13753600000018
 21
-110.714572
 31
0.0
  0
LINE
  8
DETAIL
  6
CONTINUOUS
 62
     5
 10
-169.02820100000011
 20
-137.75591900000001
 30
0.0
 11
-167.5
 21
-137.75591900000001
 31
0.0
  0
LINE
  8
DETAIL
  6
CONTINUOUS
 62
     5
 10
-170.49994899999999
 20
-55.971711000000028
 30
0.0
 11
-170.47811999999999
 21
-165.459305
 31
0.0
  0
LINE
  8
DETAIL
  6
CONTINUOUS
 62
     5
 10
-227.5
 20
-159.714572
 30
0.0
 11
-227.5
 21
-61.714571999999983
 31
0.0
  0
LINE
  8
DETAIL
  6
CONTINUOUS
 62
     5
 10
-223.85736399999999
 20
-160.02679800000001
 30
0.0
 11
-224.00194500000001
 21
-61.414738999999997
 31
0.0
  0
LINE
  8
DETAIL
  6
CONTINUOUS
 62
     5
 10
-227.5
 20
-159.714572
 30
0.0
 11
-167.5
 21
-165.714572
 31
0.0
  0
LINE
  8
DETAIL
  6
CONTINUOUS
 62
     5
 10
-167.5
 20
-55.714571999999983
 30
0.0
 11
-227.5
 21
-61.714571999999983
 31
0.0
  0
LINE
  8
DETAIL
  6
CONTINUOUS
 62
     5
 10
170.49994899999999
 20
-165.45743400000001
 30
0.0
 11
170.47811999999999
 21
-55.969839999999976
 31
0.0
  0
LINE
  8
DETAIL
  6
CONTINUOUS
 62
     5
 10
227.5
 20
-61.714571999999983
 30
0.0
 11
227.5
 21
-159.714572
 31
0.0
  0
LINE
  8
DETAIL
  6
CONTINUOUS
 62
     5
 10
223.85736399999999
 20
-61.402345999999973
 30
0.0
 11
224.00194500000001
 21
-160.01440600000001
 31
0.0
  0
LINE
  8
DETAIL
  6
CONTINUOUS
 62
     5
 10
227.5
 20
-61.714571999999983
 30
0.0
 11
167.5
 21
-55.714571999999983
 31
0.0
  0
LINE
  8
DETAIL
  6
CONTINUOUS
 62
     5
 10
167.5
 20
-165.714572
 30
0.0
 11
227.5
 21
-159.714572
 31
0.0
  0
LINE
  8
OUTLINE
  6
CONTINUOUS
 62
     3
 10
-167.5
 20
0.0
 30
0.0
 11
167.5
 21
0.0
 31
0.0
  0
LINE
  8
OUTLINE
  6
CONTINUOUS
 62
     3
 10
-167.5
 20
-225.0
 30
0.0
 11
167.5
 21
-225.0
 31
0.0
  0
LINE
  8
OUTLINE
  6
CONTINUOUS
 62
     3
 10
-167.5
 20
-2.190143000000035
 30
0.0
 11
-167.5
 21
-222.778378
 31
0.0
  0
LINE
  8
OUTLINE
  6
CONTINUOUS
 62
     3
 10
-167.5
 20
0.0
 30
0.0
 11
-167.5
 21
-225.0
 31
0.0
  0
LINE
  8
OUTLINE
  6
CONTINUOUS
 62
     3
 10
-167.5
 20
-20.825472999999992
 30
0.0
 11
-167.5
 21
-204.33506600000001
 31
0.0
  0
LINE
  8
OUTLINE
  6
CONTINUOUS
 62
     3
 10
-167.5
 20
-110.904782
 30
0.0
 11
-167.5
 21
-137.75591900000001
 31
0.0
  0
LINE
  8
OUTLINE
  6
CONTINUOUS
 62
     3
 10
167.5
 20
0.0
 30
0.0
 11
167.5
 21
-225.0
 31
0.0
  0
LINE
  8
OUTLINE
  6
CONTINUOUS
 62
     3
 10
167.5
 20
-6.9160130000000208
 30
0.0
 11
167.5
 21
-214.893551
 31
0.0
  0
LINE
  8
OUTLINE
  6
CONTINUOUS
 62
     3
 10
167.5
 20
-110.904782
 30
0.0
 11
167.5
 21
-137.75591900000001
 31
0.0
  0
LINE
  8
NOTE
  6
CONTINUOUS
 62
     4
 10
-150.0
 20
-102.88078
 30
0.0
 11
-285.97235599999999
 21
55.207334999999937
 31
0.0
  0
LINE
  8
NOTE
  6
CONTINUOUS
 62
     4
 10
-285.97235599999999
 20
55.207334999999937
 30
0.0
 11
-418.36769399999997
 21
55.207343000000037
 31
0.0
  0
TEXT
  8
NOTE
  6
CONTINUOUS
 62
     4
 10
-412.27305500000011
 20
74.234886999999958
 30
0.0
 40
70.73684200000001
  1
AH
 41
0.9
  0
LINE
  8
NOTE
  6
CONTINUOUS
 62
     4
 10
-166.68376600000011
 20
-61.939089000000017
 30
0.0
 11
-150.0
 21
-102.88078
 31
0.0
  0
LINE
  8
NOTE
  6
CONTINUOUS
 62
     4
 10
-150.0
 20
-102.88078
 30
0.0
 11
-184.91941099999991
 21
-75.766119000000003
 31
0.0
  0
LINE
  8
NOTE
  6
CONTINUOUS
 62
     4
 10
-150.0
 20
-82.880780000000016
 30
0.0
 11
-150.0
 21
-122.88078
 31
0.0
  0
CIRCLE
  8
FIX
  6
CONTINUOUS
 62
    11
 10
-150.0
 20
-102.88078
 30
0.0
 40
5.5
  0
LINE
  8
BASIS
  6
DASHDOT
 62
     6
 39
50.0
 10
0.0
 20
15.0
 30
0.0
 11
0.0
 21
-268.9764992015771
 31
0.0
  0
LINE
  8
NOTE
  6
CONTINUOUS
 62
     4
 10
150.0
 20
-82.880780000000016
 30
0.0
 11
150.0
 21
-122.88078
 31
0.0
  0
CIRCLE
  8
FIX
  6
CONTINUOUS
 62
    11
 10
150.0
 20
-102.88078
 30
0.0
 40
5.5
  0
LINE
  8
SIZE
  6
CONTINUOUS
 62
    30
 10
-150.0
 20
-62.880780000000023
 30
0.0
 11
-150.0
 21
156.1456202871004
 31
0.0
  0
LINE
  8
SIZE
  6
CONTINUOUS
 62
    30
 10
150.0
 20
-62.880780000000023
 30
0.0
 11
150.0
 21
156.1456202871004
 31
0.0
  0
LINE
  8
SIZE
  6
CONTINUOUS
 62
    30
 10
-138.0
 20
136.1456202871004
 30
0.0
 11
138.0
 21
136.1456202871004
 31
0.0
  0
CIRCLE
  8
SIZE
  6
CONTINUOUS
 62
    30
 10
-150.0
 20
136.1456202871004
 30
0.0
 40
6.0
  0
LINE
  8
SIZE
  6
CONTINUOUS
 62
    30
 10
-150.0
 20
136.1456202871004
 30
0.0
 11
-138.0
 21
136.1456202871004
 31
0.0
  0
CIRCLE
  8
SIZE
  6
CONTINUOUS
 62
    30
 10
150.0
 20
136.1456202871004
 30
0.0
 40
6.0
  0
LINE
  8
SIZE
  6
CONTINUOUS
 62
    30
 10
150.0
 20
136.1456202871004
 30
0.0
 11
138.0
 21
136.1456202871004
 31
0.0
  0
TEXT
  8
SIZE
  6
CONTINUOUS
 62
    30
 10
-81.504000000000005
 20
161.1456202871004
 30
0.0
 40
64.0
  1
300
 50
0.0
 41
0.9
 51
0.0
  7
STANDARD
 71
     0
 72
     1
 11
0.0
 21
161.1456202871004
 31
0.0
210
0.0
220
0.0
230
1.0
  0
POINT
  8
DEFPOINTS
  6
CONTINUOUS
 62
    30
 10
-150.0
 20
-82.880780000000016
 30
0.0
  0
POINT
  8
DEFPOINTS
  6
CONTINUOUS
 62
    30
 10
150.0
 20
-82.880780000000016
 30
0.0
  0
POINT
  8
DEFPOINTS
  6
CONTINUOUS
 62
    30
 10
150.0
 20
136.1456202871004
 30
0.0
  0
LINE
  8
SIZE
  6
CONTINUOUS
 62
    30
 10
-170.52707199999989
 20
-104.685632
 30
0.0
 11
-170.52707199999981
 21
269.4771507197247
 31
0.0
  0
LINE
  8
SIZE
  6
CONTINUOUS
 62
    30
 10
170.49181851203619
 20
-104.67739069977129
 30
0.0
 11
170.49181851203619
 21
269.4771507197247
 31
0.0
  0
LINE
  8
SIZE
  6
CONTINUOUS
 62
    30
 10
-158.52707199999981
 20
249.4771507197247
 30
0.0
 11
158.49181851203619
 21
249.4771507197247
 31
0.0
  0
CIRCLE
  8
SIZE
  6
CONTINUOUS
 62
    30
 10
-170.52707199999981
 20
249.4771507197247
 30
0.0
 40
6.0
  0
LINE
  8
SIZE
  6
CONTINUOUS
 62
    30
 10
-170.52707199999981
 20
249.4771507197247
 30
0.0
 11
-158.52707199999981
 21
249.4771507197247
 31
0.0
  0
CIRCLE
  8
SIZE
  6
CONTINUOUS
 62
    30
 10
170.49181851203619
 20
249.4771507197247
 30
0.0
 40
6.0
  0
LINE
  8
SIZE
  6
CONTINUOUS
 62
    30
 10
170.49181851203619
 20
249.4771507197247
 30
0.0
 11
158.49181851203619
 21
249.4771507197247
 31
0.0
  0
TEXT
  8
SIZE
  6
CONTINUOUS
 62
    30
 10
-75.185626743981814
 20
274.4771507197247
 30
0.0
 40
64.0
  1
341
 50
0.0
 41
0.9
 51
0.0
  7
STANDARD
 71
     0
 72
     1
 11
-0.0176267439818218
 21
274.4771507197247
 31
0.0
210
0.0
220
0.0
230
1.0
  0
POINT
  8
DEFPOINTS
  6
CONTINUOUS
 62
    30
 10
-170.52707199999989
 20
-124.685632
 30
0.0
  0
POINT
  8
DEFPOINTS
  6
CONTINUOUS
 62
    30
 10
170.49181851203619
 20
-124.67739069977129
 30
0.0
  0
POINT
  8
DEFPOINTS
  6
CONTINUOUS
 62
    30
 10
170.49181851203619
 20
249.4771507197247
 30
0.0
  0
LINE
  8
SIZE
  6
CONTINUOUS
 62
    30
 10
150.04713094654659
 20
-109.94692023196539
 30
0.0
 11
364.87833015997433
 21
-109.94692023196529
 31
0.0
  0
LINE
  8
SIZE
  6
CONTINUOUS
 62
    30
 10
182.46211600000001
 20
-102.94692000000001
 30
0.0
 11
364.87833015997433
 21
-102.94692000000001
 31
0.0
  0
LINE
  8
SIZE
  6
CONTINUOUS
 62
    30
 10
344.87833015997433
 20
-121.94692023196529
 30
0.0
 11
344.87833015997433
 21
-133.94692023196529
 31
0.0
  0
LINE
  8
SIZE
  6
CONTINUOUS
 62
    30
 10
344.87833015997433
 20
-90.946920000000006
 30
0.0
 11
344.87833015997433
 21
9.5094469999999589
 31
0.0
  0
LINE
  8
SIZE
  6
CONTINUOUS
 62
    30
 10
344.87833015997433
 20
-109.94692023196529
 30
0.0
 11
344.87833015997433
 21
-102.94692000000001
 31
0.0
  0
CIRCLE
  8
SIZE
  6
CONTINUOUS
 62
    30
 10
344.87833015997433
 20
-109.94692023196529
 30
0.0
 40
6.0
  0
LINE
  8
SIZE
  6
CONTINUOUS
 62
    30
 10
344.87833015997433
 20
-109.94692023196529
 30
0.0
 11
344.87833015997433
 21
-121.94692023196529
 31
0.0
  0
CIRCLE
  8
SIZE
  6
CONTINUOUS
 62
    30
 10
344.87833015997433
 20
-102.94692000000001
 30
0.0
 40
6.0
  0
LINE
  8
SIZE
  6
CONTINUOUS
 62
    30
 10
344.87833015997433
 20
-102.94692000000001
 30
0.0
 11
344.87833015997433
 21
-90.946920000000006
 31
0.0
  0
TEXT
  8
SIZE
  6
CONTINUOUS
 62
    30
 10
319.87833015997421
 20
-61.474553000000128
 30
0.0
 40
64.0
  1
7
 50
90.0
 41
0.9
 51
0.0
  7
STANDARD
 71
     0
 72
     1
 11
319.87833015997421
 21
-34.690553000000129
 31
0.0
210
0.0
220
0.0
230
1.0
  0
POINT
  8
DEFPOINTS
  6
CONTINUOUS
 62
    30
 10
130.04713094654659
 20
-109.94692023196539
 30
0.0
  0
POINT
  8
DEFPOINTS
  6
CONTINUOUS
 62
    30
 10
162.46211600000001
 20
-102.94692000000001
 30
0.0
  0
POINT
  8
DEFPOINTS
  6
CONTINUOUS
 62
    30
 10
344.87833015997433
 20
-102.94692000000001
 30
0.0
  0
ENDSEC
  0
EOF
