  0
SECTION
  2
HEADER
  9
$ACADVER
  1
AC1009
  9
$DWGCODEPAGE
  3
dos932
  9
$INSBASE
 10
0.0
 20
0.0
 30
0.0
  9
$EXTMIN
 10
-622.34745295000255
 20
-779.83499138228353
 30
0.0
  9
$EXTMAX
 10
1096.13501033066
 20
1272.974733256325
 30
0.0
  9
$LIMMIN
 10
-2970.0
 20
-2100.0
  9
$LIMMAX
 10
2970.0
 20
2100.0
  9
$ORTHOMODE
 70
     1
  9
$REGENMODE
 70
     1
  9
$FILLMODE
 70
     1
  9
$QTEXTMODE
 70
     0
  9
$MIRRTEXT
 70
     0
  9
$LTSCALE
 40
20.0
  9
$ATTMODE
 70
     1
  9
$TEXTSIZE
 40
64.0
  9
$TRACEWID
 40
0.05
  9
$TEXTSTYLE
  7
STANDARD
  9
$CLAYER
  8
SIZE
  9
$CELTYPE
  6
CONTINUOUS
  9
$CECOLOR
 62
     7
  9
$DIMSCALE
 40
1.0
  9
$DIMASZ
 40
12.0
  9
$DIMEXO
 40
20.0
  9
$DIMDLI
 40
200.0
  9
$DIMRND
 40
0.0
  9
$DIMDLE
 40
0.0
  9
$DIMEXE
 40
20.0
  9
$DIMTP
 40
0.0
  9
$DIMTM
 40
0.0
  9
$DIMTXT
 40
64.0
  9
$DIMCEN
 40
0.09
  9
$DIMTSZ
 40
0.0
  9
$DIMTOL
 70
     0
  9
$DIMLIM
 70
     0
  9
$DIMTIH
 70
     0
  9
$DIMTOH
 70
     0
  9
$DIMSE1
 70
     0
  9
$DIMSE2
 70
     0
  9
$DIMTAD
 70
     1
  9
$DIMZIN
 70
     8
  9
$DIMBLK
  1

  9
$DIMASO
 70
     1
  9
$DIMSHO
 70
     0
  9
$DIMPOST
  1

  9
$DIMAPOST
  1

  9
$DIMALT
 70
     0
  9
$DIMALTD
 70
     2
  9
$DIMALTF
 40
25.399999999999999
  9
$DIMLFAC
 40
1.0
  9
$DIMTOFL
 70
     1
  9
$DIMTVP
 40
0.0
  9
$DIMTIX
 70
     1
  9
$DIMSOXD
 70
     0
  9
$DIMSAH
 70
     0
  9
$DIMBLK1
  1

  9
$DIMBLK2
  1

  9
$DIMSTYLE
  2
STANDARD
  9
$DIMCLRD
 70
     7
  9
$DIMCLRE
 70
     7
  9
$DIMCLRT
 70
     7
  9
$DIMTFAC
 40
1.0
  9
$DIMGAP
 40
25.0
  9
$LUNITS
 70
     2
  9
$LUPREC
 70
     4
  9
$SKETCHINC
 40
0.1
  9
$FILLETRAD
 40
3.0
  9
$AUNITS
 70
     1
  9
$AUPREC
 70
     3
  9
$MENU
  1
ACAD
  9
$ELEVATION
 40
0.0
  9
$PELEVATION
 40
0.0
  9
$THICKNESS
 40
50.0
  9
$LIMCHECK
 70
     0
  9
$CHAMFERA
 40
0.0
  9
$CHAMFERB
 40
0.0
  9
$SKPOLY
 70
     0
  9
$TDCREATE
 40
2453019.623009259
  9
$TDUPDATE
 40
2459292.392632419
  9
$TDINDWG
 40
1.7150391319
  9
$TDUSRTIMER
 40
1.7150391319
  9
$USRTIMER
 70
     1
  9
$ANGBASE
 50
0.0
  9
$ANGDIR
 70
     0
  9
$PDMODE
 70
     3
  9
$PDSIZE
 40
-2.0
  9
$PLINEWID
 40
0.0
  9
$SPLFRAME
 70
     0
  9
$SPLINETYPE
 70
     6
  9
$SPLINESEGS
 70
     8
  9
$SURFTAB1
 70
     6
  9
$SURFTAB2
 70
     6
  9
$SURFTYPE
 70
     6
  9
$SURFU
 70
     6
  9
$SURFV
 70
     6
  9
$UCSNAME
  2

  9
$UCSORG
 10
0.0
 20
0.0
 30
0.0
  9
$UCSXDIR
 10
1.0
 20
0.0
 30
0.0
  9
$UCSYDIR
 10
0.0
 20
1.0
 30
0.0
  9
$PUCSNAME
  2

  9
$PUCSORG
 10
0.0
 20
0.0
 30
0.0
  9
$PUCSXDIR
 10
1.0
 20
0.0
 30
0.0
  9
$PUCSYDIR
 10
0.0
 20
1.0
 30
0.0
  9
$USERI1
 70
     0
  9
$USERI2
 70
     0
  9
$USERI3
 70
     0
  9
$USERI4
 70
     0
  9
$USERI5
 70
     0
  9
$USERR1
 40
20.0
  9
$USERR2
 40
0.0
  9
$USERR3
 40
0.0
  9
$USERR4
 40
0.0
  9
$USERR5
 40
0.0
  9
$WORLDVIEW
 70
     1
  9
$SHADEDGE
 70
     3
  9
$SHADEDIF
 70
    70
  9
$TILEMODE
 70
     1
  9
$MAXACTVP
 70
    48
  9
$PINSBASE
 10
0.0
 20
0.0
 30
0.0
  9
$PLIMCHECK
 70
     0
  9
$PEXTMIN
 10
-100000000000000000000.0
 20
-100000000000000000000.0
 30
-100000000000000000000.0
  9
$PEXTMAX
 10
100000000000000000000.0
 20
100000000000000000000.0
 30
100000000000000000000.0
  9
$PLIMMIN
 10
0.0
 20
0.0
  9
$PLIMMAX
 10
12.0
 20
9.0
  9
$UNITMODE
 70
     0
  9
$VISRETAIN
 70
     0
  9
$PLINEGEN
 70
     0
  9
$PSLTSCALE
 70
     0
  9
$TREEDEPTH
 70
  3020
  9
$ATTDIA
 70
     0
  9
$ATTREQ
 70
     1
  9
$BLIPMODE
 70
     1
  9
$COORDS
 70
     1
  9
$DRAGMODE
 70
     2
  9
$OSMODE
 70
     0
  9
$HANDLING
 70
     0
  9
$HANDSEED
  5
36E
  0
ENDSEC
  0
SECTION
  2
TABLES
  0
TABLE
  2
LTYPE
 70
     2
  0
LTYPE
  2
CONTINUOUS
 70
     0
  3
実線
 72
    65
 73
     0
 40
0.0
  0
LTYPE
  2
DASHDOT
 70
     0
  3
____ _ ____ _ ____ _ ____ _ ____ _ ____ _ ____
 72
    65
 73
     4
 40
5.5
 49
4.0
 49
-0.6
 49
0.3
 49
-0.6
  0
ENDTAB
  0
TABLE
  2
LAYER
 70
    12
  0
LAYER
  2
SIZE
 70
     0
 62
    30
  6
CONTINUOUS
  0
LAYER
  2
BASIS
 70
     0
 62
     6
  6
DASHDOT
  0
LAYER
  2
OUTLINE
 70
     0
 62
     3
  6
CONTINUOUS
  0
LAYER
  2
DETAIL
 70
     0
 62
     5
  6
CONTINUOUS
  0
LAYER
  2
ARRANGE
 70
     0
 62
     1
  6
CONTINUOUS
  0
LAYER
  2
DEFPOINTS
 70
     0
 62
     7
  6
CONTINUOUS
  0
LAYER
  2
ETC
 70
     0
 62
    61
  6
CONTINUOUS
  0
LAYER
  2
FIX
 70
     0
 62
    11
  6
CONTINUOUS
  0
LAYER
  2
NOTE
 70
     0
 62
     4
  6
CONTINUOUS
  0
LAYER
  2
0
 70
    64
 62
     7
  6
CONTINUOUS
  0
LAYER
  2
SERVICESPACE
 70
    64
 62
     2
  6
DASHDOT
  0
LAYER
  2
SYMBOLLINE
 70
    64
 62
    15
  6
CONTINUOUS
  0
ENDTAB
  0
TABLE
  2
STYLE
 70
     1
  0
STYLE
  2
STANDARD
 70
     0
 40
64.0
 41
0.9
 50
0.0
 71
     0
 42
64.0
  3
SIMPLEX.shx
  4
BIGFONT.shx
  0
ENDTAB
  0
TABLE
  2
APPID
 70
    20
  0
APPID
  2
ACAD
 70
     0
  0
APPID
  2
ACADANNOTATIVE
 70
     0
  0
APPID
  2
AUTOCAD_POSTSCRIPT_FIGURE
 70
     0
  0
APPID
  2
ACAD_EXEMPT_FROM_CAD_STANDARDS
 70
     0
  0
APPID
  2
ACAD_PSEXT
 70
     0
  0
APPID
  2
ACAUTHENVIRON
 70
     0
  0
APPID
  2
GENIUS_GENOENT_13
 70
     0
  0
APPID
  2
GENIUS_GENCFG_13
 70
     0
  0
APPID
  2
GENIUS_GENCFG0_13
 70
     0
  0
APPID
  2
GENIUS_GENCFG1_13
 70
     0
  0
APPID
  2
GENIUS_GENCFG2_13
 70
     0
  0
APPID
  2
GENIUS_GENCFG3_13
 70
     0
  0
APPID
  2
GENIUS_GENCFG4_13
 70
     0
  0
APPID
  2
GENIUS_GEVCFG0_13
 70
     0
  0
APPID
  2
CONTENTBLOCKICON
 70
     0
  0
APPID
  2
CONTENTBLOCKDESCRIPTION
 70
     0
  0
APPID
  2
ACAD_NAV_VCDISPLAY
 70
     0
  0
APPID
  2
ACAD_MLEADERVER
 70
     0
  0
APPID
  2
ACDBDYNAMICBLOCKTRUENAME
 70
     0
  0
APPID
  2
ACDBDYNAMICBLOCKGUID
 70
     0
  0
ENDTAB
  0
TABLE
  2
DIMSTYLE
 70
     1
  0
DIMSTYLE
  2
STANDARD
 70
     0
  3

  4

  5

  6

  7

 40
1.0
 41
12.0
 42
20.0
 43
200.0
 44
20.0
 45
0.0
 46
0.0
 47
0.0
 48
0.0
140
64.0
141
0.09
142
0.0
143
25.399999999999999
144
1.0
145
0.0
146
1.0
147
25.0
 71
     0
 72
     0
 73
     0
 74
     0
 75
     0
 76
     0
 77
     1
 78
     8
170
     0
171
     2
172
     1
173
     0
174
     1
175
     0
176
     7
177
     7
178
     7
  0
ENDTAB
  0
TABLE
  2
VIEW
 70
     1
  0
VIEW
  2
ALL
 70
     0
 40
4282.6198079999986
 10
0.0
 20
41.309904000000003
 41
5940.0
 11
0.0
 21
0.0
 31
1.0
 12
0.0
 22
0.0
 32
0.0
 42
50.0
 43
0.0
 44
0.0
 50
0.0
 71
     0
  0
ENDTAB
  0
TABLE
  2
UCS
 70
     0
  0
ENDTAB
  0
TABLE
  2
VPORT
 70
     1
  0
VPORT
  2
*ACTIVE
 70
     0
 10
0.0
 20
0.0
 11
1.0
 21
1.0
 12
256.99128303985322
 22
246.57441192140581
 13
0.0
 23
0.0
 14
1.0
 24
1.0
 15
0.0
 25
0.0
 16
0.0
 26
0.0
 36
1.0
 17
0.0
 27
0.0
 37
0.0
 40
2066.6355002518471
 41
1.767337807606264
 42
50.0
 43
0.0
 44
0.0
 50
0.0
 51
0.0
 71
     0
 72
  1000
 73
     1
 74
     3
 75
     0
 76
     0
 77
     0
 78
     0
  0
ENDTAB
  0
ENDSEC
  0
SECTION
  2
BLOCKS
  0
ENDSEC
  0
SECTION
  2
ENTITIES
  0
LINE
  8
DETAIL
  6
CONTINUOUS
 62
     5
 10
145.40360000000061
 20
508.0
 30
0.0
 11
-145.40359999960259
 21
508.0
 31
0.0
  0
LINE
  8
DETAIL
  6
CONTINUOUS
 62
     5
 10
-145.99999999960261
 20
495.47559999999987
 30
0.0
 11
146.00000000000051
 21
495.47559999999987
 31
0.0
  0
LINE
  8
DETAIL
  6
CONTINUOUS
 62
     5
 10
-295.99999999999949
 20
410.99999999999977
 30
0.0
 11
-213.2846152363804
 21
410.99999999999977
 31
0.0
  0
LINE
  8
DETAIL
  6
CONTINUOUS
 62
     5
 10
213.28461523677831
 20
410.99999999999977
 30
0.0
 11
296.0
 21
410.99999999999977
 31
0.0
  0
LINE
  8
DETAIL
  6
CONTINUOUS
 62
     5
 10
-212.68110235328871
 20
409.5904000000009
 30
0.0
 11
-210.66499468289479
 21
409.5904000000009
 31
0.0
  0
LINE
  8
DETAIL
  6
CONTINUOUS
 62
     5
 10
210.66499468289521
 20
409.5904000000009
 30
0.0
 11
212.68110235368661
 21
409.5904000000009
 31
0.0
  0
LINE
  8
DETAIL
  6
CONTINUOUS
 62
     5
 10
-213.048477408026
 20
408.9940000000006
 30
0.0
 11
-218.18077322441059
 21
408.9940000000006
 31
0.0
  0
LINE
  8
DETAIL
  6
CONTINUOUS
 62
     5
 10
-239.09339999999929
 20
408.9940000000006
 30
0.0
 11
-218.18077322441059
 21
408.9940000000006
 31
0.0
  0
LINE
  8
DETAIL
  6
CONTINUOUS
 62
     5
 10
213.04847740842391
 20
408.9940000000006
 30
0.0
 11
239.09340000039771
 21
408.9940000000006
 31
0.0
  0
LINE
  8
DETAIL
  6
CONTINUOUS
 62
     5
 10
-164.74998323360569
 20
408.59640000000041
 30
0.0
 11
164.74998323360569
 21
408.59640000000041
 31
0.0
  0
LINE
  8
DETAIL
  6
CONTINUOUS
 62
     5
 10
-239.09339999999929
 20
408.0
 30
0.0
 11
239.09340000039771
 21
408.0
 31
0.0
  0
LINE
  8
DETAIL
  6
CONTINUOUS
 62
     5
 10
-237.9999999996021
 20
405.51499999999942
 30
0.0
 11
-239.09339999999929
 21
405.51499999999942
 31
0.0
  0
LINE
  8
DETAIL
  6
CONTINUOUS
 62
     5
 10
238.0
 20
405.51499999999942
 30
0.0
 11
239.09340000039771
 21
405.51499999999942
 31
0.0
  0
LINE
  8
DETAIL
  6
CONTINUOUS
 62
     5
 10
-237.9999999996021
 20
370.50000000000068
 30
0.0
 11
-270.5329999999999
 21
370.50000000000068
 31
0.0
  0
LINE
  8
DETAIL
  6
CONTINUOUS
 62
     5
 10
-281.46699999960208
 20
370.50000000000068
 30
0.0
 11
-295.99999999999949
 21
370.50000000000068
 31
0.0
  0
LINE
  8
DETAIL
  6
CONTINUOUS
 62
     5
 10
238.0
 20
370.50000000000068
 30
0.0
 11
270.5329999999999
 21
370.50000000000068
 31
0.0
  0
LINE
  8
DETAIL
  6
CONTINUOUS
 62
     5
 10
281.4670000000001
 20
370.50000000000068
 30
0.0
 11
296.0
 21
370.50000000000068
 31
0.0
  0
LINE
  8
DETAIL
  6
CONTINUOUS
 62
     5
 10
-213.2298731598498
 20
410.99281606817362
 30
0.0
 11
-213.2846152363804
 21
410.99999999999977
 31
0.0
  0
LINE
  8
DETAIL
  6
CONTINUOUS
 62
     5
 10
-212.55225139169261
 20
408.00726800037222
 30
0.0
 11
-212.51093112738681
 21
408.0
 31
0.0
  0
LINE
  8
DETAIL
  6
CONTINUOUS
 62
     5
 10
-213.17226949608221
 20
410.97070637985757
 30
0.0
 11
-213.2298731598498
 21
410.99281606817362
 31
0.0
  0
LINE
  8
DETAIL
  6
CONTINUOUS
 62
     5
 10
-212.59438668430991
 20
408.02951895199112
 30
0.0
 11
-212.55225139169261
 21
408.00726800037222
 31
0.0
  0
LINE
  8
DETAIL
  6
CONTINUOUS
 62
     5
 10
-213.1118042454741
 20
410.93293764136962
 30
0.0
 11
-213.17226949608221
 21
410.97070637985757
 31
0.0
  0
LINE
  8
DETAIL
  6
CONTINUOUS
 62
     5
 10
-213.048477408026
 20
410.87893800848877
 30
0.0
 11
-213.1118042454741
 21
410.93293764136962
 31
0.0
  0
LINE
  8
DETAIL
  6
CONTINUOUS
 62
     5
 10
-212.63733700484229
 20
408.06731627752202
 30
0.0
 11
-212.59438668430991
 21
408.02951895199112
 31
0.0
  0
LINE
  8
DETAIL
  6
CONTINUOUS
 62
     5
 10
212.55225139209011
 20
408.00726800037222
 30
0.0
 11
212.51093112738729
 21
408.0
 31
0.0
  0
LINE
  8
DETAIL
  6
CONTINUOUS
 62
     5
 10
213.2298731602481
 20
410.99281606817362
 30
0.0
 11
213.28461523677831
 21
410.99999999999977
 31
0.0
  0
LINE
  8
DETAIL
  6
CONTINUOUS
 62
     5
 10
-236.80719999960229
 20
181.96440000000081
 30
0.0
 11
-237.9999999996021
 21
181.96440000000081
 31
0.0
  0
LINE
  8
DETAIL
  6
CONTINUOUS
 62
     5
 10
-236.80719999960229
 20
179.4794000000002
 30
0.0
 11
-239.3915999999995
 21
179.4794000000002
 31
0.0
  0
LINE
  8
DETAIL
  6
CONTINUOUS
 62
     5
 10
-212.68110235328871
 20
408.12106199151282
 30
0.0
 11
-212.63733700484229
 21
408.06731627752202
 31
0.0
  0
LINE
  8
DETAIL
  6
CONTINUOUS
 62
     5
 10
-212.7274348156775
 20
408.19002379587619
 30
0.0
 11
-212.68110235328871
 21
408.12106199151282
 31
0.0
  0
LINE
  8
DETAIL
  6
CONTINUOUS
 62
     5
 10
212.72743481607489
 20
-237.1900237958757
 30
0.0
 11
212.6811023536861
 21
-237.12106199151049
 31
0.0
  0
LINE
  8
DETAIL
  6
CONTINUOUS
 62
     5
 10
213.0036124204407
 20
-239.8100349391855
 30
0.0
 11
213.04847740842391
 21
-239.87893800848661
 31
0.0
  0
LINE
  8
DETAIL
  6
CONTINUOUS
 62
     5
 10
-213.0036124200428
 20
410.81003493918769
 30
0.0
 11
-213.048477408026
 21
410.87893800848877
 31
0.0
  0
LINE
  8
DETAIL
  6
CONTINUOUS
 62
     5
 10
212.77185051088961
 20
-237.27153778850109
 30
0.0
 11
212.72743481607489
 21
-237.1900237958757
 31
0.0
  0
LINE
  8
DETAIL
  6
CONTINUOUS
 62
     5
 10
212.96024132738279
 20
-239.7285545417719
 30
0.0
 11
213.0036124204407
 21
-239.8100349391855
 31
0.0
  0
LINE
  8
DETAIL
  6
CONTINUOUS
 62
     5
 10
212.81434943812971
 20
-237.36400420074409
 30
0.0
 11
212.77185051088961
 21
-237.27153778850109
 31
0.0
  0
LINE
  8
DETAIL
  6
CONTINUOUS
 62
     5
 10
212.91836412964861
 20
-239.63607469303429
 30
0.0
 11
212.96024132738279
 21
-239.7285545417719
 31
0.0
  0
LINE
  8
DETAIL
  6
CONTINUOUS
 62
     5
 10
212.85493159779529
 20
-237.46581737509899
 30
0.0
 11
212.81434943812971
 21
-237.36400420074409
 31
0.0
  0
LINE
  8
DETAIL
  6
CONTINUOUS
 62
     5
 10
212.6811023536861
 20
-238.5904000000005
 30
0.0
 11
212.91836412964861
 21
-239.63607469303429
 31
0.0
  0
LINE
  8
DETAIL
  6
CONTINUOUS
 62
     5
 10
212.85493159779529
 20
-237.46581737509899
 30
0.0
 11
213.00037260984161
 21
-237.8617599087261
 31
0.0
  0
LINE
  8
DETAIL
  6
CONTINUOUS
 62
     5
 10
213.00037260984161
 20
-237.8617599087261
 30
0.0
 11
213.04847740842391
 21
-237.99400000000011
 31
0.0
  0
LINE
  8
DETAIL
  6
CONTINUOUS
 62
     5
 10
213.17226949648011
 20
410.97070637985757
 30
0.0
 11
213.2298731602481
 21
410.99281606817362
 31
0.0
  0
LINE
  8
DETAIL
  6
CONTINUOUS
 62
     5
 10
213.04847740842391
 20
-239.87893800848661
 30
0.0
 11
213.11180424587201
 21
-239.93293764136911
 31
0.0
  0
LINE
  8
DETAIL
  6
CONTINUOUS
 62
     5
 10
212.63733700484229
 20
-237.06731627751969
 30
0.0
 11
212.59438668470781
 21
-237.0295189519907
 31
0.0
  0
LINE
  8
DETAIL
  6
CONTINUOUS
 62
     5
 10
212.6811023536861
 20
-237.12106199151049
 30
0.0
 11
212.63733700484229
 21
-237.06731627751969
 31
0.0
  0
LINE
  8
DETAIL
  6
CONTINUOUS
 62
     5
 10
-212.7718505104917
 20
408.27153778850152
 30
0.0
 11
-212.7274348156775
 21
408.19002379587619
 31
0.0
  0
LINE
  8
DETAIL
  6
CONTINUOUS
 62
     5
 10
-212.9602413269854
 20
410.72855454177238
 30
0.0
 11
-213.0036124200428
 21
410.81003493918769
 31
0.0
  0
LINE
  8
DETAIL
  6
CONTINUOUS
 62
     5
 10
212.5943866847083
 20
408.02951895199112
 30
0.0
 11
212.55225139209011
 21
408.00726800037222
 31
0.0
  0
LINE
  8
DETAIL
  6
CONTINUOUS
 62
     5
 10
-241.62809999999939
 20
-36.510135560967228
 30
0.0
 11
-242.4232999999995
 21
-36.510135560967228
 31
0.0
  0
LINE
  8
DETAIL
  6
CONTINUOUS
 62
     5
 10
212.59438668470781
 20
-237.0295189519907
 30
0.0
 11
212.55225139209011
 21
-237.00726800037
 31
0.0
  0
LINE
  8
DETAIL
  6
CONTINUOUS
 62
     5
 10
213.11180424587201
 20
-239.93293764136911
 30
0.0
 11
213.17226949647969
 21
-239.97070637985709
 31
0.0
  0
LINE
  8
DETAIL
  6
CONTINUOUS
 62
     5
 10
-212.81434943773141
 20
408.36400420074642
 30
0.0
 11
-212.7718505104917
 21
408.27153778850152
 31
0.0
  0
LINE
  8
DETAIL
  6
CONTINUOUS
 62
     5
 10
-212.9183641292507
 20
410.63607469303457
 30
0.0
 11
-212.9602413269854
 21
410.72855454177238
 31
0.0
  0
LINE
  8
DETAIL
  6
CONTINUOUS
 62
     5
 10
-212.85493159739741
 20
408.4658173750995
 30
0.0
 11
-212.81434943773141
 21
408.36400420074642
 31
0.0
  0
LINE
  8
DETAIL
  6
CONTINUOUS
 62
     5
 10
-212.68110235328871
 20
409.5904000000009
 30
0.0
 11
-212.9183641292507
 21
410.63607469303457
 31
0.0
  0
LINE
  8
DETAIL
  6
CONTINUOUS
 62
     5
 10
-212.85493159739741
 20
408.4658173750995
 30
0.0
 11
-213.00037260984121
 21
408.86175990872817
 31
0.0
  0
LINE
  8
DETAIL
  6
CONTINUOUS
 62
     5
 10
-213.00037260984121
 20
408.86175990872817
 30
0.0
 11
-213.048477408026
 21
408.9940000000006
 31
0.0
  0
LINE
  8
DETAIL
  6
CONTINUOUS
 62
     5
 10
213.11180424587201
 20
410.93293764136962
 30
0.0
 11
213.17226949648011
 21
410.97070637985757
 31
0.0
  0
LINE
  8
DETAIL
  6
CONTINUOUS
 62
     5
 10
-243.41729999999961
 20
-46.947130254200147
 30
0.0
 11
-242.82089999999971
 21
-46.947130254200147
 31
0.0
  0
LINE
  8
DETAIL
  6
CONTINUOUS
 62
     5
 10
-262.21518516946429
 20
-56.887129590606037
 30
0.0
 11
-245.4052999999999
 21
-56.887123184474603
 31
0.0
  0
LINE
  8
DETAIL
  6
CONTINUOUS
 62
     5
 10
213.17226949647969
 20
-239.97070637985709
 30
0.0
 11
213.2298731602481
 21
-239.9928160681732
 31
0.0
  0
LINE
  8
DETAIL
  6
CONTINUOUS
 62
     5
 10
-239.391598954709
 20
-147.83819999999969
 30
0.0
 11
-236.80719999960229
 21
-147.83819999999969
 31
0.0
  0
LINE
  8
DETAIL
  6
CONTINUOUS
 62
     5
 10
-236.80719999960229
 20
-151.31719999999899
 30
0.0
 11
-238.7951999999996
 21
-151.31719999999899
 31
0.0
  0
LINE
  8
DETAIL
  6
CONTINUOUS
 62
     5
 10
-262.20389999999952
 20
-155.29312826421261
 30
0.0
 11
-245.4052999999999
 21
-155.29312826421261
 31
0.0
  0
LINE
  8
DETAIL
  6
CONTINUOUS
 62
     5
 10
-243.41729999999961
 20
-165.2331302542002
 30
0.0
 11
-242.82089999999971
 21
-165.2331302542002
 31
0.0
  0
LINE
  8
DETAIL
  6
CONTINUOUS
 62
     5
 10
-242.4232999999999
 20
-165.73012998900001
 30
0.0
 11
-241.6280999999999
 21
-165.73012998900001
 31
0.0
  0
LINE
  8
DETAIL
  6
CONTINUOUS
 62
     5
 10
213.2298731602481
 20
-239.9928160681732
 30
0.0
 11
213.28461523677831
 21
-239.99999999999929
 31
0.0
  0
LINE
  8
DETAIL
  6
CONTINUOUS
 62
     5
 10
212.55225139209011
 20
-237.00726800037
 30
0.0
 11
212.51093112738681
 21
-236.99999999999949
 31
0.0
  0
LINE
  8
DETAIL
  6
CONTINUOUS
 62
     5
 10
212.63733700484269
 20
408.06731627752202
 30
0.0
 11
212.5943866847083
 21
408.02951895199112
 31
0.0
  0
LINE
  8
DETAIL
  6
CONTINUOUS
 62
     5
 10
213.04847740842391
 20
410.87893800848877
 30
0.0
 11
213.11180424587201
 21
410.93293764136962
 31
0.0
  0
LINE
  8
DETAIL
  6
CONTINUOUS
 62
     5
 10
-238.7951999999996
 20
-199.50000000000031
 30
0.0
 11
-270.5329999999999
 21
-199.50000000000031
 31
0.0
  0
LINE
  8
DETAIL
  6
CONTINUOUS
 62
     5
 10
-281.46699999960208
 20
-199.50000000000031
 30
0.0
 11
-295.99999999999949
 21
-199.50000000000031
 31
0.0
  0
LINE
  8
DETAIL
  6
CONTINUOUS
 62
     5
 10
238.0
 20
-199.50000000000031
 30
0.0
 11
270.5329999999999
 21
-199.50000000000031
 31
0.0
  0
LINE
  8
DETAIL
  6
CONTINUOUS
 62
     5
 10
281.4670000000001
 20
-199.50000000000031
 30
0.0
 11
296.0
 21
-199.50000000000031
 31
0.0
  0
LINE
  8
DETAIL
  6
CONTINUOUS
 62
     5
 10
-238.7951999999996
 20
-234.51499999999899
 30
0.0
 11
-239.09339999999969
 21
-234.51499999999899
 31
0.0
  0
LINE
  8
DETAIL
  6
CONTINUOUS
 62
     5
 10
238.0
 20
-234.51499999999899
 30
0.0
 11
239.09340000039771
 21
-234.51499999999899
 31
0.0
  0
LINE
  8
DETAIL
  6
CONTINUOUS
 62
     5
 10
-239.09339999999969
 20
-236.99999999999949
 30
0.0
 11
239.09340000039771
 21
-236.9999999999977
 31
0.0
  0
LINE
  8
DETAIL
  6
CONTINUOUS
 62
     5
 10
205.09860000039771
 20
-237.7951999999982
 30
0.0
 11
190.00000000039739
 21
-237.7951999999982
 31
0.0
  0
LINE
  8
DETAIL
  6
CONTINUOUS
 62
     5
 10
-190.0
 20
-237.7951999999982
 30
0.0
 11
-205.09859999999981
 21
-237.7951999999982
 31
0.0
  0
LINE
  8
DETAIL
  6
CONTINUOUS
 62
     5
 10
-239.09339999999969
 20
-237.99400000000011
 30
0.0
 11
-213.048477408026
 21
-237.99400000000011
 31
0.0
  0
LINE
  8
DETAIL
  6
CONTINUOUS
 62
     5
 10
213.04847740842391
 20
-237.99400000000011
 30
0.0
 11
218.18077322441101
 21
-237.99400000000011
 31
0.0
  0
LINE
  8
DETAIL
  6
CONTINUOUS
 62
     5
 10
218.18077322441101
 20
-237.99400000000011
 30
0.0
 11
239.09340000039771
 21
-237.99400000000011
 31
0.0
  0
LINE
  8
DETAIL
  6
CONTINUOUS
 62
     5
 10
-212.68110235328871
 20
-238.5904000000005
 30
0.0
 11
-210.66499468289479
 21
-238.5904000000005
 31
0.0
  0
LINE
  8
DETAIL
  6
CONTINUOUS
 62
     5
 10
210.66499468289521
 20
-238.5904000000005
 30
0.0
 11
212.6811023536861
 21
-238.5904000000005
 31
0.0
  0
LINE
  8
DETAIL
  6
CONTINUOUS
 62
     5
 10
-295.99999999999949
 20
-239.99999999999929
 30
0.0
 11
-213.2846152363804
 21
-239.99999999999929
 31
0.0
  0
LINE
  8
DETAIL
  6
CONTINUOUS
 62
     5
 10
213.28461523677831
 20
-239.99999999999929
 30
0.0
 11
296.0
 21
-239.99999999999929
 31
0.0
  0
LINE
  8
DETAIL
  6
CONTINUOUS
 62
     5
 10
-212.55225139169261
 20
-237.00726800037
 30
0.0
 11
-212.51093112738681
 21
-236.99999999999949
 31
0.0
  0
LINE
  8
DETAIL
  6
CONTINUOUS
 62
     5
 10
-213.22987315985031
 20
-239.9928160681732
 30
0.0
 11
-213.2846152363804
 21
-239.99999999999929
 31
0.0
  0
LINE
  8
DETAIL
  6
CONTINUOUS
 62
     5
 10
212.68110235368661
 20
408.12106199151282
 30
0.0
 11
212.63733700484269
 21
408.06731627752202
 31
0.0
  0
LINE
  8
DETAIL
  6
CONTINUOUS
 62
     5
 10
-213.1118042454741
 20
-239.93293764136911
 30
0.0
 11
-213.17226949608221
 21
-239.97070637985709
 31
0.0
  0
LINE
  8
DETAIL
  6
CONTINUOUS
 62
     5
 10
-212.59438668431039
 20
-237.0295189519907
 30
0.0
 11
-212.55225139169261
 21
-237.00726800037
 31
0.0
  0
LINE
  8
DETAIL
  6
CONTINUOUS
 62
     5
 10
-213.17226949608221
 20
-239.97070637985709
 30
0.0
 11
-213.22987315985031
 21
-239.9928160681732
 31
0.0
  0
LINE
  8
DETAIL
  6
CONTINUOUS
 62
     5
 10
-188.80719999999971
 20
-407.99999999999949
 30
0.0
 11
188.80720000039759
 21
-407.99999999999949
 31
0.0
  0
LINE
  8
DETAIL
  6
CONTINUOUS
 62
     5
 10
-165.16639129812671
 20
-408.02484999999922
 30
0.0
 11
-173.2177999999999
 21
-408.02484999999922
 31
0.0
  0
LINE
  8
DETAIL
  6
CONTINUOUS
 62
     5
 10
-165.16638323360581
 20
-408.59639999999979
 30
0.0
 11
167.8235832336054
 21
-408.59639999999979
 31
0.0
  0
LINE
  8
DETAIL
  6
CONTINUOUS
 62
     5
 10
-212.68110235328871
 20
-238.5904000000005
 30
0.0
 11
-213.048477408026
 21
-239.87893800848661
 31
0.0
  0
LINE
  8
DETAIL
  6
CONTINUOUS
 62
     5
 10
213.0036124204407
 20
410.81003493918769
 30
0.0
 11
213.04847740842391
 21
410.87893800848877
 31
0.0
  0
LINE
  8
DETAIL
  6
CONTINUOUS
 62
     5
 10
212.7274348160754
 20
408.19002379587619
 30
0.0
 11
212.68110235368661
 21
408.12106199151282
 31
0.0
  0
LINE
  8
DETAIL
  6
CONTINUOUS
 62
     5
 10
-212.7274348156775
 20
-237.1900237958757
 30
0.0
 11
-212.68110235328871
 21
-237.12106199151049
 31
0.0
  0
LINE
  8
DETAIL
  6
CONTINUOUS
 62
     5
 10
-212.68110235328871
 20
-237.12106199151049
 30
0.0
 11
-212.63733700484229
 21
-237.06731627751969
 31
0.0
  0
LINE
  8
DETAIL
  6
CONTINUOUS
 62
     5
 10
-212.63733700484229
 20
-237.06731627751969
 30
0.0
 11
-212.59438668431039
 21
-237.0295189519907
 31
0.0
  0
LINE
  8
DETAIL
  6
CONTINUOUS
 62
     5
 10
-213.048477408026
 20
-239.87893800848661
 30
0.0
 11
-213.1118042454741
 21
-239.93293764136911
 31
0.0
  0
LINE
  8
DETAIL
  6
CONTINUOUS
 62
     5
 10
-145.99999999960261
 20
-495.4755999999993
 30
0.0
 11
146.0
 21
-495.4755999999993
 31
0.0
  0
LINE
  8
DETAIL
  6
CONTINUOUS
 62
     5
 10
-145.40359999960259
 20
-507.99999999999949
 30
0.0
 11
145.4036000000001
 21
-507.99999999999949
 31
0.0
  0
LINE
  8
DETAIL
  6
CONTINUOUS
 62
     5
 10
-295.99999999999949
 20
410.99999999999977
 30
0.0
 11
-295.99999999999949
 21
370.50000000000068
 31
0.0
  0
LINE
  8
DETAIL
  6
CONTINUOUS
 62
     5
 10
-295.99999999999949
 20
-199.50000000000031
 30
0.0
 11
-295.99999999999949
 21
-239.99999999999929
 31
0.0
  0
LINE
  8
DETAIL
  6
CONTINUOUS
 62
     5
 10
-281.46699999960208
 20
370.50000000000068
 30
0.0
 11
-281.46699999960208
 21
390.49999999999909
 31
0.0
  0
LINE
  8
DETAIL
  6
CONTINUOUS
 62
     5
 10
-281.46699999960208
 20
-199.50000000000031
 30
0.0
 11
-281.46699999960208
 21
-219.49999999999869
 31
0.0
  0
LINE
  8
DETAIL
  6
CONTINUOUS
 62
     5
 10
-272.14389999960213
 20
-145.35312826381551
 30
0.0
 11
-272.14389999960213
 21
-66.827123184475113
 31
0.0
  0
LINE
  8
DETAIL
  6
CONTINUOUS
 62
     5
 10
-270.5329999999999
 20
370.50000000000068
 30
0.0
 11
-270.5329999999999
 21
390.49999999999909
 31
0.0
  0
LINE
  8
DETAIL
  6
CONTINUOUS
 62
     5
 10
-270.5329999999999
 20
-199.50000000000031
 30
0.0
 11
-270.5329999999999
 21
-219.49999999999869
 31
0.0
  0
LINE
  8
DETAIL
  6
CONTINUOUS
 62
     5
 10
-243.41729999999961
 20
-165.2331302542002
 30
0.0
 11
-243.41729999999961
 21
-46.947130254200147
 31
0.0
  0
LINE
  8
DETAIL
  6
CONTINUOUS
 62
     5
 10
-242.82089999999971
 20
-46.947130254200147
 30
0.0
 11
-242.82089999999971
 21
-165.2331302542002
 31
0.0
  0
LINE
  8
DETAIL
  6
CONTINUOUS
 62
     5
 10
-242.4232999999999
 20
-165.73012998900001
 30
0.0
 11
-242.4232999999995
 21
-36.510135560967228
 31
0.0
  0
LINE
  8
DETAIL
  6
CONTINUOUS
 62
     5
 10
-241.62809999999939
 20
-36.510135560967228
 30
0.0
 11
-241.6280999999999
 21
-165.73012998900001
 31
0.0
  0
LINE
  8
DETAIL
  6
CONTINUOUS
 62
     5
 10
-239.3915999999995
 20
179.4794000000002
 30
0.0
 11
-239.3915999999995
 21
-147.83819999999969
 31
0.0
  0
LINE
  8
DETAIL
  6
CONTINUOUS
 62
     5
 10
-239.09339999999969
 20
-239.99999999999929
 30
0.0
 11
-239.09339999999969
 21
-234.51499999999899
 31
0.0
  0
LINE
  8
DETAIL
  6
CONTINUOUS
 62
     5
 10
-239.09339999999929
 20
410.99999999999977
 30
0.0
 11
-239.09339999999929
 21
405.51499999999942
 31
0.0
  0
LINE
  8
DETAIL
  6
CONTINUOUS
 62
     5
 10
-212.9035997045271
 20
-237.59766859647559
 30
0.0
 11
-213.048477408026
 21
-237.99400000000011
 31
0.0
  0
LINE
  8
DETAIL
  6
CONTINUOUS
 62
     5
 10
-212.85493159739741
 20
-237.46581737509899
 30
0.0
 11
-212.9035997045271
 21
-237.59766859647559
 31
0.0
  0
LINE
  8
DETAIL
  6
CONTINUOUS
 62
     5
 10
-212.85493159739741
 20
-237.46581737509899
 30
0.0
 11
-212.81434943773181
 21
-237.36400420074409
 31
0.0
  0
LINE
  8
DETAIL
  6
CONTINUOUS
 62
     5
 10
-212.81434943773181
 20
-237.36400420074409
 30
0.0
 11
-212.7718505104917
 21
-237.27153778850109
 31
0.0
  0
LINE
  8
DETAIL
  6
CONTINUOUS
 62
     5
 10
212.9602413273833
 20
410.72855454177238
 30
0.0
 11
213.0036124204407
 21
410.81003493918769
 31
0.0
  0
LINE
  8
DETAIL
  6
CONTINUOUS
 62
     5
 10
-212.7718505104917
 20
-237.27153778850109
 30
0.0
 11
-212.7274348156775
 21
-237.1900237958757
 31
0.0
  0
LINE
  8
DETAIL
  6
CONTINUOUS
 62
     5
 10
212.77185051088961
 20
408.27153778850152
 30
0.0
 11
212.7274348160754
 21
408.19002379587619
 31
0.0
  0
LINE
  8
DETAIL
  6
CONTINUOUS
 62
     5
 10
-238.7951999999996
 20
-151.31719999999899
 30
0.0
 11
-238.7951999999996
 21
-234.51499999999899
 31
0.0
  0
LINE
  8
DETAIL
  6
CONTINUOUS
 62
     5
 10
-237.9999999996021
 20
405.51499999999942
 30
0.0
 11
-237.9999999996021
 21
181.96440000000081
 31
0.0
  0
LINE
  8
DETAIL
  6
CONTINUOUS
 62
     5
 10
-236.80719999960229
 20
181.96440000000081
 30
0.0
 11
-236.80719999960229
 21
179.4794000000002
 31
0.0
  0
LINE
  8
DETAIL
  6
CONTINUOUS
 62
     5
 10
-236.80719999960229
 20
-147.83819999999969
 30
0.0
 11
-236.80719999960229
 21
-151.31719999999899
 31
0.0
  0
LINE
  8
DETAIL
  6
CONTINUOUS
 62
     5
 10
-213.048477408026
 20
-239.87893800848661
 30
0.0
 11
-213.048477408026
 21
-237.99400000000011
 31
0.0
  0
LINE
  8
DETAIL
  6
CONTINUOUS
 62
     5
 10
-213.048477408026
 20
410.87893800848877
 30
0.0
 11
-213.048477408026
 21
408.9940000000006
 31
0.0
  0
LINE
  8
DETAIL
  6
CONTINUOUS
 62
     5
 10
-212.68110235328871
 20
-238.5904000000005
 30
0.0
 11
-212.68110235328871
 21
-237.12106199151049
 31
0.0
  0
LINE
  8
DETAIL
  6
CONTINUOUS
 62
     5
 10
-212.68110235328871
 20
409.5904000000009
 30
0.0
 11
-212.68110235328871
 21
408.12106199151282
 31
0.0
  0
LINE
  8
DETAIL
  6
CONTINUOUS
 62
     5
 10
-210.66499999999951
 20
-238.5904000000005
 30
0.0
 11
-210.66499999999951
 21
-236.99999999999949
 31
0.0
  0
LINE
  8
DETAIL
  6
CONTINUOUS
 62
     5
 10
-210.66499999999951
 20
408.0
 30
0.0
 11
-210.66499999999951
 21
409.5904000000009
 31
0.0
  0
LINE
  8
DETAIL
  6
CONTINUOUS
 62
     5
 10
-205.09859999999981
 20
-237.7951999999982
 30
0.0
 11
-205.09859999999981
 21
-236.99999999999949
 31
0.0
  0
LINE
  8
DETAIL
  6
CONTINUOUS
 62
     5
 10
-190.0
 20
-406.80720000000048
 30
0.0
 11
-190.0
 21
-238.98799999999889
 31
0.0
  0
LINE
  8
DETAIL
  6
CONTINUOUS
 62
     5
 10
-190.0
 20
-238.98799999999889
 30
0.0
 11
-190.0
 21
-236.99999999999949
 31
0.0
  0
LINE
  8
DETAIL
  6
CONTINUOUS
 62
     5
 10
-173.2177999999999
 20
-407.99999999999949
 30
0.0
 11
-173.2177999999999
 21
-408.02484999999922
 31
0.0
  0
LINE
  8
DETAIL
  6
CONTINUOUS
 62
     5
 10
-165.1664000000001
 20
-408.59639999999979
 30
0.0
 11
-165.1664000000001
 21
-407.99999999999949
 31
0.0
  0
LINE
  8
DETAIL
  6
CONTINUOUS
 62
     5
 10
-164.75
 20
408.0
 30
0.0
 11
-164.75
 21
408.59640000000041
 31
0.0
  0
LINE
  8
DETAIL
  6
CONTINUOUS
 62
     5
 10
-151.03023432656209
 20
411.30842240542722
 30
0.0
 11
-145.99999999960261
 21
495.47559999999987
 31
0.0
  0
LINE
  8
DETAIL
  6
CONTINUOUS
 62
     5
 10
212.91836412964901
 20
410.63607469303457
 30
0.0
 11
212.9602413273833
 21
410.72855454177238
 31
0.0
  0
LINE
  8
DETAIL
  6
CONTINUOUS
 62
     5
 10
212.81434943812971
 20
408.36400420074642
 30
0.0
 11
212.77185051088961
 21
408.27153778850152
 31
0.0
  0
LINE
  8
DETAIL
  6
CONTINUOUS
 62
     5
 10
-151.03023432656249
 20
-411.3084224054287
 30
0.0
 11
-145.99999999960261
 21
-495.4755999999993
 31
0.0
  0
LINE
  8
DETAIL
  6
CONTINUOUS
 62
     5
 10
-145.99999999960261
 20
495.47559999999987
 30
0.0
 11
-145.99999999960261
 21
507.40359999999959
 31
0.0
  0
LINE
  8
DETAIL
  6
CONTINUOUS
 62
     5
 10
-145.99999999960261
 20
-495.4755999999993
 30
0.0
 11
-145.99999999960261
 21
-507.40359999999919
 31
0.0
  0
LINE
  8
DETAIL
  6
CONTINUOUS
 62
     5
 10
212.9035997045271
 20
408.59766859647777
 30
0.0
 11
213.04847740842391
 21
408.9940000000006
 31
0.0
  0
LINE
  8
DETAIL
  6
CONTINUOUS
 62
     5
 10
212.85493159779529
 20
408.4658173750995
 30
0.0
 11
212.9035997045271
 21
408.59766859647777
 31
0.0
  0
LINE
  8
DETAIL
  6
CONTINUOUS
 62
     5
 10
212.68110235368661
 20
409.5904000000009
 30
0.0
 11
212.91836412964901
 21
410.63607469303457
 31
0.0
  0
LINE
  8
DETAIL
  6
CONTINUOUS
 62
     5
 10
212.85493159779529
 20
408.4658173750995
 30
0.0
 11
212.81434943812971
 21
408.36400420074642
 31
0.0
  0
LINE
  8
DETAIL
  6
CONTINUOUS
 62
     5
 10
146.00000000000051
 20
495.47559999999987
 30
0.0
 11
146.00000000000051
 21
507.40359999999959
 31
0.0
  0
LINE
  8
DETAIL
  6
CONTINUOUS
 62
     5
 10
146.0
 20
-495.4755999999993
 30
0.0
 11
146.0
 21
-507.40359999999919
 31
0.0
  0
LINE
  8
DETAIL
  6
CONTINUOUS
 62
     5
 10
151.03023432695949
 20
-411.3084224054287
 30
0.0
 11
146.0
 21
-495.4755999999993
 31
0.0
  0
LINE
  8
DETAIL
  6
CONTINUOUS
 62
     5
 10
151.03023432696051
 20
411.30842240542722
 30
0.0
 11
146.00000000000051
 21
495.47559999999987
 31
0.0
  0
LINE
  8
DETAIL
  6
CONTINUOUS
 62
     5
 10
164.7500000003979
 20
408.59640000000041
 30
0.0
 11
164.7500000003979
 21
408.0
 31
0.0
  0
LINE
  8
DETAIL
  6
CONTINUOUS
 62
     5
 10
167.82360000039759
 20
-407.99999999999949
 30
0.0
 11
167.82360000039759
 21
-408.59639999999979
 31
0.0
  0
LINE
  8
DETAIL
  6
CONTINUOUS
 62
     5
 10
190.00000000039739
 20
-238.98799999999889
 30
0.0
 11
190.00000000039739
 21
-236.99999999999949
 31
0.0
  0
LINE
  8
DETAIL
  6
CONTINUOUS
 62
     5
 10
190.00000000039739
 20
-238.98799999999889
 30
0.0
 11
190.00000000039739
 21
-406.80720000000048
 31
0.0
  0
LINE
  8
DETAIL
  6
CONTINUOUS
 62
     5
 10
202.11660000039731
 20
-237.7951999999982
 30
0.0
 11
202.11660000039731
 21
-236.99999999999949
 31
0.0
  0
LINE
  8
DETAIL
  6
CONTINUOUS
 62
     5
 10
203.21000000000001
 20
408.0
 30
0.0
 11
203.21000000000001
 21
408.02484999999979
 31
0.0
  0
LINE
  8
DETAIL
  6
CONTINUOUS
 62
     5
 10
205.09860000039771
 20
-237.7951999999982
 30
0.0
 11
205.09860000039771
 21
-236.99999999999949
 31
0.0
  0
LINE
  8
DETAIL
  6
CONTINUOUS
 62
     5
 10
210.66499999999999
 20
409.5904000000009
 30
0.0
 11
210.66499999999999
 21
408.0
 31
0.0
  0
LINE
  8
DETAIL
  6
CONTINUOUS
 62
     5
 10
210.66499999999999
 20
-236.99999999999949
 30
0.0
 11
210.66499999999999
 21
-238.5904000000005
 31
0.0
  0
LINE
  8
DETAIL
  6
CONTINUOUS
 62
     5
 10
212.6811023536861
 20
-238.5904000000005
 30
0.0
 11
212.6811023536861
 21
-237.12106199151049
 31
0.0
  0
LINE
  8
DETAIL
  6
CONTINUOUS
 62
     5
 10
212.68110235368661
 20
409.5904000000009
 30
0.0
 11
212.68110235368661
 21
408.12106199151282
 31
0.0
  0
LINE
  8
DETAIL
  6
CONTINUOUS
 62
     5
 10
213.04847740842391
 20
-239.87893800848661
 30
0.0
 11
213.04847740842391
 21
-237.99400000000011
 31
0.0
  0
LINE
  8
DETAIL
  6
CONTINUOUS
 62
     5
 10
213.04847740842391
 20
410.87893800848877
 30
0.0
 11
213.04847740842391
 21
408.9940000000006
 31
0.0
  0
LINE
  8
DETAIL
  6
CONTINUOUS
 62
     5
 10
238.0
 20
-234.51499999999899
 30
0.0
 11
238.0
 21
405.51499999999942
 31
0.0
  0
LINE
  8
DETAIL
  6
CONTINUOUS
 62
     5
 10
239.09340000039771
 20
-239.99999999999929
 30
0.0
 11
239.09340000039771
 21
-234.51499999999899
 31
0.0
  0
LINE
  8
DETAIL
  6
CONTINUOUS
 62
     5
 10
239.09340000039771
 20
410.99999999999977
 30
0.0
 11
239.09340000039771
 21
405.51499999999942
 31
0.0
  0
LINE
  8
DETAIL
  6
CONTINUOUS
 62
     5
 10
270.5329999999999
 20
370.50000000000068
 30
0.0
 11
270.5329999999999
 21
390.49999999999909
 31
0.0
  0
LINE
  8
DETAIL
  6
CONTINUOUS
 62
     5
 10
270.5329999999999
 20
-199.50000000000031
 30
0.0
 11
270.5329999999999
 21
-219.49999999999869
 31
0.0
  0
LINE
  8
DETAIL
  6
CONTINUOUS
 62
     5
 10
281.4670000000001
 20
370.50000000000068
 30
0.0
 11
281.4670000000001
 21
390.49999999999909
 31
0.0
  0
LINE
  8
DETAIL
  6
CONTINUOUS
 62
     5
 10
281.4670000000001
 20
-199.50000000000031
 30
0.0
 11
281.4670000000001
 21
-219.49999999999869
 31
0.0
  0
LINE
  8
DETAIL
  6
CONTINUOUS
 62
     5
 10
296.0
 20
410.99999999999977
 30
0.0
 11
296.0
 21
370.50000000000068
 31
0.0
  0
LINE
  8
DETAIL
  6
CONTINUOUS
 62
     5
 10
296.0
 20
-199.50000000000031
 30
0.0
 11
296.0
 21
-239.99999999999929
 31
0.0
  0
ARC
  8
DETAIL
  6
CONTINUOUS
 62
     5
 10
-275.99999999999949
 20
390.49999999999909
 30
0.0
 40
5.4670000000000014
 50
0.0
 51
180.0
  0
ARC
  8
DETAIL
  6
CONTINUOUS
 62
     5
 10
-153.9999878684448
 20
411.57840000000022
 30
0.0
 40
2.9820000000000002
 50
270.0
 51
354.80557109229818
  0
ARC
  8
DETAIL
  6
CONTINUOUS
 62
     5
 10
-145.40359999960259
 20
507.40359999999959
 30
0.0
 40
0.5964
 50
90.0
 51
180.0
  0
ARC
  8
DETAIL
  6
CONTINUOUS
 62
     5
 10
276.00000000039739
 20
390.49999999999909
 30
0.0
 40
5.4670000000000014
 50
0.0
 51
180.0
  0
ARC
  8
DETAIL
  6
CONTINUOUS
 62
     5
 10
153.99998786844529
 20
411.57840000000022
 30
0.0
 40
2.9820000000000002
 50
185.19442890770179
 51
270.0
  0
ARC
  8
DETAIL
  6
CONTINUOUS
 62
     5
 10
145.40360000000061
 20
507.40359999999959
 30
0.0
 40
0.5964
 50
0.0
 51
90.0
  0
ARC
  8
DETAIL
  6
CONTINUOUS
 62
     5
 10
-262.20389999999952
 20
-66.827098676807054
 30
0.0
 40
9.9399999999999995
 50
90.065007516308128
 51
180.0
  0
ARC
  8
DETAIL
  6
CONTINUOUS
 62
     5
 10
-262.20389999999952
 20
-145.35312826381551
 30
0.0
 40
9.9399999999999995
 50
180.0
 51
270.0
  0
ARC
  8
DETAIL
  6
CONTINUOUS
 62
     5
 10
-276.0
 20
-219.49999999999869
 30
0.0
 40
5.4670000000000014
 50
180.0
 51
0.0
  0
ARC
  8
DETAIL
  6
CONTINUOUS
 62
     5
 10
-153.9999878684448
 20
-411.57839999999987
 30
0.0
 40
2.9820000000000002
 50
5.1944289077017816
 51
90.0
  0
ARC
  8
DETAIL
  6
CONTINUOUS
 62
     5
 10
-245.4052999999999
 20
-54.899123184475222
 30
0.0
 40
1.988
 50
270.0
 51
0.0
  0
ARC
  8
DETAIL
  6
CONTINUOUS
 62
     5
 10
-245.4052999999999
 20
-157.28112826381539
 30
0.0
 40
1.988
 50
0.0
 51
90.0
  0
ARC
  8
DETAIL
  6
CONTINUOUS
 62
     5
 10
-188.80719999999971
 20
-406.80720000000048
 30
0.0
 40
1.1928000000000001
 50
180.0
 51
270.0
  0
ARC
  8
DETAIL
  6
CONTINUOUS
 62
     5
 10
276.00000000039739
 20
-219.49999999999869
 30
0.0
 40
5.4670000000000014
 50
180.0
 51
0.0
  0
ARC
  8
DETAIL
  6
CONTINUOUS
 62
     5
 10
153.99998786844441
 20
-411.57839999999987
 30
0.0
 40
2.9820000000000002
 50
90.0
 51
174.80557109229821
  0
ARC
  8
DETAIL
  6
CONTINUOUS
 62
     5
 10
188.80720000039759
 20
-406.80720000000048
 30
0.0
 40
1.1928000000000001
 50
270.0
 51
0.0
  0
ARC
  8
DETAIL
  6
CONTINUOUS
 62
     5
 10
-145.40359999960259
 20
-507.40359999999919
 30
0.0
 40
0.5964
 50
180.0
 51
270.0
  0
ARC
  8
DETAIL
  6
CONTINUOUS
 62
     5
 10
145.4036000000001
 20
-507.40359999999919
 30
0.0
 40
0.5964
 50
270.0
 51
0.0
  0
LINE
  8
DETAIL
  6
CONTINUOUS
 62
     5
 10
-242.82089999999971
 20
-54.899109671546753
 30
0.0
 11
-242.4232999999995
 21
-54.89910967154492
 31
0.0
  0
LINE
  8
DETAIL
  6
CONTINUOUS
 62
     5
 10
-241.6280999999999
 20
-54.89910967154492
 30
0.0
 11
-239.3915999999995
 21
-54.899109671546753
 31
0.0
  0
LINE
  8
DETAIL
  6
CONTINUOUS
 62
     5
 10
-242.82089999999971
 20
-157.28113993994839
 30
0.0
 11
-242.4232999999999
 21
-157.28113993994839
 31
0.0
  0
LINE
  8
DETAIL
  6
CONTINUOUS
 62
     5
 10
-241.6280999999999
 20
-157.28113993994839
 30
0.0
 11
-238.7951999999996
 21
-157.28113993994839
 31
0.0
  0
LINE
  8
SIZE
  6
CONTINUOUS
 62
    30
 10
-165.4035999996027
 20
508.00000000000023
 30
0.0
 11
-553.34745295000289
 21
508.00000000000023
 31
0.0
  0
LINE
  8
SIZE
  6
CONTINUOUS
 62
    30
 10
-259.09339999999952
 20
408.00000000000023
 30
0.0
 11
-553.34745295000289
 21
408.00000000000023
 31
0.0
  0
LINE
  8
SIZE
  6
CONTINUOUS
 62
    30
 10
-533.34745295000289
 20
520.00000000000011
 30
0.0
 11
-533.34745295000289
 21
532.00000000000011
 31
0.0
  0
LINE
  8
SIZE
  6
CONTINUOUS
 62
    30
 10
-533.34745295000289
 20
396.00000000000023
 30
0.0
 11
-533.34745295000289
 21
384.00000000000023
 31
0.0
  0
LINE
  8
SIZE
  6
CONTINUOUS
 62
    30
 10
-533.34745295000289
 20
508.00000000000023
 30
0.0
 11
-533.34745295000289
 21
408.00000000000023
 31
0.0
  0
CIRCLE
  8
SIZE
  6
CONTINUOUS
 62
    30
 10
-533.34745295000289
 20
508.00000000000023
 30
0.0
 40
6.0
  0
LINE
  8
SIZE
  6
CONTINUOUS
 62
    30
 10
-533.34745295000289
 20
508.00000000000023
 30
0.0
 11
-533.34745295000289
 21
520.00000000000011
 31
0.0
  0
CIRCLE
  8
SIZE
  6
CONTINUOUS
 62
    30
 10
-533.34745295000289
 20
408.00000000000023
 30
0.0
 40
6.0
  0
LINE
  8
SIZE
  6
CONTINUOUS
 62
    30
 10
-533.34745295000289
 20
408.00000000000023
 30
0.0
 11
-533.34745295000289
 21
396.00000000000023
 31
0.0
  0
TEXT
  8
SIZE
  6
CONTINUOUS
 62
    30
 10
-558.34745295000255
 20
389.42857142857162
 30
0.0
 40
64.0
  1
100
 50
90.0
 41
0.9
 72
     1
 11
-558.34745295000255
 21
458.00000000000023
 31
0.0
  0
POINT
  8
DEFPOINTS
  6
CONTINUOUS
 62
    30
 10
-145.4035999996027
 20
508.00000000000023
 30
0.0
  0
POINT
  8
DEFPOINTS
  6
CONTINUOUS
 62
    30
 10
-239.09339999999941
 20
408.00000000000023
 30
0.0
  0
POINT
  8
DEFPOINTS
  6
CONTINUOUS
 62
    30
 10
-533.34745295000289
 20
408.00000000000023
 30
0.0
  0
LINE
  8
SIZE
  6
CONTINUOUS
 62
    30
 10
-259.09339999999952
 20
408.00000000000023
 30
0.0
 11
-553.34745294999948
 21
408.00000000000023
 31
0.0
  0
LINE
  8
SIZE
  6
CONTINUOUS
 62
    30
 10
-208.8071999999998
 20
-407.99999999999977
 30
0.0
 11
-553.34745294999925
 21
-407.99999999999977
 31
0.0
  0
LINE
  8
SIZE
  6
CONTINUOUS
 62
    30
 10
-533.34745294999948
 20
396.00000000000023
 30
0.0
 11
-533.34745294999925
 21
-395.99999999999977
 31
0.0
  0
CIRCLE
  8
SIZE
  6
CONTINUOUS
 62
    30
 10
-533.34745294999948
 20
408.00000000000023
 30
0.0
 40
6.0
  0
LINE
  8
SIZE
  6
CONTINUOUS
 62
    30
 10
-533.34745294999948
 20
408.00000000000023
 30
0.0
 11
-533.34745294999948
 21
396.00000000000023
 31
0.0
  0
CIRCLE
  8
SIZE
  6
CONTINUOUS
 62
    30
 10
-533.34745294999925
 20
-407.99999999999977
 30
0.0
 40
6.0
  0
LINE
  8
SIZE
  6
CONTINUOUS
 62
    30
 10
-533.34745294999925
 20
-407.99999999999977
 30
0.0
 11
-533.34745294999925
 21
-395.99999999999977
 31
0.0
  0
TEXT
  8
SIZE
  6
CONTINUOUS
 62
    30
 10
-558.34745294999925
 20
-67.199999999999676
 30
0.0
 40
64.0
  1
816
 50
90.0
 41
0.9
 72
     1
 11
-558.34745294999925
 21
0.0000000000003219
 31
0.0
  0
POINT
  8
DEFPOINTS
  6
CONTINUOUS
 62
    30
 10
-239.09339999999941
 20
408.00000000000023
 30
0.0
  0
POINT
  8
DEFPOINTS
  6
CONTINUOUS
 62
    30
 10
-188.8071999999998
 20
-407.99999999999977
 30
0.0
  0
POINT
  8
DEFPOINTS
  6
CONTINUOUS
 62
    30
 10
-533.34745294999925
 20
-407.99999999999977
 30
0.0
  0
LINE
  8
SIZE
  6
CONTINUOUS
 62
    30
 10
-208.8071999999998
 20
-407.99999999999977
 30
0.0
 11
-553.34745294999743
 21
-407.99999999999977
 31
0.0
  0
LINE
  8
SIZE
  6
CONTINUOUS
 62
    30
 10
-165.4035999996027
 20
-507.99999999999977
 30
0.0
 11
-553.34745294999743
 21
-507.99999999999977
 31
0.0
  0
LINE
  8
SIZE
  6
CONTINUOUS
 62
    30
 10
-533.34745294999743
 20
-395.99999999999977
 30
0.0
 11
-533.34745294999743
 21
-383.99999999999977
 31
0.0
  0
LINE
  8
SIZE
  6
CONTINUOUS
 62
    30
 10
-533.34745294999743
 20
-519.99999999999977
 30
0.0
 11
-533.34745294999743
 21
-531.99999999999977
 31
0.0
  0
LINE
  8
SIZE
  6
CONTINUOUS
 62
    30
 10
-533.34745294999743
 20
-407.99999999999977
 30
0.0
 11
-533.34745294999743
 21
-507.99999999999977
 31
0.0
  0
CIRCLE
  8
SIZE
  6
CONTINUOUS
 62
    30
 10
-533.34745294999743
 20
-407.99999999999977
 30
0.0
 40
6.0
  0
LINE
  8
SIZE
  6
CONTINUOUS
 62
    30
 10
-533.34745294999743
 20
-407.99999999999977
 30
0.0
 11
-533.34745294999743
 21
-395.99999999999977
 31
0.0
  0
CIRCLE
  8
SIZE
  6
CONTINUOUS
 62
    30
 10
-533.34745294999743
 20
-507.99999999999977
 30
0.0
 40
6.0
  0
LINE
  8
SIZE
  6
CONTINUOUS
 62
    30
 10
-533.34745294999743
 20
-507.99999999999977
 30
0.0
 11
-533.34745294999743
 21
-519.99999999999977
 31
0.0
  0
TEXT
  8
SIZE
  6
CONTINUOUS
 62
    30
 10
-558.34745294999743
 20
-526.5714285714281
 30
0.0
 40
64.0
  1
100
 50
90.0
 41
0.9
 72
     1
 11
-558.34745294999743
 21
-457.99999999999949
 31
0.0
  0
POINT
  8
DEFPOINTS
  6
CONTINUOUS
 62
    30
 10
-188.8071999999998
 20
-407.99999999999977
 30
0.0
  0
POINT
  8
DEFPOINTS
  6
CONTINUOUS
 62
    30
 10
-145.4035999996027
 20
-507.99999999999977
 30
0.0
  0
POINT
  8
DEFPOINTS
  6
CONTINUOUS
 62
    30
 10
-533.34745294999743
 20
-507.99999999999977
 30
0.0
  0
LINE
  8
SIZE
  6
CONTINUOUS
 62
    30
 10
316.00000000000011
 20
411.0
 30
0.0
 11
922.80617843025402
 21
411.00000000000011
 31
0.0
  0
LINE
  8
SIZE
  6
CONTINUOUS
 62
    30
 10
208.8072000003977
 20
-407.99999999999977
 30
0.0
 11
922.80617843025436
 21
-407.99999999999972
 31
0.0
  0
LINE
  8
SIZE
  6
CONTINUOUS
 62
    30
 10
902.80617843025402
 20
399.00000000000011
 30
0.0
 11
902.80617843025436
 21
-395.99999999999972
 31
0.0
  0
CIRCLE
  8
SIZE
  6
CONTINUOUS
 62
    30
 10
902.80617843025402
 20
411.00000000000011
 30
0.0
 40
6.0
  0
LINE
  8
SIZE
  6
CONTINUOUS
 62
    30
 10
902.80617843025402
 20
411.00000000000011
 30
0.0
 11
902.80617843025402
 21
399.00000000000011
 31
0.0
  0
CIRCLE
  8
SIZE
  6
CONTINUOUS
 62
    30
 10
902.80617843025436
 20
-407.99999999999972
 30
0.0
 40
6.0
  0
LINE
  8
SIZE
  6
CONTINUOUS
 62
    30
 10
902.80617843025436
 20
-407.99999999999972
 30
0.0
 11
902.80617843025436
 21
-395.99999999999972
 31
0.0
  0
TEXT
  8
SIZE
  6
CONTINUOUS
 62
    30
 10
877.80617843025402
 20
-65.700000000000799
 30
0.0
 40
64.0
  1
819
 50
90.0
 41
0.9
 72
     1
 11
877.80617843025402
 21
1.4999999999992091
 31
0.0
  0
POINT
  8
DEFPOINTS
  6
CONTINUOUS
 62
    30
 10
296.00000000000011
 20
411.0
 30
0.0
  0
POINT
  8
DEFPOINTS
  6
CONTINUOUS
 62
    30
 10
188.8072000003977
 20
-407.99999999999977
 30
0.0
  0
POINT
  8
DEFPOINTS
  6
CONTINUOUS
 62
    30
 10
902.80617843025436
 20
-407.99999999999972
 30
0.0
  0
LINE
  8
SIZE
  6
CONTINUOUS
 62
    30
 10
-259.09339999999952
 20
408.00000000000023
 30
0.0
 11
-425.34745295000153
 21
408.00000000000023
 31
0.0
  0
LINE
  8
SIZE
  6
CONTINUOUS
 62
    30
 10
-259.09339999999992
 20
-236.99999999999969
 30
0.0
 11
-425.34745295000153
 21
-236.99999999999969
 31
0.0
  0
LINE
  8
SIZE
  6
CONTINUOUS
 62
    30
 10
-405.34745295000153
 20
396.00000000000023
 30
0.0
 11
-405.34745295000153
 21
-224.99999999999969
 31
0.0
  0
CIRCLE
  8
SIZE
  6
CONTINUOUS
 62
    30
 10
-405.34745295000153
 20
408.00000000000023
 30
0.0
 40
6.0
  0
LINE
  8
SIZE
  6
CONTINUOUS
 62
    30
 10
-405.34745295000153
 20
408.00000000000023
 30
0.0
 11
-405.34745295000153
 21
396.00000000000023
 31
0.0
  0
CIRCLE
  8
SIZE
  6
CONTINUOUS
 62
    30
 10
-405.34745295000153
 20
-236.99999999999969
 30
0.0
 40
6.0
  0
LINE
  8
SIZE
  6
CONTINUOUS
 62
    30
 10
-405.34745295000153
 20
-236.99999999999969
 30
0.0
 11
-405.34745295000153
 21
-224.99999999999969
 31
0.0
  0
TEXT
  8
SIZE
  6
CONTINUOUS
 62
    30
 10
-430.3474529500013
 20
11.442857142856811
 30
0.0
 40
64.0
  1
645
 50
90.0
 41
0.9
 72
     1
 11
-430.3474529500013
 21
85.499999999999659
 31
0.0
  0
POINT
  8
DEFPOINTS
  6
CONTINUOUS
 62
    30
 10
-239.09339999999941
 20
408.00000000000023
 30
0.0
  0
POINT
  8
DEFPOINTS
  6
CONTINUOUS
 62
    30
 10
-239.09339999999989
 20
-236.99999999999969
 30
0.0
  0
POINT
  8
DEFPOINTS
  6
CONTINUOUS
 62
    30
 10
-405.34745295000153
 20
-236.99999999999969
 30
0.0
  0
LINE
  8
SIZE
  6
CONTINUOUS
 62
    30
 10
316.00000000000011
 20
411.0
 30
0.0
 11
794.80617843025402
 21
411.00000000000011
 31
0.0
  0
LINE
  8
SIZE
  6
CONTINUOUS
 62
    30
 10
316.00000000000011
 20
-239.9999999999994
 30
0.0
 11
794.80617843025425
 21
-239.99999999999929
 31
0.0
  0
LINE
  8
SIZE
  6
CONTINUOUS
 62
    30
 10
774.80617843025402
 20
399.00000000000011
 30
0.0
 11
774.80617843025425
 21
-227.99999999999929
 31
0.0
  0
CIRCLE
  8
SIZE
  6
CONTINUOUS
 62
    30
 10
774.80617843025402
 20
411.00000000000011
 30
0.0
 40
6.0
  0
LINE
  8
SIZE
  6
CONTINUOUS
 62
    30
 10
774.80617843025402
 20
411.00000000000011
 30
0.0
 11
774.80617843025402
 21
399.00000000000011
 31
0.0
  0
CIRCLE
  8
SIZE
  6
CONTINUOUS
 62
    30
 10
774.80617843025425
 20
-239.99999999999929
 30
0.0
 40
6.0
  0
LINE
  8
SIZE
  6
CONTINUOUS
 62
    30
 10
774.80617843025425
 20
-239.99999999999929
 30
0.0
 11
774.80617843025425
 21
-227.99999999999929
 31
0.0
  0
TEXT
  8
SIZE
  6
CONTINUOUS
 62
    30
 10
749.80617843025402
 20
23.785714285713631
 30
0.0
 40
64.0
  1
651
 50
90.0
 41
0.9
 72
     1
 11
749.80617843025402
 21
85.499999999999332
 31
0.0
  0
POINT
  8
DEFPOINTS
  6
CONTINUOUS
 62
    30
 10
296.00000000000011
 20
411.0
 30
0.0
  0
POINT
  8
DEFPOINTS
  6
CONTINUOUS
 62
    30
 10
296.00000000000011
 20
-239.9999999999994
 30
0.0
  0
POINT
  8
DEFPOINTS
  6
CONTINUOUS
 62
    30
 10
774.80617843025425
 20
-239.99999999999929
 30
0.0
  0
LINE
  8
SIZE
  6
CONTINUOUS
 62
    30
 10
-145.99999999960261
 20
527.40359999999964
 30
0.0
 11
-145.99999999960261
 21
689.39557428367618
 31
0.0
  0
LINE
  8
SIZE
  6
CONTINUOUS
 62
    30
 10
146.00000000000051
 20
527.40359999999964
 30
0.0
 11
146.00000000000051
 21
689.39557428367618
 31
0.0
  0
LINE
  8
SIZE
  6
CONTINUOUS
 62
    30
 10
-133.99999999960261
 20
669.39557428367618
 30
0.0
 11
134.00000000000051
 21
669.39557428367618
 31
0.0
  0
CIRCLE
  8
SIZE
  6
CONTINUOUS
 62
    30
 10
-145.99999999960261
 20
669.39557428367618
 30
0.0
 40
6.0
  0
LINE
  8
SIZE
  6
CONTINUOUS
 62
    30
 10
-145.99999999960261
 20
669.39557428367618
 30
0.0
 11
-133.99999999960261
 21
669.39557428367618
 31
0.0
  0
CIRCLE
  8
SIZE
  6
CONTINUOUS
 62
    30
 10
146.00000000000051
 20
669.39557428367618
 30
0.0
 40
6.0
  0
LINE
  8
SIZE
  6
CONTINUOUS
 62
    30
 10
146.00000000000051
 20
669.39557428367618
 30
0.0
 11
134.00000000000051
 21
669.39557428367618
 31
0.0
  0
TEXT
  8
SIZE
  6
CONTINUOUS
 62
    30
 10
-114.37714285694391
 20
694.39557428367618
 30
0.0
 40
64.0
  1
φ292
 41
0.9
 72
     1
 11
0.000000000198952
 21
694.39557428367618
 31
0.0
  0
POINT
  8
DEFPOINTS
  6
CONTINUOUS
 62
    30
 10
-145.99999999960261
 20
507.40359999999959
 30
0.0
  0
POINT
  8
DEFPOINTS
  6
CONTINUOUS
 62
    30
 10
146.00000000000051
 20
507.40359999999959
 30
0.0
  0
POINT
  8
DEFPOINTS
  6
CONTINUOUS
 62
    30
 10
146.00000000000051
 20
669.39557428367618
 30
0.0
  0
LINE
  8
SIZE
  6
CONTINUOUS
 62
    30
 10
-153.9999878684448
 20
428.59640000000041
 30
0.0
 11
-153.9999878684448
 21
817.39557428367596
 31
0.0
  0
LINE
  8
SIZE
  6
CONTINUOUS
 62
    30
 10
153.99998786844529
 20
428.59640000000041
 30
0.0
 11
153.99998786844529
 21
817.39557428367596
 31
0.0
  0
LINE
  8
SIZE
  6
CONTINUOUS
 62
    30
 10
-141.9999878684448
 20
797.39557428367596
 30
0.0
 11
141.99998786844529
 21
797.39557428367596
 31
0.0
  0
CIRCLE
  8
SIZE
  6
CONTINUOUS
 62
    30
 10
-153.9999878684448
 20
797.39557428367596
 30
0.0
 40
6.0
  0
LINE
  8
SIZE
  6
CONTINUOUS
 62
    30
 10
-153.9999878684448
 20
797.39557428367596
 30
0.0
 11
-141.9999878684448
 21
797.39557428367596
 31
0.0
  0
CIRCLE
  8
SIZE
  6
CONTINUOUS
 62
    30
 10
153.99998786844529
 20
797.39557428367596
 30
0.0
 40
6.0
  0
LINE
  8
SIZE
  6
CONTINUOUS
 62
    30
 10
153.99998786844529
 20
797.39557428367596
 30
0.0
 11
141.99998786844529
 21
797.39557428367596
 31
0.0
  0
TEXT
  8
SIZE
  6
CONTINUOUS
 62
    30
 10
-114.3771428571424
 20
822.39557428367596
 30
0.0
 40
64.0
  1
φ308
 41
0.9
 72
     1
 11
0.0000000000004547
 21
822.39557428367596
 31
0.0
  0
POINT
  8
DEFPOINTS
  6
CONTINUOUS
 62
    30
 10
-153.9999878684448
 20
408.59640000000041
 30
0.0
  0
POINT
  8
DEFPOINTS
  6
CONTINUOUS
 62
    30
 10
153.99998786844529
 20
408.59640000000041
 30
0.0
  0
POINT
  8
DEFPOINTS
  6
CONTINUOUS
 62
    30
 10
153.99998786844529
 20
797.39557428367596
 30
0.0
  0
LINE
  8
SIZE
  6
CONTINUOUS
 62
    30
 10
238.0
 20
425.51499999999942
 30
0.0
 11
238.0
 21
945.39557428367596
 31
0.0
  0
LINE
  8
SIZE
  6
CONTINUOUS
 62
    30
 10
-237.9999999996021
 20
425.51499999999942
 30
0.0
 11
-237.9999999996021
 21
945.39557428367596
 31
0.0
  0
LINE
  8
SIZE
  6
CONTINUOUS
 62
    30
 10
226.0
 20
925.39557428367596
 30
0.0
 11
-225.9999999996021
 21
925.39557428367596
 31
0.0
  0
CIRCLE
  8
SIZE
  6
CONTINUOUS
 62
    30
 10
238.0
 20
925.39557428367596
 30
0.0
 40
6.0
  0
LINE
  8
SIZE
  6
CONTINUOUS
 62
    30
 10
238.0
 20
925.39557428367596
 30
0.0
 11
226.0
 21
925.39557428367596
 31
0.0
  0
CIRCLE
  8
SIZE
  6
CONTINUOUS
 62
    30
 10
-237.9999999996021
 20
925.39557428367596
 30
0.0
 40
6.0
  0
LINE
  8
SIZE
  6
CONTINUOUS
 62
    30
 10
-237.9999999996021
 20
925.39557428367596
 30
0.0
 11
-225.9999999996021
 21
925.39557428367596
 31
0.0
  0
TEXT
  8
SIZE
  6
CONTINUOUS
 62
    30
 10
-72.685714285515559
 20
950.39557428367596
 30
0.0
 40
64.0
  1
476
 41
0.9
 72
     1
 11
0.0000000001987246
 21
950.39557428367596
 31
0.0
  0
POINT
  8
DEFPOINTS
  6
CONTINUOUS
 62
    30
 10
238.0
 20
405.51499999999942
 30
0.0
  0
POINT
  8
DEFPOINTS
  6
CONTINUOUS
 62
    30
 10
-237.9999999996021
 20
405.51499999999942
 30
0.0
  0
POINT
  8
DEFPOINTS
  6
CONTINUOUS
 62
    30
 10
-237.9999999996021
 20
925.39557428367596
 30
0.0
  0
LINE
  8
SIZE
  6
CONTINUOUS
 62
    30
 10
238.0
 20
-254.51499999999899
 30
0.0
 11
238.0
 21
-779.83499138228353
 31
0.0
  0
LINE
  8
SIZE
  6
CONTINUOUS
 62
    30
 10
190.00000000039739
 20
-426.80720000000048
 30
0.0
 11
190.00000000039739
 21
-779.83499138228353
 31
0.0
  0
LINE
  8
SIZE
  6
CONTINUOUS
 62
    30
 10
178.00000000039739
 20
-759.83499138228353
 30
0.0
 11
166.00000000039739
 21
-759.83499138228353
 31
0.0
  0
LINE
  8
SIZE
  6
CONTINUOUS
 62
    30
 10
250.0
 20
-759.83499138228353
 30
0.0
 11
405.25714285714281
 21
-759.83499138228353
 31
0.0
  0
LINE
  8
SIZE
  6
CONTINUOUS
 62
    30
 10
190.00000000039739
 20
-759.83499138228353
 30
0.0
 11
238.0
 21
-759.83499138228353
 31
0.0
  0
CIRCLE
  8
SIZE
  6
CONTINUOUS
 62
    30
 10
190.00000000039739
 20
-759.83499138228353
 30
0.0
 40
6.0
  0
LINE
  8
SIZE
  6
CONTINUOUS
 62
    30
 10
190.00000000039739
 20
-759.83499138228353
 30
0.0
 11
178.00000000039739
 21
-759.83499138228353
 31
0.0
  0
CIRCLE
  8
SIZE
  6
CONTINUOUS
 62
    30
 10
238.0
 20
-759.83499138228353
 30
0.0
 40
6.0
  0
LINE
  8
SIZE
  6
CONTINUOUS
 62
    30
 10
238.0
 20
-759.83499138228353
 30
0.0
 11
250.0
 21
-759.83499138228353
 31
0.0
  0
TEXT
  8
SIZE
  6
CONTINUOUS
 62
    30
 10
286.99999999999989
 20
-734.83499138228353
 30
0.0
 40
64.0
  1
48
 41
0.9
 72
     1
 11
333.62857142857138
 21
-734.83499138228353
 31
0.0
  0
POINT
  8
DEFPOINTS
  6
CONTINUOUS
 62
    30
 10
238.0
 20
-234.51499999999899
 30
0.0
  0
POINT
  8
DEFPOINTS
  6
CONTINUOUS
 62
    30
 10
190.00000000039739
 20
-406.80720000000048
 30
0.0
  0
POINT
  8
DEFPOINTS
  6
CONTINUOUS
 62
    30
 10
190.00000000039739
 20
-759.83499138228353
 30
0.0
  0
LINE
  8
SIZE
  6
CONTINUOUS
 62
    30
 10
190.00000000039739
 20
-426.80720000000048
 30
0.0
 11
190.00000000039739
 21
-779.83499138228353
 31
0.0
  0
LINE
  8
SIZE
  6
CONTINUOUS
 62
    30
 10
-190.0
 20
-426.80720000000048
 30
0.0
 11
-190.0
 21
-779.83499138228353
 31
0.0
  0
LINE
  8
SIZE
  6
CONTINUOUS
 62
    30
 10
178.00000000039739
 20
-759.83499138228353
 30
0.0
 11
-178.0
 21
-759.83499138228353
 31
0.0
  0
CIRCLE
  8
SIZE
  6
CONTINUOUS
 62
    30
 10
190.00000000039739
 20
-759.83499138228353
 30
0.0
 40
6.0
  0
LINE
  8
SIZE
  6
CONTINUOUS
 62
    30
 10
190.00000000039739
 20
-759.83499138228353
 30
0.0
 11
178.00000000039739
 21
-759.83499138228353
 31
0.0
  0
CIRCLE
  8
SIZE
  6
CONTINUOUS
 62
    30
 10
-190.0
 20
-759.83499138228353
 30
0.0
 40
6.0
  0
LINE
  8
SIZE
  6
CONTINUOUS
 62
    30
 10
-190.0
 20
-759.83499138228353
 30
0.0
 11
-178.0
 21
-759.83499138228353
 31
0.0
  0
TEXT
  8
SIZE
  6
CONTINUOUS
 62
    30
 10
-74.057142856944139
 20
-734.83499138228353
 30
0.0
 40
64.0
  1
380
 41
0.9
 72
     1
 11
0.0000000001986962
 21
-734.83499138228353
 31
0.0
  0
POINT
  8
DEFPOINTS
  6
CONTINUOUS
 62
    30
 10
190.00000000039739
 20
-406.80720000000048
 30
0.0
  0
POINT
  8
DEFPOINTS
  6
CONTINUOUS
 62
    30
 10
-190.0
 20
-406.80720000000048
 30
0.0
  0
POINT
  8
DEFPOINTS
  6
CONTINUOUS
 62
    30
 10
-190.0
 20
-759.83499138228353
 30
0.0
  0
LINE
  8
SIZE
  6
CONTINUOUS
 62
    30
 10
296.0
 20
430.99999999999977
 30
0.0
 11
296.00000000000011
 21
1201.3955742836761
 31
0.0
  0
LINE
  8
SIZE
  6
CONTINUOUS
 62
    30
 10
-295.99999999999949
 20
430.99999999999977
 30
0.0
 11
-295.99999999999949
 21
1201.3955742836761
 31
0.0
  0
LINE
  8
SIZE
  6
CONTINUOUS
 62
    30
 10
284.00000000000011
 20
1181.3955742836761
 30
0.0
 11
-283.99999999999949
 21
1181.3955742836761
 31
0.0
  0
CIRCLE
  8
SIZE
  6
CONTINUOUS
 62
    30
 10
296.00000000000011
 20
1181.3955742836761
 30
0.0
 40
6.0
  0
LINE
  8
SIZE
  6
CONTINUOUS
 62
    30
 10
296.00000000000011
 20
1181.3955742836761
 30
0.0
 11
284.00000000000011
 21
1181.3955742836761
 31
0.0
  0
CIRCLE
  8
SIZE
  6
CONTINUOUS
 62
    30
 10
-295.99999999999949
 20
1181.3955742836761
 30
0.0
 40
6.0
  0
LINE
  8
SIZE
  6
CONTINUOUS
 62
    30
 10
-295.99999999999949
 20
1181.3955742836761
 30
0.0
 11
-283.99999999999949
 21
1181.3955742836761
 31
0.0
  0
TEXT
  8
SIZE
  6
CONTINUOUS
 62
    30
 10
-74.057142857142395
 20
1206.3955742836761
 30
0.0
 40
64.0
  1
592
 41
0.9
 72
     1
 11
0.0000000000004547
 21
1206.3955742836761
 31
0.0
  0
POINT
  8
DEFPOINTS
  6
CONTINUOUS
 62
    30
 10
296.0
 20
410.99999999999977
 30
0.0
  0
POINT
  8
DEFPOINTS
  6
CONTINUOUS
 62
    30
 10
-295.99999999999949
 20
410.99999999999977
 30
0.0
  0
POINT
  8
DEFPOINTS
  6
CONTINUOUS
 62
    30
 10
-295.99999999999949
 20
1181.3955742836761
 30
0.0
  0
LINE
  8
BASIS
  6
DASHDOT
 62
     6
 10
0.0
 20
-551.35166979504447
 30
0.0
 11
0.0
 21
542.24698575473201
 31
0.0
  0
LINE
  8
BASIS
  6
DASHDOT
 62
     6
 10
-289.78377974073021
 20
0.0
 30
0.0
 11
289.78377974073021
 21
0.0
 31
0.0
  0
LINE
  8
BASIS
  6
DASHDOT
 62
     6
 10
-255.99999999999949
 20
390.49999999999909
 30
0.0
 11
-295.99999999999949
 21
390.49999999999909
 31
0.0
  0
LINE
  8
BASIS
  6
DASHDOT
 62
     6
 10
-275.99999999999949
 20
410.49999999999909
 30
0.0
 11
-275.99999999999949
 21
370.49999999999909
 31
0.0
  0
CIRCLE
  8
FIX
  6
CONTINUOUS
 62
    11
 10
-275.99999999999949
 20
390.49999999999909
 30
0.0
 40
5.5
  0
LINE
  8
BASIS
  6
DASHDOT
 62
     6
 10
-256.0
 20
-219.49999999999869
 30
0.0
 11
-296.0
 21
-219.49999999999869
 31
0.0
  0
LINE
  8
BASIS
  6
DASHDOT
 62
     6
 10
-276.0
 20
-199.49999999999869
 30
0.0
 11
-276.0
 21
-239.49999999999869
 31
0.0
  0
CIRCLE
  8
FIX
  6
CONTINUOUS
 62
    11
 10
-276.0
 20
-219.49999999999869
 30
0.0
 40
5.5
  0
LINE
  8
BASIS
  6
DASHDOT
 62
     6
 10
296.00000000039739
 20
-219.49999999999869
 30
0.0
 11
256.00000000039739
 21
-219.49999999999869
 31
0.0
  0
LINE
  8
BASIS
  6
DASHDOT
 62
     6
 10
276.00000000039739
 20
-199.49999999999869
 30
0.0
 11
276.00000000039739
 21
-239.49999999999869
 31
0.0
  0
CIRCLE
  8
FIX
  6
CONTINUOUS
 62
    11
 10
276.00000000039739
 20
-219.49999999999869
 30
0.0
 40
5.5
  0
LINE
  8
BASIS
  6
DASHDOT
 62
     6
 10
296.00000000039739
 20
390.49999999999909
 30
0.0
 11
256.00000000039739
 21
390.49999999999909
 31
0.0
  0
LINE
  8
BASIS
  6
DASHDOT
 62
     6
 10
276.00000000039739
 20
410.49999999999909
 30
0.0
 11
276.00000000039739
 21
370.49999999999909
 31
0.0
  0
CIRCLE
  8
FIX
  6
CONTINUOUS
 62
    11
 10
276.00000000039739
 20
390.49999999999909
 30
0.0
 40
5.5
  0
LINE
  8
SIZE
  6
CONTINUOUS
 62
    30
 10
276.00000000039739
 20
430.49999999999909
 30
0.0
 11
276.00000000039751
 21
1073.3955742836761
 31
0.0
  0
LINE
  8
SIZE
  6
CONTINUOUS
 62
    30
 10
-275.99999999999949
 20
430.49999999999909
 30
0.0
 11
-275.99999999999949
 21
1073.3955742836761
 31
0.0
  0
LINE
  8
SIZE
  6
CONTINUOUS
 62
    30
 10
264.00000000039751
 20
1053.3955742836761
 30
0.0
 11
-263.99999999999949
 21
1053.3955742836761
 31
0.0
  0
CIRCLE
  8
SIZE
  6
CONTINUOUS
 62
    30
 10
276.00000000039751
 20
1053.3955742836761
 30
0.0
 40
6.0
  0
LINE
  8
SIZE
  6
CONTINUOUS
 62
    30
 10
276.00000000039751
 20
1053.3955742836761
 30
0.0
 11
264.00000000039751
 21
1053.3955742836761
 31
0.0
  0
CIRCLE
  8
SIZE
  6
CONTINUOUS
 62
    30
 10
-275.99999999999949
 20
1053.3955742836761
 30
0.0
 40
6.0
  0
LINE
  8
SIZE
  6
CONTINUOUS
 62
    30
 10
-275.99999999999949
 20
1053.3955742836761
 30
0.0
 11
-263.99999999999949
 21
1053.3955742836761
 31
0.0
  0
TEXT
  8
SIZE
  6
CONTINUOUS
 62
    30
 10
-74.057142856944111
 20
1078.3955742836761
 30
0.0
 40
64.0
  1
552
 41
0.9
 72
     1
 11
0.0000000001987246
 21
1078.3955742836761
 31
0.0
  0
POINT
  8
DEFPOINTS
  6
CONTINUOUS
 62
    30
 10
276.00000000039739
 20
410.49999999999909
 30
0.0
  0
POINT
  8
DEFPOINTS
  6
CONTINUOUS
 62
    30
 10
-275.99999999999949
 20
410.49999999999909
 30
0.0
  0
POINT
  8
DEFPOINTS
  6
CONTINUOUS
 62
    30
 10
-275.99999999999949
 20
1053.3955742836761
 30
0.0
  0
LINE
  8
SIZE
  6
CONTINUOUS
 62
    30
 10
316.50000000039762
 20
390.49999999999932
 30
0.0
 11
666.80617843025982
 21
390.49999999999937
 31
0.0
  0
LINE
  8
SIZE
  6
CONTINUOUS
 62
    30
 10
316.50000000039762
 20
-219.49999999999889
 30
0.0
 11
666.80617843025982
 21
-219.49999999999881
 31
0.0
  0
LINE
  8
SIZE
  6
CONTINUOUS
 62
    30
 10
646.80617843025982
 20
378.49999999999937
 30
0.0
 11
646.80617843025982
 21
-207.49999999999881
 31
0.0
  0
CIRCLE
  8
SIZE
  6
CONTINUOUS
 62
    30
 10
646.80617843025982
 20
390.49999999999937
 30
0.0
 40
6.0
  0
LINE
  8
SIZE
  6
CONTINUOUS
 62
    30
 10
646.80617843025982
 20
390.49999999999937
 30
0.0
 11
646.80617843025982
 21
378.49999999999937
 31
0.0
  0
CIRCLE
  8
SIZE
  6
CONTINUOUS
 62
    30
 10
646.80617843025982
 20
-219.49999999999881
 30
0.0
 40
6.0
  0
LINE
  8
SIZE
  6
CONTINUOUS
 62
    30
 10
646.80617843025982
 20
-219.49999999999881
 30
0.0
 11
646.80617843025982
 21
-207.49999999999881
 31
0.0
  0
TEXT
  8
SIZE
  6
CONTINUOUS
 62
    30
 10
621.80617843025982
 20
16.928571428571519
 30
0.0
 40
64.0
  1
610
 50
90.0
 41
0.9
 72
     1
 11
621.80617843025982
 21
85.500000000000071
 31
0.0
  0
POINT
  8
DEFPOINTS
  6
CONTINUOUS
 62
    30
 10
296.50000000039762
 20
390.49999999999932
 30
0.0
  0
POINT
  8
DEFPOINTS
  6
CONTINUOUS
 62
    30
 10
296.50000000039762
 20
-219.49999999999889
 30
0.0
  0
POINT
  8
DEFPOINTS
  6
CONTINUOUS
 62
    30
 10
646.80617843025982
 20
-219.49999999999881
 30
0.0
  0
TEXT
  8
NOTE
  6
CONTINUOUS
 62
     4
 10
-78.360097364504782
 20
-630.77834574529675
 30
0.0
 40
64.0
  1
DA1
 41
0.9
  0
TEXT
  8
NOTE
  6
CONTINUOUS
 62
     4
 10
-82.237962390413017
 20
539.28885360667323
 30
0.0
 40
64.0
  1
DA2
 41
0.9
  0
POINT
  8
ARRANGE
  6
CONTINUOUS
 62
     1
 10
0.0
 20
0.0
 30
0.0
  0
CIRCLE
  8
ARRANGE
  6
CONTINUOUS
 62
     1
 10
0.0
 20
0.0
 30
0.0
 40
40.0
  0
LINE
  8
OUTLINE
  6
CONTINUOUS
 62
     3
 10
145.4036000000001
 20
508.0
 30
0.0
 11
-145.40359999960259
 21
508.0
 31
0.0
  0
LINE
  8
OUTLINE
  6
CONTINUOUS
 62
     3
 10
-295.99999999999949
 20
410.99999999999977
 30
0.0
 11
-213.2846152363804
 21
410.99999999999977
 31
0.0
  0
LINE
  8
OUTLINE
  6
CONTINUOUS
 62
     3
 10
213.28461523677879
 20
410.99999999999977
 30
0.0
 11
296.00000000000051
 21
410.99999999999977
 31
0.0
  0
LINE
  8
OUTLINE
  6
CONTINUOUS
 62
     3
 10
-212.68110235328871
 20
409.5904000000009
 30
0.0
 11
-210.6649946828943
 21
409.5904000000009
 31
0.0
  0
LINE
  8
OUTLINE
  6
CONTINUOUS
 62
     3
 10
210.66499468289521
 20
409.5904000000009
 30
0.0
 11
212.68110235368701
 21
409.5904000000009
 31
0.0
  0
LINE
  8
OUTLINE
  6
CONTINUOUS
 62
     3
 10
-164.74998323360569
 20
408.59640000000041
 30
0.0
 11
-153.99998786844441
 21
408.59640000000041
 31
0.0
  0
LINE
  8
OUTLINE
  6
CONTINUOUS
 62
     3
 10
153.99998786844529
 20
408.59640000000041
 30
0.0
 11
164.74998323360569
 21
408.59640000000041
 31
0.0
  0
LINE
  8
OUTLINE
  6
CONTINUOUS
 62
     3
 10
-210.66499999999951
 20
408.0
 30
0.0
 11
-164.75000000000051
 21
408.0
 31
0.0
  0
LINE
  8
OUTLINE
  6
CONTINUOUS
 62
     3
 10
164.75000000039699
 20
408.0
 30
0.0
 11
210.66499999999951
 21
408.0
 31
0.0
  0
LINE
  8
OUTLINE
  6
CONTINUOUS
 62
     3
 10
-237.9999999996021
 20
370.50000000000068
 30
0.0
 11
-270.5329999999999
 21
370.50000000000068
 31
0.0
  0
LINE
  8
OUTLINE
  6
CONTINUOUS
 62
     3
 10
-281.46699999960168
 20
370.50000000000068
 30
0.0
 11
-295.99999999999949
 21
370.50000000000068
 31
0.0
  0
LINE
  8
OUTLINE
  6
CONTINUOUS
 62
     3
 10
238.00000000000051
 20
370.50000000000068
 30
0.0
 11
270.5329999999999
 21
370.50000000000068
 31
0.0
  0
LINE
  8
OUTLINE
  6
CONTINUOUS
 62
     3
 10
281.4670000000001
 20
370.50000000000068
 30
0.0
 11
296.00000000000051
 21
370.50000000000068
 31
0.0
  0
LINE
  8
OUTLINE
  6
CONTINUOUS
 62
     3
 10
-213.2298731598498
 20
410.99281606817362
 30
0.0
 11
-213.2846152363804
 21
410.99999999999977
 31
0.0
  0
LINE
  8
OUTLINE
  6
CONTINUOUS
 62
     3
 10
-213.17226949608221
 20
410.97070637985757
 30
0.0
 11
-213.2298731598498
 21
410.99281606817362
 31
0.0
  0
LINE
  8
OUTLINE
  6
CONTINUOUS
 62
     3
 10
-213.1118042454741
 20
410.93293764136962
 30
0.0
 11
-213.17226949608221
 21
410.97070637985757
 31
0.0
  0
LINE
  8
OUTLINE
  6
CONTINUOUS
 62
     3
 10
-213.0484774080264
 20
410.87893800848877
 30
0.0
 11
-213.1118042454741
 21
410.93293764136962
 31
0.0
  0
LINE
  8
OUTLINE
  6
CONTINUOUS
 62
     3
 10
213.2298731602481
 20
410.99281606817362
 30
0.0
 11
213.28461523677879
 21
410.99999999999977
 31
0.0
  0
LINE
  8
OUTLINE
  6
CONTINUOUS
 62
     3
 10
-236.80719999960229
 20
181.96440000000081
 30
0.0
 11
-237.9999999996021
 21
181.96440000000081
 31
0.0
  0
LINE
  8
OUTLINE
  6
CONTINUOUS
 62
     3
 10
-236.80719999960229
 20
179.4794000000002
 30
0.0
 11
-239.3915999999995
 21
179.4794000000002
 31
0.0
  0
LINE
  8
OUTLINE
  6
CONTINUOUS
 62
     3
 10
213.00361242044031
 20
-239.8100349391855
 30
0.0
 11
213.04847740842391
 21
-239.87893800848661
 31
0.0
  0
LINE
  8
OUTLINE
  6
CONTINUOUS
 62
     3
 10
-213.0036124200428
 20
410.81003493918769
 30
0.0
 11
-213.0484774080264
 21
410.87893800848877
 31
0.0
  0
LINE
  8
OUTLINE
  6
CONTINUOUS
 62
     3
 10
212.96024132738279
 20
-239.7285545417719
 30
0.0
 11
213.00361242044031
 21
-239.8100349391855
 31
0.0
  0
LINE
  8
OUTLINE
  6
CONTINUOUS
 62
     3
 10
212.9183641296481
 20
-239.63607469303429
 30
0.0
 11
212.96024132738279
 21
-239.7285545417719
 31
0.0
  0
LINE
  8
OUTLINE
  6
CONTINUOUS
 62
     3
 10
212.6811023536861
 20
-238.5904000000005
 30
0.0
 11
212.9183641296481
 21
-239.63607469303429
 31
0.0
  0
LINE
  8
OUTLINE
  6
CONTINUOUS
 62
     3
 10
213.17226949647969
 20
410.97070637985757
 30
0.0
 11
213.2298731602481
 21
410.99281606817362
 31
0.0
  0
LINE
  8
OUTLINE
  6
CONTINUOUS
 62
     3
 10
213.04847740842391
 20
-239.87893800848661
 30
0.0
 11
213.11180424587161
 21
-239.93293764136911
 31
0.0
  0
LINE
  8
OUTLINE
  6
CONTINUOUS
 62
     3
 10
-212.9602413269854
 20
410.72855454177238
 30
0.0
 11
-213.0036124200428
 21
410.81003493918769
 31
0.0
  0
LINE
  8
OUTLINE
  6
CONTINUOUS
 62
     3
 10
-241.62809999999939
 20
-36.510135560967228
 30
0.0
 11
-242.4232999999999
 21
-36.510135560967228
 31
0.0
  0
LINE
  8
OUTLINE
  6
CONTINUOUS
 62
     3
 10
213.11180424587161
 20
-239.93293764136911
 30
0.0
 11
213.17226949647969
 21
-239.97070637985709
 31
0.0
  0
LINE
  8
OUTLINE
  6
CONTINUOUS
 62
     3
 10
-212.9183641292507
 20
410.63607469303457
 30
0.0
 11
-212.9602413269854
 21
410.72855454177238
 31
0.0
  0
LINE
  8
OUTLINE
  6
CONTINUOUS
 62
     3
 10
-212.68110235328871
 20
409.5904000000009
 30
0.0
 11
-212.9183641292507
 21
410.63607469303457
 31
0.0
  0
LINE
  8
OUTLINE
  6
CONTINUOUS
 62
     3
 10
213.11180424587161
 20
410.93293764136962
 30
0.0
 11
213.17226949647969
 21
410.97070637985757
 31
0.0
  0
LINE
  8
OUTLINE
  6
CONTINUOUS
 62
     3
 10
-243.41729999999961
 20
-46.947130254200147
 30
0.0
 11
-242.82090000000019
 21
-46.947130254200147
 31
0.0
  0
LINE
  8
OUTLINE
  6
CONTINUOUS
 62
     3
 10
-262.2151851694648
 20
-56.887129590606037
 30
0.0
 11
-245.4052999999999
 21
-56.887123184474603
 31
0.0
  0
LINE
  8
OUTLINE
  6
CONTINUOUS
 62
     3
 10
213.17226949647969
 20
-239.97070637985709
 30
0.0
 11
213.2298731602481
 21
-239.9928160681732
 31
0.0
  0
LINE
  8
OUTLINE
  6
CONTINUOUS
 62
     3
 10
-262.20389999999998
 20
-155.29312826421261
 30
0.0
 11
-245.4052999999999
 21
-155.29312826421261
 31
0.0
  0
LINE
  8
OUTLINE
  6
CONTINUOUS
 62
     3
 10
-243.41729999999961
 20
-165.2331302542002
 30
0.0
 11
-242.82090000000019
 21
-165.2331302542002
 31
0.0
  0
LINE
  8
OUTLINE
  6
CONTINUOUS
 62
     3
 10
-242.4232999999999
 20
-165.73012998900001
 30
0.0
 11
-241.62809999999939
 21
-165.73012998900001
 31
0.0
  0
LINE
  8
OUTLINE
  6
CONTINUOUS
 62
     3
 10
213.2298731602481
 20
-239.9928160681732
 30
0.0
 11
213.28461523677879
 21
-239.99999999999929
 31
0.0
  0
LINE
  8
OUTLINE
  6
CONTINUOUS
 62
     3
 10
213.04847740842391
 20
410.87893800848877
 30
0.0
 11
213.11180424587161
 21
410.93293764136962
 31
0.0
  0
LINE
  8
OUTLINE
  6
CONTINUOUS
 62
     3
 10
-238.79519999999999
 20
-199.50000000000031
 30
0.0
 11
-270.5329999999999
 21
-199.50000000000031
 31
0.0
  0
LINE
  8
OUTLINE
  6
CONTINUOUS
 62
     3
 10
-281.46699999960168
 20
-199.50000000000031
 30
0.0
 11
-295.99999999999949
 21
-199.50000000000031
 31
0.0
  0
LINE
  8
OUTLINE
  6
CONTINUOUS
 62
     3
 10
238.00000000000051
 20
-199.50000000000031
 30
0.0
 11
270.5329999999999
 21
-199.50000000000031
 31
0.0
  0
LINE
  8
OUTLINE
  6
CONTINUOUS
 62
     3
 10
281.4670000000001
 20
-199.50000000000031
 30
0.0
 11
296.00000000000051
 21
-199.50000000000031
 31
0.0
  0
LINE
  8
OUTLINE
  6
CONTINUOUS
 62
     3
 10
-210.66499999999951
 20
-236.9999999999994
 30
0.0
 11
-205.09859999999981
 21
-236.9999999999994
 31
0.0
  0
LINE
  8
OUTLINE
  6
CONTINUOUS
 62
     3
 10
205.09860000039811
 20
-236.99999999999781
 30
0.0
 11
210.66500000000039
 21
-236.99999999999781
 31
0.0
  0
LINE
  8
OUTLINE
  6
CONTINUOUS
 62
     3
 10
205.09860000039811
 20
-237.7951999999982
 30
0.0
 11
190.00000000039699
 21
-237.7951999999982
 31
0.0
  0
LINE
  8
OUTLINE
  6
CONTINUOUS
 62
     3
 10
-189.99999999999949
 20
-237.7951999999982
 30
0.0
 11
-205.09859999999981
 21
-237.7951999999982
 31
0.0
  0
LINE
  8
OUTLINE
  6
CONTINUOUS
 62
     3
 10
-212.68110235328871
 20
-238.5904000000005
 30
0.0
 11
-210.6649946828943
 21
-238.5904000000005
 31
0.0
  0
LINE
  8
OUTLINE
  6
CONTINUOUS
 62
     3
 10
210.66499468289521
 20
-238.5904000000005
 30
0.0
 11
212.6811023536861
 21
-238.5904000000005
 31
0.0
  0
LINE
  8
OUTLINE
  6
CONTINUOUS
 62
     3
 10
-295.99999999999949
 20
-239.99999999999929
 30
0.0
 11
-213.2846152363804
 21
-239.99999999999929
 31
0.0
  0
LINE
  8
OUTLINE
  6
CONTINUOUS
 62
     3
 10
213.28461523677879
 20
-239.99999999999929
 30
0.0
 11
296.00000000000051
 21
-239.99999999999929
 31
0.0
  0
LINE
  8
OUTLINE
  6
CONTINUOUS
 62
     3
 10
-213.22987315985071
 20
-239.9928160681732
 30
0.0
 11
-213.2846152363804
 21
-239.99999999999929
 31
0.0
  0
LINE
  8
OUTLINE
  6
CONTINUOUS
 62
     3
 10
-213.1118042454741
 20
-239.93293764136911
 30
0.0
 11
-213.17226949608221
 21
-239.97070637985709
 31
0.0
  0
LINE
  8
OUTLINE
  6
CONTINUOUS
 62
     3
 10
-213.17226949608221
 20
-239.97070637985709
 30
0.0
 11
-213.22987315985071
 21
-239.9928160681732
 31
0.0
  0
LINE
  8
OUTLINE
  6
CONTINUOUS
 62
     3
 10
-188.80719999999971
 20
-407.99999999999949
 30
0.0
 11
-173.2177999999999
 21
-407.99999999999949
 31
0.0
  0
LINE
  8
OUTLINE
  6
CONTINUOUS
 62
     3
 10
167.82360000039759
 20
-407.99999999999949
 30
0.0
 11
188.8072000003981
 21
-407.99999999999949
 31
0.0
  0
LINE
  8
OUTLINE
  6
CONTINUOUS
 62
     3
 10
-165.16639129812711
 20
-408.02484999999922
 30
0.0
 11
-173.2177999999999
 21
-408.02484999999922
 31
0.0
  0
LINE
  8
OUTLINE
  6
CONTINUOUS
 62
     3
 10
-165.16638323360581
 20
-408.59639999999979
 30
0.0
 11
-153.99998786844441
 21
-408.59639999999979
 31
0.0
  0
LINE
  8
OUTLINE
  6
CONTINUOUS
 62
     3
 10
153.99998786844441
 20
-408.59639999999979
 30
0.0
 11
167.8235832336054
 21
-408.59639999999979
 31
0.0
  0
LINE
  8
OUTLINE
  6
CONTINUOUS
 62
     3
 10
-212.68110235328871
 20
-238.5904000000005
 30
0.0
 11
-213.0484774080264
 21
-239.87893800848661
 31
0.0
  0
LINE
  8
OUTLINE
  6
CONTINUOUS
 62
     3
 10
213.00361242044031
 20
410.81003493918769
 30
0.0
 11
213.04847740842391
 21
410.87893800848877
 31
0.0
  0
LINE
  8
OUTLINE
  6
CONTINUOUS
 62
     3
 10
-213.0484774080264
 20
-239.87893800848661
 30
0.0
 11
-213.1118042454741
 21
-239.93293764136911
 31
0.0
  0
LINE
  8
OUTLINE
  6
CONTINUOUS
 62
     3
 10
-145.40359999960259
 20
-507.99999999999949
 30
0.0
 11
145.4036000000001
 21
-507.99999999999949
 31
0.0
  0
LINE
  8
OUTLINE
  6
CONTINUOUS
 62
     3
 10
-295.99999999999949
 20
410.99999999999977
 30
0.0
 11
-295.99999999999949
 21
370.50000000000068
 31
0.0
  0
LINE
  8
OUTLINE
  6
CONTINUOUS
 62
     3
 10
-295.99999999999949
 20
-199.50000000000031
 30
0.0
 11
-295.99999999999949
 21
-239.99999999999929
 31
0.0
  0
LINE
  8
OUTLINE
  6
CONTINUOUS
 62
     3
 10
-281.46699999960168
 20
370.50000000000068
 30
0.0
 11
-281.46699999960168
 21
390.49999999999909
 31
0.0
  0
LINE
  8
OUTLINE
  6
CONTINUOUS
 62
     3
 10
-281.46699999960168
 20
-199.50000000000031
 30
0.0
 11
-281.46699999960168
 21
-219.49999999999869
 31
0.0
  0
LINE
  8
OUTLINE
  6
CONTINUOUS
 62
     3
 10
-272.14389999960213
 20
-145.35312826381551
 30
0.0
 11
-272.14389999960213
 21
-66.827123184475113
 31
0.0
  0
LINE
  8
OUTLINE
  6
CONTINUOUS
 62
     3
 10
-270.5329999999999
 20
370.50000000000068
 30
0.0
 11
-270.5329999999999
 21
390.49999999999909
 31
0.0
  0
LINE
  8
OUTLINE
  6
CONTINUOUS
 62
     3
 10
-270.5329999999999
 20
-199.50000000000031
 30
0.0
 11
-270.5329999999999
 21
-219.49999999999869
 31
0.0
  0
LINE
  8
OUTLINE
  6
CONTINUOUS
 62
     3
 10
-243.41729999999961
 20
-165.2331302542002
 30
0.0
 11
-243.4172999999987
 21
-157.28112826381539
 31
0.0
  0
LINE
  8
OUTLINE
  6
CONTINUOUS
 62
     3
 10
-243.4172999999987
 20
-54.899123184475222
 30
0.0
 11
-243.41729999999961
 21
-46.947130254200147
 31
0.0
  0
LINE
  8
OUTLINE
  6
CONTINUOUS
 62
     3
 10
-242.82090000000019
 20
-46.947130254200147
 30
0.0
 11
-242.82089999999931
 21
-54.899109671546753
 31
0.0
  0
LINE
  8
OUTLINE
  6
CONTINUOUS
 62
     3
 10
-242.82089999999931
 20
-157.28113993994839
 30
0.0
 11
-242.82090000000019
 21
-165.2331302542002
 31
0.0
  0
LINE
  8
OUTLINE
  6
CONTINUOUS
 62
     3
 10
-242.4232999999999
 20
-165.73012998900001
 30
0.0
 11
-242.4232999999999
 21
-157.28113993994839
 31
0.0
  0
LINE
  8
OUTLINE
  6
CONTINUOUS
 62
     3
 10
-242.4232999999999
 20
-54.89910967154492
 30
0.0
 11
-242.4232999999999
 21
-36.510135560967228
 31
0.0
  0
LINE
  8
OUTLINE
  6
CONTINUOUS
 62
     3
 10
-241.62809999999939
 20
-36.510135560967228
 30
0.0
 11
-241.62810000000039
 21
-54.89910967154492
 31
0.0
  0
LINE
  8
OUTLINE
  6
CONTINUOUS
 62
     3
 10
-241.62809999999939
 20
-157.28113993994839
 30
0.0
 11
-241.62809999999939
 21
-165.73012998900001
 31
0.0
  0
LINE
  8
OUTLINE
  6
CONTINUOUS
 62
     3
 10
-239.3915999999995
 20
179.4794000000002
 30
0.0
 11
-239.39160000000041
 21
-54.899109671546753
 31
0.0
  0
LINE
  8
OUTLINE
  6
CONTINUOUS
 62
     3
 10
212.96024132738279
 20
410.72855454177238
 30
0.0
 11
213.00361242044031
 21
410.81003493918769
 31
0.0
  0
LINE
  8
OUTLINE
  6
CONTINUOUS
 62
     3
 10
-238.7952000000009
 20
-157.28113993994839
 30
0.0
 11
-238.79520000000181
 21
-199.50000000000031
 31
0.0
  0
LINE
  8
OUTLINE
  6
CONTINUOUS
 62
     3
 10
-237.99999999960119
 20
370.50000000000068
 30
0.0
 11
-237.9999999996021
 21
181.96440000000081
 31
0.0
  0
LINE
  8
OUTLINE
  6
CONTINUOUS
 62
     3
 10
-236.80719999960229
 20
181.96440000000081
 30
0.0
 11
-236.80719999960229
 21
179.4794000000002
 31
0.0
  0
LINE
  8
OUTLINE
  6
CONTINUOUS
 62
     3
 10
-210.66499999999951
 20
-238.5904000000005
 30
0.0
 11
-210.66499999999951
 21
-236.99999999999949
 31
0.0
  0
LINE
  8
OUTLINE
  6
CONTINUOUS
 62
     3
 10
-210.66499999999951
 20
408.0
 30
0.0
 11
-210.66499999999951
 21
409.5904000000009
 31
0.0
  0
LINE
  8
OUTLINE
  6
CONTINUOUS
 62
     3
 10
-205.09859999999981
 20
-237.7951999999982
 30
0.0
 11
-205.09859999999981
 21
-236.99999999999949
 31
0.0
  0
LINE
  8
OUTLINE
  6
CONTINUOUS
 62
     3
 10
-189.99999999999949
 20
-406.80720000000048
 30
0.0
 11
-189.99999999999949
 21
-238.98799999999889
 31
0.0
  0
LINE
  8
OUTLINE
  6
CONTINUOUS
 62
     3
 10
-189.99999999999949
 20
-238.98799999999889
 30
0.0
 11
-189.99999999999949
 21
-237.7951999999982
 31
0.0
  0
LINE
  8
OUTLINE
  6
CONTINUOUS
 62
     3
 10
-173.2177999999999
 20
-407.99999999999949
 30
0.0
 11
-173.2177999999999
 21
-408.02484999999922
 31
0.0
  0
LINE
  8
OUTLINE
  6
CONTINUOUS
 62
     3
 10
-165.16639999999961
 20
-408.59639999999979
 30
0.0
 11
-165.16639999999961
 21
-408.02484999999922
 31
0.0
  0
LINE
  8
OUTLINE
  6
CONTINUOUS
 62
     3
 10
-164.74999999999949
 20
408.0
 30
0.0
 11
-164.74999999999949
 21
408.59640000000041
 31
0.0
  0
LINE
  8
OUTLINE
  6
CONTINUOUS
 62
     3
 10
-151.03023432656249
 20
411.30842240542722
 30
0.0
 11
-145.99999999960301
 21
495.47559999999987
 31
0.0
  0
LINE
  8
OUTLINE
  6
CONTINUOUS
 62
     3
 10
212.91836412964901
 20
410.63607469303457
 30
0.0
 11
212.96024132738279
 21
410.72855454177238
 31
0.0
  0
LINE
  8
OUTLINE
  6
CONTINUOUS
 62
     3
 10
-151.03023432656249
 20
-411.3084224054287
 30
0.0
 11
-145.99999999960301
 21
-495.4755999999993
 31
0.0
  0
LINE
  8
OUTLINE
  6
CONTINUOUS
 62
     3
 10
-145.99999999960301
 20
495.47559999999987
 30
0.0
 11
-145.99999999960301
 21
507.40359999999959
 31
0.0
  0
LINE
  8
OUTLINE
  6
CONTINUOUS
 62
     3
 10
-145.99999999960301
 20
-495.4755999999993
 30
0.0
 11
-145.99999999960301
 21
-507.40359999999919
 31
0.0
  0
LINE
  8
OUTLINE
  6
CONTINUOUS
 62
     3
 10
212.68110235368701
 20
409.5904000000009
 30
0.0
 11
212.91836412964901
 21
410.63607469303457
 31
0.0
  0
LINE
  8
OUTLINE
  6
CONTINUOUS
 62
     3
 10
146.00000000000051
 20
495.47559999999987
 30
0.0
 11
146.00000000000051
 21
507.40359999999959
 31
0.0
  0
LINE
  8
OUTLINE
  6
CONTINUOUS
 62
     3
 10
146.00000000000051
 20
-495.4755999999993
 30
0.0
 11
146.00000000000051
 21
-507.40359999999919
 31
0.0
  0
LINE
  8
OUTLINE
  6
CONTINUOUS
 62
     3
 10
151.03023432696
 20
-411.3084224054287
 30
0.0
 11
146.00000000000051
 21
-495.4755999999993
 31
0.0
  0
LINE
  8
OUTLINE
  6
CONTINUOUS
 62
     3
 10
151.03023432696
 20
411.30842240542722
 30
0.0
 11
146.00000000000051
 21
495.47559999999987
 31
0.0
  0
LINE
  8
OUTLINE
  6
CONTINUOUS
 62
     3
 10
164.7500000003979
 20
408.59640000000041
 30
0.0
 11
164.7500000003979
 21
408.0
 31
0.0
  0
LINE
  8
OUTLINE
  6
CONTINUOUS
 62
     3
 10
167.82360000039759
 20
-407.99999999999949
 30
0.0
 11
167.82360000039759
 21
-408.59639999999979
 31
0.0
  0
LINE
  8
OUTLINE
  6
CONTINUOUS
 62
     3
 10
190.00000000039699
 20
-238.98799999999889
 30
0.0
 11
190.00000000039699
 21
-237.7951999999982
 31
0.0
  0
LINE
  8
OUTLINE
  6
CONTINUOUS
 62
     3
 10
190.00000000039699
 20
-238.98799999999889
 30
0.0
 11
190.00000000039699
 21
-406.80720000000048
 31
0.0
  0
LINE
  8
OUTLINE
  6
CONTINUOUS
 62
     3
 10
203.20999999999961
 20
408.0
 30
0.0
 11
203.20999999999961
 21
408.02484999999979
 31
0.0
  0
LINE
  8
OUTLINE
  6
CONTINUOUS
 62
     3
 10
205.09860000039811
 20
-237.7951999999982
 30
0.0
 11
205.09860000039811
 21
-236.99999999999949
 31
0.0
  0
LINE
  8
OUTLINE
  6
CONTINUOUS
 62
     3
 10
210.66499999999951
 20
409.5904000000009
 30
0.0
 11
210.66499999999951
 21
408.0
 31
0.0
  0
LINE
  8
OUTLINE
  6
CONTINUOUS
 62
     3
 10
210.66499999999951
 20
-236.99999999999949
 30
0.0
 11
210.66499999999951
 21
-238.5904000000005
 31
0.0
  0
LINE
  8
OUTLINE
  6
CONTINUOUS
 62
     3
 10
238.00000000000139
 20
-199.50000000000031
 30
0.0
 11
238.00000000000051
 21
370.50000000000068
 31
0.0
  0
LINE
  8
OUTLINE
  6
CONTINUOUS
 62
     3
 10
270.5329999999999
 20
370.50000000000068
 30
0.0
 11
270.5329999999999
 21
390.49999999999909
 31
0.0
  0
LINE
  8
OUTLINE
  6
CONTINUOUS
 62
     3
 10
270.5329999999999
 20
-199.50000000000031
 30
0.0
 11
270.5329999999999
 21
-219.49999999999869
 31
0.0
  0
LINE
  8
OUTLINE
  6
CONTINUOUS
 62
     3
 10
281.4670000000001
 20
370.50000000000068
 30
0.0
 11
281.4670000000001
 21
390.49999999999909
 31
0.0
  0
LINE
  8
OUTLINE
  6
CONTINUOUS
 62
     3
 10
281.4670000000001
 20
-199.50000000000031
 30
0.0
 11
281.4670000000001
 21
-219.49999999999869
 31
0.0
  0
LINE
  8
OUTLINE
  6
CONTINUOUS
 62
     3
 10
296.00000000000051
 20
410.99999999999977
 30
0.0
 11
296.00000000000051
 21
370.50000000000068
 31
0.0
  0
LINE
  8
OUTLINE
  6
CONTINUOUS
 62
     3
 10
296.00000000000051
 20
-199.50000000000031
 30
0.0
 11
296.00000000000051
 21
-239.99999999999929
 31
0.0
  0
ARC
  8
OUTLINE
  6
CONTINUOUS
 62
     3
 10
-275.99999999999949
 20
390.49999999999909
 30
0.0
 40
5.4670000000000014
 50
0.0
 51
180.0
  0
ARC
  8
OUTLINE
  6
CONTINUOUS
 62
     3
 10
-153.99998786844441
 20
411.57840000000022
 30
0.0
 40
2.9820000000000002
 50
270.0
 51
354.80557109229818
  0
ARC
  8
OUTLINE
  6
CONTINUOUS
 62
     3
 10
-145.40359999960259
 20
507.40359999999959
 30
0.0
 40
0.5964
 50
90.0
 51
180.0
  0
ARC
  8
OUTLINE
  6
CONTINUOUS
 62
     3
 10
276.00000000039688
 20
390.49999999999909
 30
0.0
 40
5.4670000000000014
 50
0.0
 51
180.0
  0
ARC
  8
OUTLINE
  6
CONTINUOUS
 62
     3
 10
153.99998786844529
 20
411.57840000000022
 30
0.0
 40
2.9820000000000002
 50
185.19442890770179
 51
270.0
  0
ARC
  8
OUTLINE
  6
CONTINUOUS
 62
     3
 10
145.4036000000001
 20
507.40359999999959
 30
0.0
 40
0.5964
 50
0.0
 51
90.0
  0
ARC
  8
OUTLINE
  6
CONTINUOUS
 62
     3
 10
-262.20389999999998
 20
-66.827098676807054
 30
0.0
 40
9.9399999999999995
 50
90.065007516308128
 51
180.0
  0
ARC
  8
OUTLINE
  6
CONTINUOUS
 62
     3
 10
-262.20389999999998
 20
-145.35312826381551
 30
0.0
 40
9.9399999999999995
 50
180.0
 51
270.0
  0
ARC
  8
OUTLINE
  6
CONTINUOUS
 62
     3
 10
-275.99999999999949
 20
-219.49999999999869
 30
0.0
 40
5.4670000000000014
 50
180.0
 51
0.0
  0
ARC
  8
OUTLINE
  6
CONTINUOUS
 62
     3
 10
-153.99998786844441
 20
-411.57839999999987
 30
0.0
 40
2.9820000000000002
 50
5.1944289077017816
 51
90.0
  0
ARC
  8
OUTLINE
  6
CONTINUOUS
 62
     3
 10
-245.4052999999999
 20
-54.899123184475222
 30
0.0
 40
1.988
 50
270.0
 51
0.0
  0
ARC
  8
OUTLINE
  6
CONTINUOUS
 62
     3
 10
-245.4052999999999
 20
-157.28112826381539
 30
0.0
 40
1.988
 50
0.0
 51
90.0
  0
ARC
  8
OUTLINE
  6
CONTINUOUS
 62
     3
 10
-188.80719999999971
 20
-406.80720000000048
 30
0.0
 40
1.1928000000000001
 50
180.0
 51
270.0
  0
ARC
  8
OUTLINE
  6
CONTINUOUS
 62
     3
 10
276.00000000039688
 20
-219.49999999999869
 30
0.0
 40
5.4670000000000014
 50
180.0
 51
0.0
  0
ARC
  8
OUTLINE
  6
CONTINUOUS
 62
     3
 10
153.99998786844441
 20
-411.57839999999987
 30
0.0
 40
2.9820000000000002
 50
90.0
 51
174.80557109229821
  0
ARC
  8
OUTLINE
  6
CONTINUOUS
 62
     3
 10
188.8072000003981
 20
-406.80720000000048
 30
0.0
 40
1.1928000000000001
 50
270.0
 51
0.0
  0
ARC
  8
OUTLINE
  6
CONTINUOUS
 62
     3
 10
-145.40359999960259
 20
-507.40359999999919
 30
0.0
 40
0.5964
 50
180.0
 51
270.0
  0
ARC
  8
OUTLINE
  6
CONTINUOUS
 62
     3
 10
145.4036000000001
 20
-507.40359999999919
 30
0.0
 40
0.5964
 50
270.0
 51
0.0
  0
LINE
  8
OUTLINE
  6
CONTINUOUS
 62
     3
 10
-242.82090000000019
 20
-54.899109671546753
 30
0.0
 11
-242.4232999999999
 21
-54.89910967154492
 31
0.0
  0
LINE
  8
OUTLINE
  6
CONTINUOUS
 62
     3
 10
-241.62809999999939
 20
-54.89910967154492
 30
0.0
 11
-239.3915999999995
 21
-54.899109671546753
 31
0.0
  0
LINE
  8
OUTLINE
  6
CONTINUOUS
 62
     3
 10
-242.82090000000019
 20
-157.28113993994839
 30
0.0
 11
-242.4232999999999
 21
-157.28113993994839
 31
0.0
  0
LINE
  8
OUTLINE
  6
CONTINUOUS
 62
     3
 10
-241.62809999999939
 20
-157.28113993994839
 30
0.0
 11
-238.79519999999999
 21
-157.28113993994839
 31
0.0
  0
TEXT
  8
ETC
  6
CONTINUOUS
 62
    61
 10
404.93501033065968
 20
1208.974733256324
 30
0.0
 40
64.0
  1
BFS-210STUA2_1
 41
0.9
  0
TEXT
  8
ETC
  6
CONTINUOUS
 62
    61
 10
400.74901633065917
 20
1091.0194232414931
 30
0.0
 40
64.0
  1
産業扇
 41
0.9
  0
TEXT
  8
ETC
  6
CONTINUOUS
 62
    61
 10
451.45041457921519
 20
982.870650355267
 30
0.0
 40
40.0
  1
BFS-210STUA2
 41
0.9
  0
LINE
  8
SIZE
  6
CONTINUOUS
 62
    30
 10
270.5329999999999
 20
-179.50000000000031
 30
0.0
 11
270.5329999999999
 21
133.75208906598979
 31
0.0
  0
LINE
  8
SIZE
  6
CONTINUOUS
 62
    30
 10
281.4670000000001
 20
-179.50000000000031
 30
0.0
 11
281.4670000000001
 21
133.75208906598979
 31
0.0
  0
LINE
  8
SIZE
  6
CONTINUOUS
 62
    30
 10
258.5329999999999
 20
113.75208906598979
 30
0.0
 11
246.5329999999999
 21
113.75208906598979
 31
0.0
  0
LINE
  8
SIZE
  6
CONTINUOUS
 62
    30
 10
293.4670000000001
 20
113.75208906598979
 30
0.0
 11
413.06700000000012
 21
113.75208906598979
 31
0.0
  0
LINE
  8
SIZE
  6
CONTINUOUS
 62
    30
 10
270.5329999999999
 20
113.75208906598979
 30
0.0
 11
281.4670000000001
 21
113.75208906598979
 31
0.0
  0
CIRCLE
  8
SIZE
  6
CONTINUOUS
 62
    30
 10
270.5329999999999
 20
113.75208906598979
 30
0.0
 40
6.0
  0
LINE
  8
SIZE
  6
CONTINUOUS
 62
    30
 10
270.5329999999999
 20
113.75208906598979
 30
0.0
 11
258.5329999999999
 21
113.75208906598979
 31
0.0
  0
CIRCLE
  8
SIZE
  6
CONTINUOUS
 62
    30
 10
281.4670000000001
 20
113.75208906598979
 30
0.0
 40
6.0
  0
LINE
  8
SIZE
  6
CONTINUOUS
 62
    30
 10
281.4670000000001
 20
113.75208906598979
 30
0.0
 11
293.4670000000001
 21
113.75208906598979
 31
0.0
  0
TEXT
  8
SIZE
  6
CONTINUOUS
 62
    30
 10
330.46699999999998
 20
138.75208906598979
 30
0.0
 40
64.0
  1
11
 41
0.9
 72
     1
 11
359.26700000000011
 21
138.75208906598979
 31
0.0
  0
POINT
  8
DEFPOINTS
  6
CONTINUOUS
 62
    30
 10
270.5329999999999
 20
-199.50000000000031
 30
0.0
  0
POINT
  8
DEFPOINTS
  6
CONTINUOUS
 62
    30
 10
281.4670000000001
 20
-199.50000000000031
 30
0.0
  0
POINT
  8
DEFPOINTS
  6
CONTINUOUS
 62
    30
 10
281.4670000000001
 20
113.75208906598979
 30
0.0
  0
LINE
  8
SIZE
  6
CONTINUOUS
 62
    30
 10
316.00000000000063
 20
-199.5000000000004
 30
0.0
 11
546.24318663299175
 21
-199.5000000000004
 31
0.0
  0
LINE
  8
SIZE
  6
CONTINUOUS
 62
    30
 10
301.46700000000021
 20
-219.49999999999889
 30
0.0
 11
546.24318663299175
 21
-219.49999999999881
 31
0.0
  0
LINE
  8
SIZE
  6
CONTINUOUS
 62
    30
 10
526.24318663299175
 20
-231.49999999999881
 30
0.0
 11
526.24318663299175
 21
-243.49999999999881
 31
0.0
  0
LINE
  8
SIZE
  6
CONTINUOUS
 62
    30
 10
526.24318663299175
 20
-187.50000000000031
 30
0.0
 11
526.24318663299175
 21
-32.242857142857453
 31
0.0
  0
LINE
  8
SIZE
  6
CONTINUOUS
 62
    30
 10
526.24318663299175
 20
-219.49999999999881
 30
0.0
 11
526.24318663299175
 21
-199.50000000000031
 31
0.0
  0
CIRCLE
  8
SIZE
  6
CONTINUOUS
 62
    30
 10
526.24318663299175
 20
-219.49999999999881
 30
0.0
 40
6.0
  0
LINE
  8
SIZE
  6
CONTINUOUS
 62
    30
 10
526.24318663299175
 20
-219.49999999999881
 30
0.0
 11
526.24318663299175
 21
-231.49999999999881
 31
0.0
  0
CIRCLE
  8
SIZE
  6
CONTINUOUS
 62
    30
 10
526.24318663299175
 20
-199.50000000000031
 30
0.0
 40
6.0
  0
LINE
  8
SIZE
  6
CONTINUOUS
 62
    30
 10
526.24318663299175
 20
-199.50000000000031
 30
0.0
 11
526.24318663299175
 21
-187.50000000000031
 31
0.0
  0
TEXT
  8
SIZE
  6
CONTINUOUS
 62
    30
 10
501.24318663299158
 20
-150.5000000000004
 30
0.0
 40
64.0
  1
20
 50
90.0
 41
0.9
 72
     1
 11
501.24318663299158
 21
-103.87142857142901
 31
0.0
  0
POINT
  8
DEFPOINTS
  6
CONTINUOUS
 62
    30
 10
296.00000000000063
 20
-199.5000000000004
 30
0.0
  0
POINT
  8
DEFPOINTS
  6
CONTINUOUS
 62
    30
 10
281.46700000000021
 20
-219.49999999999889
 30
0.0
  0
POINT
  8
DEFPOINTS
  6
CONTINUOUS
 62
    30
 10
526.24318663299175
 20
-219.49999999999881
 30
0.0
  0
TEXT
  8
NOTE
  6
CONTINUOUS
 62
     4
 10
356.20181211798217
 20
-534.42348616661832
 30
0.0
 40
64.0
  1
%%uAH 4
 41
0.9
  0
LINE
  8
NOTE
  6
CONTINUOUS
 62
     4
 10
356.11181211798242
 20
-547.22348616661839
 30
0.0
 11
570.14466926083946
 21
-547.22348616661839
 31
0.0
  0
LINE
  8
NOTE
  6
CONTINUOUS
 62
     4
 10
275.23515081079762
 20
-252.6200142070785
 30
0.0
 11
276.00000000039739
 21
-219.49999999999869
 31
0.0
  0
LINE
  8
NOTE
  6
CONTINUOUS
 62
     4
 10
276.00000000039739
 20
-219.49999999999869
 30
0.0
 11
291.8976720752803
 21
-248.5651743149669
 31
0.0
  0
LINE
  8
NOTE
  6
CONTINUOUS
 62
     4
 10
276.00000000039739
 20
-219.49999999999869
 30
0.0
 11
291.13282288568041
 21
-281.6851885220467
 31
0.0
  0
LINE
  8
NOTE
  6
CONTINUOUS
 62
     4
 10
291.13282288568053
 20
-281.68518852204681
 30
0.0
 11
355.75181211798241
 21
-547.22348616661839
 31
0.0
  0
LINE
  8
NOTE
  6
CONTINUOUS
 62
     4
 10
355.75181211798241
 20
-547.22348616661839
 30
0.0
 11
356.11181211798242
 21
-547.22348616661839
 31
0.0
  0
ENDSEC
  0
EOF
