  0
SECTION
  2
HEADER
  9
$ACADVER
  1
AC1009
  9
$DWGCODEPAGE
  3
dos932
  9
$INSBASE
 10
0.0
 20
0.0
 30
0.0
  9
$EXTMIN
 10
-526.78263149501004
 20
-409.04441600000001
 30
0.0
  9
$EXTMAX
 10
917.48493765874332
 20
587.42271126875073
 30
0.0
  9
$LIMMIN
 10
-2970.0
 20
-2100.0
  9
$LIMMAX
 10
2970.0
 20
2100.0
  9
$ORTHOMODE
 70
     1
  9
$REGENMODE
 70
     1
  9
$FILLMODE
 70
     1
  9
$QTEXTMODE
 70
     0
  9
$MIRRTEXT
 70
     0
  9
$LTSCALE
 40
20.0
  9
$ATTMODE
 70
     1
  9
$TEXTSIZE
 40
64.0
  9
$TRACEWID
 40
0.05
  9
$TEXTSTYLE
  7
STANDARD
  9
$CLAYER
  8
SIZE
  9
$CELTYPE
  6
CONTINUOUS
  9
$CECOLOR
 62
     7
  9
$DIMSCALE
 40
1.0
  9
$DIMASZ
 40
12.0
  9
$DIMEXO
 40
20.0
  9
$DIMDLI
 40
200.0
  9
$DIMRND
 40
0.0
  9
$DIMDLE
 40
0.0
  9
$DIMEXE
 40
20.0
  9
$DIMTP
 40
0.0
  9
$DIMTM
 40
0.0
  9
$DIMTXT
 40
64.0
  9
$DIMCEN
 40
0.09
  9
$DIMTSZ
 40
0.0
  9
$DIMTOL
 70
     0
  9
$DIMLIM
 70
     0
  9
$DIMTIH
 70
     0
  9
$DIMTOH
 70
     0
  9
$DIMSE1
 70
     0
  9
$DIMSE2
 70
     0
  9
$DIMTAD
 70
     1
  9
$DIMZIN
 70
     8
  9
$DIMBLK
  1

  9
$DIMASO
 70
     1
  9
$DIMSHO
 70
     0
  9
$DIMPOST
  1

  9
$DIMAPOST
  1

  9
$DIMALT
 70
     0
  9
$DIMALTD
 70
     2
  9
$DIMALTF
 40
25.399999999999999
  9
$DIMLFAC
 40
1.0
  9
$DIMTOFL
 70
     1
  9
$DIMTVP
 40
0.0
  9
$DIMTIX
 70
     1
  9
$DIMSOXD
 70
     0
  9
$DIMSAH
 70
     0
  9
$DIMBLK1
  1

  9
$DIMBLK2
  1

  9
$DIMSTYLE
  2
STANDARD
  9
$DIMCLRD
 70
     7
  9
$DIMCLRE
 70
     7
  9
$DIMCLRT
 70
     7
  9
$DIMTFAC
 40
1.0
  9
$DIMGAP
 40
25.0
  9
$LUNITS
 70
     2
  9
$LUPREC
 70
     4
  9
$SKETCHINC
 40
0.1
  9
$FILLETRAD
 40
3.0
  9
$AUNITS
 70
     1
  9
$AUPREC
 70
     3
  9
$MENU
  1
ACAD
  9
$ELEVATION
 40
0.0
  9
$PELEVATION
 40
0.0
  9
$THICKNESS
 40
50.0
  9
$LIMCHECK
 70
     0
  9
$CHAMFERA
 40
0.0
  9
$CHAMFERB
 40
0.0
  9
$SKPOLY
 70
     0
  9
$TDCREATE
 40
2453019.62301037
  9
$TDUPDATE
 40
2458659.696488414
  9
$TDINDWG
 40
1.8504583681
  9
$TDUSRTIMER
 40
1.8504582639
  9
$USRTIMER
 70
     1
  9
$ANGBASE
 50
0.0
  9
$ANGDIR
 70
     0
  9
$PDMODE
 70
     3
  9
$PDSIZE
 40
-2.0
  9
$PLINEWID
 40
0.0
  9
$SPLFRAME
 70
     0
  9
$SPLINETYPE
 70
     6
  9
$SPLINESEGS
 70
     8
  9
$SURFTAB1
 70
     6
  9
$SURFTAB2
 70
     6
  9
$SURFTYPE
 70
     6
  9
$SURFU
 70
     6
  9
$SURFV
 70
     6
  9
$UCSNAME
  2

  9
$UCSORG
 10
0.0
 20
0.0
 30
0.0
  9
$UCSXDIR
 10
1.0
 20
0.0
 30
0.0
  9
$UCSYDIR
 10
0.0
 20
1.0
 30
0.0
  9
$PUCSNAME
  2

  9
$PUCSORG
 10
0.0
 20
0.0
 30
0.0
  9
$PUCSXDIR
 10
1.0
 20
0.0
 30
0.0
  9
$PUCSYDIR
 10
0.0
 20
1.0
 30
0.0
  9
$USERI1
 70
     0
  9
$USERI2
 70
     0
  9
$USERI3
 70
     0
  9
$USERI4
 70
     0
  9
$USERI5
 70
     0
  9
$USERR1
 40
20.0
  9
$USERR2
 40
0.0
  9
$USERR3
 40
0.0
  9
$USERR4
 40
0.0
  9
$USERR5
 40
0.0
  9
$WORLDVIEW
 70
     1
  9
$SHADEDGE
 70
     3
  9
$SHADEDIF
 70
    70
  9
$TILEMODE
 70
     1
  9
$MAXACTVP
 70
    48
  9
$PINSBASE
 10
0.0
 20
0.0
 30
0.0
  9
$PLIMCHECK
 70
     0
  9
$PEXTMIN
 10
-100000000000000000000.0
 20
-100000000000000000000.0
 30
-100000000000000000000.0
  9
$PEXTMAX
 10
100000000000000000000.0
 20
100000000000000000000.0
 30
100000000000000000000.0
  9
$PLIMMIN
 10
0.0
 20
0.0
  9
$PLIMMAX
 10
12.0
 20
9.0
  9
$UNITMODE
 70
     0
  9
$VISRETAIN
 70
     0
  9
$PLINEGEN
 70
     0
  9
$PSLTSCALE
 70
     0
  9
$TREEDEPTH
 70
  3020
  9
$ATTDIA
 70
     0
  9
$ATTREQ
 70
     1
  9
$BLIPMODE
 70
     1
  9
$COORDS
 70
     1
  9
$DRAGMODE
 70
     2
  9
$OSMODE
 70
     0
  9
$HANDLING
 70
     0
  9
$HANDSEED
  5
166
  0
ENDSEC
  0
SECTION
  2
TABLES
  0
TABLE
  2
LTYPE
 70
     2
  0
LTYPE
  2
CONTINUOUS
 70
     0
  3
実線
 72
    65
 73
     0
 40
0.0
  0
LTYPE
  2
DASHDOT
 70
     0
  3
____ _ ____ _ ____ _ ____ _ ____ _ ____ _ ____
 72
    65
 73
     4
 40
5.5
 49
4.0
 49
-0.6
 49
0.3
 49
-0.6
  0
ENDTAB
  0
TABLE
  2
LAYER
 70
    12
  0
LAYER
  2
SIZE
 70
     0
 62
    30
  6
CONTINUOUS
  0
LAYER
  2
BASIS
 70
     0
 62
     6
  6
DASHDOT
  0
LAYER
  2
OUTLINE
 70
     0
 62
     3
  6
CONTINUOUS
  0
LAYER
  2
DETAIL
 70
     0
 62
     5
  6
CONTINUOUS
  0
LAYER
  2
ARRANGE
 70
     0
 62
     1
  6
CONTINUOUS
  0
LAYER
  2
DEFPOINTS
 70
     0
 62
     7
  6
CONTINUOUS
  0
LAYER
  2
ETC
 70
     0
 62
    61
  6
CONTINUOUS
  0
LAYER
  2
FIX
 70
     0
 62
    11
  6
CONTINUOUS
  0
LAYER
  2
NOTE
 70
     0
 62
     4
  6
CONTINUOUS
  0
LAYER
  2
0
 70
    64
 62
     7
  6
CONTINUOUS
  0
LAYER
  2
SERVICESPACE
 70
    64
 62
     2
  6
DASHDOT
  0
LAYER
  2
SYMBOLLINE
 70
    64
 62
    15
  6
CONTINUOUS
  0
ENDTAB
  0
TABLE
  2
STYLE
 70
     1
  0
STYLE
  2
STANDARD
 70
     0
 40
64.0
 41
0.9
 50
0.0
 71
     0
 42
64.0
  3
SIMPLEX.shx
  4
BIGFONT.shx
  0
ENDTAB
  0
TABLE
  2
APPID
 70
    18
  0
APPID
  2
ACAD
 70
     0
  0
APPID
  2
AUTOCAD_POSTSCRIPT_FIGURE
 70
     0
  0
APPID
  2
ACAD_EXEMPT_FROM_CAD_STANDARDS
 70
     0
  0
APPID
  2
ACAD_PSEXT
 70
     0
  0
APPID
  2
ACAUTHENVIRON
 70
     0
  0
APPID
  2
GENIUS_GENOENT_13
 70
     0
  0
APPID
  2
GENIUS_GENCFG_13
 70
     0
  0
APPID
  2
GENIUS_GENCFG0_13
 70
     0
  0
APPID
  2
GENIUS_GENCFG1_13
 70
     0
  0
APPID
  2
GENIUS_GENCFG2_13
 70
     0
  0
APPID
  2
GENIUS_GENCFG3_13
 70
     0
  0
APPID
  2
GENIUS_GENCFG4_13
 70
     0
  0
APPID
  2
GENIUS_GEVCFG0_13
 70
     0
  0
APPID
  2
CONTENTBLOCKICON
 70
     0
  0
APPID
  2
CONTENTBLOCKDESCRIPTION
 70
     0
  0
APPID
  2
ACAD_NAV_VCDISPLAY
 70
     0
  0
APPID
  2
ACAD_MLEADERVER
 70
     0
  0
APPID
  2
ACAD_DSTYLE_DIMRADIAL_EXTENSION
 70
     0
  0
ENDTAB
  0
TABLE
  2
DIMSTYLE
 70
     1
  0
DIMSTYLE
  2
STANDARD
 70
     0
  3

  4

  5

  6

  7

 40
1.0
 41
12.0
 42
20.0
 43
200.0
 44
20.0
 45
0.0
 46
0.0
 47
0.0
 48
0.0
140
64.0
141
0.09
142
0.0
143
25.399999999999999
144
1.0
145
0.0
146
1.0
147
25.0
 71
     0
 72
     0
 73
     0
 74
     0
 75
     0
 76
     0
 77
     1
 78
     8
170
     0
171
     2
172
     1
173
     0
174
     1
175
     0
176
     7
177
     7
178
     7
  0
ENDTAB
  0
TABLE
  2
VIEW
 70
     1
  0
VIEW
  2
ALL
 70
     0
 40
4282.6198079999986
 10
0.0
 20
41.309904000000003
 41
5940.0
 11
0.0
 21
0.0
 31
1.0
 12
0.0
 22
0.0
 32
0.0
 42
50.0
 43
0.0
 44
0.0
 50
0.0
 71
     0
  0
ENDTAB
  0
TABLE
  2
UCS
 70
     0
  0
ENDTAB
  0
TABLE
  2
VPORT
 70
     1
  0
VPORT
  2
*ACTIVE
 70
     0
 10
0.0
 20
0.0
 11
1.0
 21
1.0
 12
579.80432542452581
 22
-0.5835058344657682
 13
0.0
 23
0.0
 14
1.0
 24
1.0
 15
0.0
 25
0.0
 16
0.0
 26
0.0
 36
1.0
 17
0.0
 27
0.0
 37
0.0
 40
2805.473317242765
 41
1.7980884109916371
 42
50.0
 43
0.0
 44
0.0
 50
0.0
 51
0.0
 71
     0
 72
  1000
 73
     1
 74
     3
 75
     0
 76
     0
 77
     0
 78
     0
  0
ENDTAB
  0
ENDSEC
  0
SECTION
  2
BLOCKS
  0
ENDSEC
  0
SECTION
  2
ENTITIES
  0
TEXT
  8
ETC
  6
CONTINUOUS
 62
    61
 10
356.91350908731482
 20
527.4227112687505
 30
0.0
 40
60.0
  1
BFS-210TG2_3
 41
0.9
  0
TEXT
  8
ETC
  6
CONTINUOUS
 62
    61
 10
350.78618158731479
 20
433.30402876875041
 30
0.0
 40
60.0
  1
産業扇
 41
0.9
  0
TEXT
  8
ETC
  6
CONTINUOUS
 62
    61
 10
405.53728322223571
 20
362.73058636928681
 30
0.0
 40
40.0
  1
BFS-210TG2
 41
0.9
  0
CIRCLE
  8
ARRANGE
  6
CONTINUOUS
 62
     1
 10
0.0
 20
0.0
 30
0.0
 40
44.210526000000002
  0
POINT
  8
ARRANGE
  6
CONTINUOUS
 62
     1
 10
0.0
 20
0.0
 30
0.0
  0
LINE
  8
BASIS
  6
DASHDOT
 62
     6
 10
327.08452499999999
 20
-175.0
 30
0.0
 11
-327.08452499999999
 21
-175.0
 31
0.0
  0
LINE
  8
DETAIL
  6
CONTINUOUS
 62
     5
 10
-236.63175000000001
 20
0.0
 30
0.0
 11
239.36824999999999
 21
0.0
 31
0.0
  0
LINE
  8
DETAIL
  6
CONTINUOUS
 62
     5
 10
-236.63175000000001
 20
-350.0
 30
0.0
 11
239.36824999999999
 21
-350.0
 31
0.0
  0
LINE
  8
BASIS
  6
DASHDOT
 62
     6
 10
0.0
 20
-409.04441600000001
 30
0.0
 11
0.0
 21
59.044416000000012
 31
0.0
  0
LINE
  8
DETAIL
  6
CONTINUOUS
 62
     5
 10
297.36824999999999
 20
-165.0
 30
0.0
 11
297.36824999999999
 21
-192.606863
 31
0.0
  0
LINE
  8
DETAIL
  6
CONTINUOUS
 62
     5
 10
208.19298100000009
 20
-212.465239
 30
0.0
 11
222.38394500000001
 21
-168.465239
 31
0.0
  0
LINE
  8
DETAIL
  6
CONTINUOUS
 62
     5
 10
212.95160600000011
 20
-219.0
 30
0.0
 11
285.43763399999989
 21
-219.0
 31
0.0
  0
LINE
  8
DETAIL
  6
CONTINUOUS
 62
     5
 10
234.55872600000001
 20
-219.0
 30
0.0
 11
234.55872600000001
 21
-350.0
 31
0.0
  0
LINE
  8
DETAIL
  6
CONTINUOUS
 62
     5
 10
239.36824999999999
 20
-350.0
 30
0.0
 11
239.36824999999999
 21
-219.0
 31
0.0
  0
LINE
  8
DETAIL
  6
CONTINUOUS
 62
     5
 10
297.36824999999999
 20
-192.606863
 30
0.0
 11
285.43763399999989
 21
-219.0
 31
0.0
  0
ARC
  8
DETAIL
  6
CONTINUOUS
 62
     5
 10
212.95160600000011
 20
-214.0
 30
0.0
 40
5.0
 50
162.12435200000121
 51
270.0
  0
LINE
  8
DETAIL
  6
CONTINUOUS
 62
     5
 10
239.36824999999999
 20
0.0
 30
0.0
 11
239.36824999999999
 21
-165.0
 31
0.0
  0
LINE
  8
DETAIL
  6
CONTINUOUS
 62
     5
 10
234.55872600000001
 20
-165.0
 30
0.0
 11
234.55872600000001
 21
0.0
 31
0.0
  0
LINE
  8
DETAIL
  6
CONTINUOUS
 62
     5
 10
262.57257199999998
 20
-60.437095999999997
 30
0.0
 11
262.57257199999998
 21
-145.227777
 31
0.0
  0
LINE
  8
DETAIL
  6
CONTINUOUS
 62
     5
 10
297.36824999999999
 20
-165.0
 30
0.0
 11
227.14256900000009
 21
-165.0
 31
0.0
  0
ARC
  8
DETAIL
  6
CONTINUOUS
 62
     5
 10
251.6194439999999
 20
-145.21194700000001
 30
0.0
 40
10.953139
 50
293.51613900000308
 51
359.91719399999971
  0
LINE
  8
DETAIL
  6
CONTINUOUS
 62
     5
 10
255.98982799999999
 20
-155.255403
 30
0.0
 11
239.36824999999999
 21
-155.255403
 31
0.0
  0
ARC
  8
DETAIL
  6
CONTINUOUS
 62
     5
 10
227.14256900000009
 20
-170.0
 30
0.0
 40
5.0
 50
90.0
 51
162.12435200000121
  0
ARC
  8
DETAIL
  6
CONTINUOUS
 62
     5
 10
252.23862899999989
 20
-61.026641999999981
 30
0.0
 40
10.350745999999999
 50
3.265152999998294
 51
91.618621000007167
  0
ARC
  8
DETAIL
  6
CONTINUOUS
 62
     5
 10
251.5556160000001
 20
-73.092176999999978
 30
0.0
 40
11.021967
 50
1.7278260000001111
 51
81.269856000009341
  0
LINE
  8
DETAIL
  6
CONTINUOUS
 62
     5
 10
251.94625700000009
 20
-50.680025999999998
 30
0.0
 11
239.36824999999999
 21
-50.680025999999998
 31
0.0
  0
LINE
  8
DETAIL
  6
CONTINUOUS
 62
     5
 10
253.22854000000009
 20
-62.197907999999977
 30
0.0
 11
239.36824999999999
 21
-62.197907999999977
 31
0.0
  0
LINE
  8
DETAIL
  6
CONTINUOUS
 62
     5
 10
-294.63175000000001
 20
-165.0
 30
0.0
 11
-294.63175000000001
 21
-192.606863
 31
0.0
  0
LINE
  8
DETAIL
  6
CONTINUOUS
 62
     5
 10
-202.33139099999991
 20
-212.465239
 30
0.0
 11
-216.52235400000001
 21
-168.465239
 31
0.0
  0
LINE
  8
DETAIL
  6
CONTINUOUS
 62
     5
 10
-207.09001600000011
 20
-219.0
 30
0.0
 11
-279.57604399999991
 21
-219.0
 31
0.0
  0
ARC
  8
DETAIL
  6
CONTINUOUS
 62
     5
 10
-207.09001600000011
 20
-214.0
 30
0.0
 40
5.0
 50
270.0
 51
17.875647999998861
  0
LINE
  8
DETAIL
  6
CONTINUOUS
 62
     5
 10
-236.63175000000001
 20
-219.0
 30
0.0
 11
-236.63175000000001
 21
-350.0
 31
0.0
  0
LINE
  8
DETAIL
  6
CONTINUOUS
 62
     5
 10
-231.82222899999991
 20
-219.0
 30
0.0
 11
-231.82222899999991
 21
-350.0
 31
0.0
  0
LINE
  8
DETAIL
  6
CONTINUOUS
 62
     5
 10
-294.63175000000001
 20
-192.606863
 30
0.0
 11
-279.57604399999991
 21
-219.0
 31
0.0
  0
ARC
  8
DETAIL
  6
CONTINUOUS
 62
     5
 10
-221.28097900000009
 20
-170.0
 30
0.0
 40
5.0
 50
17.875647999998861
 51
90.0
  0
LINE
  8
DETAIL
  6
CONTINUOUS
 62
     5
 10
-236.63175300000009
 20
-165.0
 30
0.0
 11
-236.63175000000001
 21
0.0
 31
0.0
  0
LINE
  8
DETAIL
  6
CONTINUOUS
 62
     5
 10
-231.82222899999991
 20
-165.0
 30
0.0
 11
-231.82222899999991
 21
0.0
 31
0.0
  0
LINE
  8
DETAIL
  6
CONTINUOUS
 62
     5
 10
-294.63175000000001
 20
-165.0
 30
0.0
 11
-221.28097900000009
 21
-165.0
 31
0.0
  0
POINT
  8
DEFPOINTS
  6
CONTINUOUS
 62
    30
 10
175.01249999999999
 20
0.0
 30
0.0
  0
POINT
  8
DEFPOINTS
  6
CONTINUOUS
 62
    30
 10
175.01249999999999
 20
-350.0
 30
0.0
  0
LINE
  8
SIZE
  6
CONTINUOUS
 62
    30
 10
239.36824999999999
 20
8.2917836917879413
 30
0.0
 11
239.36824999999999
 21
173.302066
 31
0.0
  0
LINE
  8
SIZE
  6
CONTINUOUS
 62
    30
 10
-236.63175099999989
 20
8.2588793011475445
 30
0.0
 11
-236.63175099999989
 21
173.302066
 31
0.0
  0
LINE
  8
SIZE
  6
CONTINUOUS
 62
    30
 10
237.36824999999999
 20
143.302066
 30
0.0
 11
-234.63175099999989
 21
143.302066
 31
0.0
  0
CIRCLE
  8
SIZE
  6
CONTINUOUS
 62
    30
 10
239.36824999999999
 20
143.302066
 30
0.0
 40
6.0
  0
CIRCLE
  8
SIZE
  6
CONTINUOUS
 62
    30
 10
-236.63175099999989
 20
143.302066
 30
0.0
 40
6.0
  0
TEXT
  8
SIZE
  6
CONTINUOUS
 62
    30
 10
-71.317465285714178
 20
163.302066
 30
0.0
 40
64.0
  1
476
 41
0.9
 72
     1
 11
1.3682490000001051
 21
163.302066
 31
0.0
  0
POINT
  8
DEFPOINTS
  6
CONTINUOUS
 62
    30
 10
239.36824999999999
 20
-38.786235999999967
 30
0.0
  0
POINT
  8
DEFPOINTS
  6
CONTINUOUS
 62
    30
 10
-236.63175099999989
 20
-43.925843999999977
 30
0.0
  0
POINT
  8
DEFPOINTS
  6
CONTINUOUS
 62
    30
 10
-236.63175099999989
 20
143.302066
 30
0.0
  0
LINE
  8
SIZE
  6
CONTINUOUS
 62
    30
 10
297.36824999999999
 20
-145.0
 30
0.0
 11
297.36824999999999
 21
439.43621800000011
 31
0.0
  0
LINE
  8
SIZE
  6
CONTINUOUS
 62
    30
 10
-294.63175000000001
 20
-147.65169599999999
 30
0.0
 11
-294.63175000000001
 21
439.43621800000011
 31
0.0
  0
LINE
  8
SIZE
  6
CONTINUOUS
 62
    30
 10
295.36824999999999
 20
409.43621800000011
 30
0.0
 11
-292.63175000000001
 21
409.43621800000011
 31
0.0
  0
CIRCLE
  8
SIZE
  6
CONTINUOUS
 62
    30
 10
297.36824999999999
 20
409.43621800000011
 30
0.0
 40
6.0
  0
CIRCLE
  8
SIZE
  6
CONTINUOUS
 62
    30
 10
-294.63175000000001
 20
409.43621800000011
 30
0.0
 40
6.0
  0
TEXT
  8
SIZE
  6
CONTINUOUS
 62
    30
 10
-72.688892857142861
 20
429.43621800000011
 30
0.0
 40
64.0
  1
592
 41
0.9
 72
     1
 11
1.3682499999999891
 21
429.43621800000011
 31
0.0
  0
POINT
  8
DEFPOINTS
  6
CONTINUOUS
 62
    30
 10
297.36824999999999
 20
-165.0
 30
0.0
  0
POINT
  8
DEFPOINTS
  6
CONTINUOUS
 62
    30
 10
-294.63175000000001
 20
-167.65169599999999
 30
0.0
  0
POINT
  8
DEFPOINTS
  6
CONTINUOUS
 62
    30
 10
-294.63175000000001
 20
409.43621800000011
 30
0.0
  0
LINE
  8
SIZE
  6
CONTINUOUS
 62
    30
 10
276.0
 20
-131.8480431879477
 30
0.0
 11
276.0
 21
307.83990799999992
 31
0.0
  0
LINE
  8
SIZE
  6
CONTINUOUS
 62
    30
 10
-276.0
 20
-135.70397422191559
 30
0.0
 11
-276.0
 21
307.83990799999992
 31
0.0
  0
LINE
  8
SIZE
  6
CONTINUOUS
 62
    30
 10
274.0
 20
277.83990799999992
 30
0.0
 11
-274.0
 21
277.83990799999992
 31
0.0
  0
CIRCLE
  8
SIZE
  6
CONTINUOUS
 62
    30
 10
276.0
 20
277.83990799999992
 30
0.0
 40
6.0
  0
CIRCLE
  8
SIZE
  6
CONTINUOUS
 62
    30
 10
-276.0
 20
277.83990799999992
 30
0.0
 40
6.0
  0
TEXT
  8
SIZE
  6
CONTINUOUS
 62
    30
 10
-74.057142857142836
 20
297.83990799999992
 30
0.0
 40
64.0
  1
552
 41
0.9
 72
     1
 11
0.0
 21
297.83990799999992
 31
0.0
  0
POINT
  8
DEFPOINTS
  6
CONTINUOUS
 62
    30
 10
276.0
 20
-175.0
 30
0.0
  0
POINT
  8
DEFPOINTS
  6
CONTINUOUS
 62
    30
 10
-276.0
 20
-175.0
 30
0.0
  0
POINT
  8
DEFPOINTS
  6
CONTINUOUS
 62
    30
 10
-276.0
 20
277.83990799999992
 30
0.0
  0
LINE
  8
OUTLINE
  6
CONTINUOUS
 62
     3
 10
-236.63175000000001
 20
-350.0
 30
0.0
 11
239.36824999999999
 21
-350.0
 31
0.0
  0
LINE
  8
OUTLINE
  6
CONTINUOUS
 62
     3
 10
-236.63175000000001
 20
0.0
 30
0.0
 11
239.36824999999999
 21
0.0
 31
0.0
  0
LINE
  8
OUTLINE
  6
CONTINUOUS
 62
     3
 10
-294.63175000000001
 20
-165.0
 30
0.0
 11
-294.63175000000001
 21
-192.606863
 31
0.0
  0
LINE
  8
OUTLINE
  6
CONTINUOUS
 62
     3
 10
-202.33139099999991
 20
-212.465239
 30
0.0
 11
-216.52235400000001
 21
-168.465239
 31
0.0
  0
LINE
  8
OUTLINE
  6
CONTINUOUS
 62
     3
 10
-207.09001600000011
 20
-219.0
 30
0.0
 11
-279.57604399999991
 21
-219.0
 31
0.0
  0
LINE
  8
OUTLINE
  6
CONTINUOUS
 62
     3
 10
-236.63175000000001
 20
-219.0
 30
0.0
 11
-236.63175000000001
 21
-350.0
 31
0.0
  0
LINE
  8
OUTLINE
  6
CONTINUOUS
 62
     3
 10
-294.63175000000001
 20
-192.606863
 30
0.0
 11
-279.57604399999991
 21
-219.0
 31
0.0
  0
LINE
  8
OUTLINE
  6
CONTINUOUS
 62
     3
 10
-231.82222899999991
 20
-219.0
 30
0.0
 11
-231.82222899999991
 21
-350.0
 31
0.0
  0
ARC
  8
OUTLINE
  6
CONTINUOUS
 62
     3
 10
-207.09001600000011
 20
-214.0
 30
0.0
 40
5.0
 50
270.0
 51
17.875647999998861
  0
LINE
  8
OUTLINE
  6
CONTINUOUS
 62
     3
 10
-294.63175000000001
 20
-165.0
 30
0.0
 11
-221.28097900000009
 21
-165.0
 31
0.0
  0
LINE
  8
OUTLINE
  6
CONTINUOUS
 62
     3
 10
-236.63175300000009
 20
-165.0
 30
0.0
 11
-236.63175000000001
 21
0.0
 31
0.0
  0
LINE
  8
OUTLINE
  6
CONTINUOUS
 62
     3
 10
-231.82222899999991
 20
-165.0
 30
0.0
 11
-231.82222899999991
 21
0.0
 31
0.0
  0
ARC
  8
OUTLINE
  6
CONTINUOUS
 62
     3
 10
-221.28097900000009
 20
-170.0
 30
0.0
 40
5.0
 50
17.875647999998861
 51
90.0
  0
LINE
  8
OUTLINE
  6
CONTINUOUS
 62
     3
 10
297.36824999999999
 20
-165.0
 30
0.0
 11
297.36824999999999
 21
-192.606863
 31
0.0
  0
LINE
  8
OUTLINE
  6
CONTINUOUS
 62
     3
 10
208.19298100000009
 20
-212.465239
 30
0.0
 11
222.38394500000001
 21
-168.465239
 31
0.0
  0
LINE
  8
OUTLINE
  6
CONTINUOUS
 62
     3
 10
212.95160600000011
 20
-219.0
 30
0.0
 11
285.43763399999989
 21
-219.0
 31
0.0
  0
ARC
  8
OUTLINE
  6
CONTINUOUS
 62
     3
 10
212.95160600000011
 20
-214.0
 30
0.0
 40
5.0
 50
162.12435200000121
 51
270.0
  0
LINE
  8
OUTLINE
  6
CONTINUOUS
 62
     3
 10
234.55872600000001
 20
-219.0
 30
0.0
 11
234.55872600000001
 21
-350.0
 31
0.0
  0
LINE
  8
OUTLINE
  6
CONTINUOUS
 62
     3
 10
239.36824999999999
 20
-350.0
 30
0.0
 11
239.36824999999999
 21
-219.0
 31
0.0
  0
LINE
  8
OUTLINE
  6
CONTINUOUS
 62
     3
 10
297.36824999999999
 20
-192.606863
 30
0.0
 11
285.43763399999989
 21
-219.0
 31
0.0
  0
LINE
  8
OUTLINE
  6
CONTINUOUS
 62
     3
 10
297.36824999999999
 20
-165.0
 30
0.0
 11
227.14256900000009
 21
-165.0
 31
0.0
  0
ARC
  8
OUTLINE
  6
CONTINUOUS
 62
     3
 10
227.14256900000009
 20
-170.0
 30
0.0
 40
5.0
 50
90.0
 51
162.12435200000121
  0
LINE
  8
OUTLINE
  6
CONTINUOUS
 62
     3
 10
234.55872600000001
 20
-165.0
 30
0.0
 11
234.55872600000001
 21
0.0
 31
0.0
  0
LINE
  8
OUTLINE
  6
CONTINUOUS
 62
     3
 10
239.36824999999999
 20
0.0
 30
0.0
 11
239.36824999999999
 21
-165.0
 31
0.0
  0
LINE
  8
OUTLINE
  6
CONTINUOUS
 62
     3
 10
262.57257199999998
 20
-60.437095999999997
 30
0.0
 11
262.57257199999998
 21
-145.227777
 31
0.0
  0
ARC
  8
OUTLINE
  6
CONTINUOUS
 62
     3
 10
251.6194439999999
 20
-145.21194700000001
 30
0.0
 40
10.953139
 50
293.51613900000308
 51
359.91719399999971
  0
LINE
  8
OUTLINE
  6
CONTINUOUS
 62
     3
 10
255.98982799999999
 20
-155.255403
 30
0.0
 11
239.36824999999999
 21
-155.255403
 31
0.0
  0
ARC
  8
OUTLINE
  6
CONTINUOUS
 62
     3
 10
252.23862899999989
 20
-61.026641999999981
 30
0.0
 40
10.350745999999999
 50
3.265152999998294
 51
91.618621000007167
  0
ARC
  8
OUTLINE
  6
CONTINUOUS
 62
     3
 10
251.5556160000001
 20
-73.092176999999978
 30
0.0
 40
11.021967
 50
1.7278260000001111
 51
81.269856000009341
  0
LINE
  8
OUTLINE
  6
CONTINUOUS
 62
     3
 10
251.94625700000009
 20
-50.680025999999998
 30
0.0
 11
239.36824999999999
 21
-50.680025999999998
 31
0.0
  0
LINE
  8
OUTLINE
  6
CONTINUOUS
 62
     3
 10
253.22854000000009
 20
-62.197907999999977
 30
0.0
 11
239.36824999999999
 21
-62.197907999999977
 31
0.0
  0
TEXT
  8
NOTE
  6
CONTINUOUS
 62
     4
 10
-477.42800499999998
 20
45.253127000000013
 30
0.0
 40
70.736842000000024
  1
AH
 41
0.9
  0
LINE
  8
NOTE
  6
CONTINUOUS
 62
     4
 10
-494.59186199999999
 20
26.225574999999989
 30
0.0
 11
-362.19652400000001
 21
26.225583000000029
 31
0.0
  0
LINE
  8
NOTE
  6
CONTINUOUS
 62
     4
 10
-276.0
 20
-165.0
 30
0.0
 11
-362.19652400000001
 21
26.225583000000029
 31
0.0
  0
LINE
  8
NOTE
  6
CONTINUOUS
 62
     4
 10
-306.25446099999999
 20
-132.76279
 30
0.0
 11
-276.0
 21
-165.0
 31
0.0
  0
LINE
  8
NOTE
  6
CONTINUOUS
 62
     4
 10
-276.0
 20
-165.0
 30
0.0
 11
-286.08252599999992
 21
-121.954527
 31
0.0
  0
LINE
  8
NOTE
  6
CONTINUOUS
 62
     4
 10
-276.0
 20
-145.0
 30
0.0
 11
-276.0
 21
-185.0
 31
0.0
  0
LINE
  8
NOTE
  6
CONTINUOUS
 62
     4
 10
276.0
 20
-145.0
 30
0.0
 11
276.0
 21
-185.0
 31
0.0
  0
CIRCLE
  8
DETAIL
  6
CONTINUOUS
 62
     5
 10
0.0
 20
-175.0
 30
0.0
 40
146.0
  0
CIRCLE
  8
DETAIL
  6
CONTINUOUS
 62
     5
 10
0.0
 20
-175.0
 30
0.0
 40
154.0
  0
CIRCLE
  8
DETAIL
  6
CONTINUOUS
 62
     5
 10
0.0
 20
-175.0
 30
0.0
 40
169.00041400000001
  0
POINT
  8
DEFPOINTS
  6
CONTINUOUS
 62
    30
 10
-145.49551999999991
 20
-162.87342599999999
 30
0.0
  0
POINT
  8
DEFPOINTS
  6
CONTINUOUS
 62
    30
 10
145.49551999999991
 20
-187.12657400000001
 30
0.0
  0
POINT
  8
DEFPOINTS
  6
CONTINUOUS
 62
    30
 10
-150.144802
 20
-209.242347
 30
0.0
  0
POINT
  8
DEFPOINTS
  6
CONTINUOUS
 62
    30
 10
150.144802
 20
-140.757653
 30
0.0
  0
CIRCLE
  8
FIX
  6
CONTINUOUS
 62
    11
 10
-276.0
 20
-165.0
 30
0.0
 40
5.5
  0
CIRCLE
  8
FIX
  6
CONTINUOUS
 62
    11
 10
276.0
 20
-165.0
 30
0.0
 40
5.5
  0
LINE
  8
SIZE
  6
CONTINUOUS
 62
    30
 10
-256.63175000000012
 20
-0.0000000000000032
 30
0.0
 11
-457.78263149501009
 21
-0.0000000000000356
 31
0.0
  0
LINE
  8
SIZE
  6
CONTINUOUS
 62
    30
 10
-256.63175000000012
 20
-350.00000000000011
 30
0.0
 11
-457.78263149500998
 21
-350.00000000000023
 31
0.0
  0
LINE
  8
SIZE
  6
CONTINUOUS
 62
    30
 10
-437.78263149501009
 20
-12.00000000000003
 30
0.0
 11
-437.78263149500998
 21
-338.00000000000028
 31
0.0
  0
CIRCLE
  8
SIZE
  6
CONTINUOUS
 62
    30
 10
-437.78263149501009
 20
-0.0000000000000323
 30
0.0
 40
6.0
  0
LINE
  8
SIZE
  6
CONTINUOUS
 62
    30
 10
-437.78263149501009
 20
-0.0000000000000323
 30
0.0
 11
-437.78263149501009
 21
-12.00000000000003
 31
0.0
  0
CIRCLE
  8
SIZE
  6
CONTINUOUS
 62
    30
 10
-437.78263149500998
 20
-350.00000000000023
 30
0.0
 40
6.0
  0
LINE
  8
SIZE
  6
CONTINUOUS
 62
    30
 10
-437.78263149500998
 20
-350.00000000000023
 30
0.0
 11
-437.78263149500998
 21
-338.00000000000028
 31
0.0
  0
TEXT
  8
SIZE
  6
CONTINUOUS
 62
    30
 10
-462.78263149500998
 20
-249.05714285714271
 30
0.0
 40
64.0
  1
350
 50
90.0
 41
0.9
 72
     1
 11
-462.78263149500998
 21
-174.99999999999989
 31
0.0
  0
POINT
  8
DEFPOINTS
  6
CONTINUOUS
 62
    30
 10
-236.6317500000001
 20
0.0
 30
0.0
  0
POINT
  8
DEFPOINTS
  6
CONTINUOUS
 62
    30
 10
-236.6317500000001
 20
-350.00000000000011
 30
0.0
  0
POINT
  8
DEFPOINTS
  6
CONTINUOUS
 62
    30
 10
-437.78263149500998
 20
-350.00000000000023
 30
0.0
  0
LINE
  8
SIZE
  6
CONTINUOUS
 62
    30
 10
553.28646433336553
 20
-54.758825670073122
 30
0.0
 11
154.39609484095661
 21
-141.44637280617479
 31
0.0
  0
LINE
  8
SIZE
  6
CONTINUOUS
 62
    30
 10
-154.39609484095661
 20
-208.55362719382529
 30
0.0
 11
-166.1223805250799
 21
-211.1020039427234
 31
0.0
  0
TEXT
  8
SIZE
  6
CONTINUOUS
 62
    30
 10
323.86569090064262
 20
-79.033397550542844
 30
0.0
 40
64.0
  1
φ292
 50
12.260967512873441
 41
0.9
 72
     1
 11
425.71685798559929
 21
-56.89892521725632
 31
0.0
  0
LINE
  8
SIZE
  6
CONTINUOUS
 62
    30
 10
-142.66980915683331
 20
-206.00525044492721
 30
0.0
 11
142.66980915683331
 21
-143.99474955507301
 31
0.0
  0
CIRCLE
  8
SIZE
  6
CONTINUOUS
 62
    30
 10
-142.66980915683331
 20
-206.00525044492721
 30
0.0
 40
6.0
  0
LINE
  8
SIZE
  6
CONTINUOUS
 62
    30
 10
-142.66980915683331
 20
-206.00525044492721
 30
0.0
 11
-154.39609484095661
 21
-208.55362719382529
 31
0.0
  0
CIRCLE
  8
SIZE
  6
CONTINUOUS
 62
    30
 10
142.66980915683331
 20
-143.99474955507301
 30
0.0
 40
6.0
  0
LINE
  8
SIZE
  6
CONTINUOUS
 62
    30
 10
142.66980915683331
 20
-143.99474955507301
 30
0.0
 11
154.39609484095661
 21
-141.44637280617491
 31
0.0
  0
POINT
  8
DEFPOINTS
  6
CONTINUOUS
 62
    30
 10
142.66980915683331
 20
-143.99474955507301
 30
0.0
  0
POINT
  8
DEFPOINTS
  6
CONTINUOUS
 62
    30
 10
-142.66980915683331
 20
-206.00525044492721
 30
0.0
  0
LINE
  8
SIZE
  6
CONTINUOUS
 62
    30
 10
551.52759827372927
 20
-288.48409538763087
 30
0.0
 11
162.59369389761159
 21
-208.45580225805119
 31
0.0
  0
LINE
  8
SIZE
  6
CONTINUOUS
 62
    30
 10
-162.59369389761159
 20
-141.54419774194869
 30
0.0
 11
-174.34745490225819
 21
-139.12570601245099
 31
0.0
  0
TEXT
  8
SIZE
  6
CONTINUOUS
 62
    30
 10
331.92936179518671
 20
-217.775109693003
 30
0.0
 40
64.0
  1
φ308
 50
348.37291432108202
 41
0.9
 72
     1
 11
434.01917166411721
 21
-238.78143785778289
 31
0.0
  0
LINE
  8
SIZE
  6
CONTINUOUS
 62
    30
 10
-150.83993289296501
 20
-143.9626894714464
 30
0.0
 11
150.83993289296501
 21
-206.03731052855349
 31
0.0
  0
CIRCLE
  8
SIZE
  6
CONTINUOUS
 62
    30
 10
-150.83993289296501
 20
-143.9626894714464
 30
0.0
 40
6.0
  0
LINE
  8
SIZE
  6
CONTINUOUS
 62
    30
 10
-150.83993289296501
 20
-143.9626894714464
 30
0.0
 11
-162.59369389761159
 21
-141.54419774194869
 31
0.0
  0
CIRCLE
  8
SIZE
  6
CONTINUOUS
 62
    30
 10
150.83993289296501
 20
-206.03731052855349
 30
0.0
 40
6.0
  0
LINE
  8
SIZE
  6
CONTINUOUS
 62
    30
 10
150.83993289296501
 20
-206.03731052855349
 30
0.0
 11
162.59369389761159
 21
-208.45580225805119
 31
0.0
  0
POINT
  8
DEFPOINTS
  6
CONTINUOUS
 62
    30
 10
150.83993289296501
 20
-206.03731052855349
 30
0.0
  0
POINT
  8
DEFPOINTS
  6
CONTINUOUS
 62
    30
 10
-150.83993289296501
 20
-143.9626894714464
 30
0.0
  0
ENDSEC
  0
EOF
