  0
SECTION
  2
HEADER
  9
$ACADVER
  1
AC1009
  9
$DWGCODEPAGE
  3
dos932
  9
$INSBASE
 10
0.0
 20
0.0
 30
0.0
  9
$EXTMIN
 10
-438.61520400000001
 20
-261.39726000000002
 30
0.0
  9
$EXTMAX
 10
788.83772112057147
 20
443.37690300000003
 30
0.0
  9
$LIMMIN
 10
-2970.0
 20
-2100.0
  9
$LIMMAX
 10
2970.0
 20
2100.0
  9
$ORTHOMODE
 70
     1
  9
$REGENMODE
 70
     1
  9
$FILLMODE
 70
     1
  9
$QTEXTMODE
 70
     0
  9
$MIRRTEXT
 70
     0
  9
$LTSCALE
 40
20.0
  9
$ATTMODE
 70
     1
  9
$TEXTSIZE
 40
64.0
  9
$TRACEWID
 40
0.05
  9
$TEXTSTYLE
  7
STANDARD
  9
$CLAYER
  8
SIZE
  9
$CELTYPE
  6
CONTINUOUS
  9
$CECOLOR
 62
     7
  9
$DIMSCALE
 40
1.0
  9
$DIMASZ
 40
12.0
  9
$DIMEXO
 40
20.0
  9
$DIMDLI
 40
200.0
  9
$DIMRND
 40
0.0
  9
$DIMDLE
 40
0.0
  9
$DIMEXE
 40
20.0
  9
$DIMTP
 40
0.0
  9
$DIMTM
 40
0.0
  9
$DIMTXT
 40
64.0
  9
$DIMCEN
 40
0.09
  9
$DIMTSZ
 40
0.0
  9
$DIMTOL
 70
     0
  9
$DIMLIM
 70
     0
  9
$DIMTIH
 70
     0
  9
$DIMTOH
 70
     0
  9
$DIMSE1
 70
     0
  9
$DIMSE2
 70
     0
  9
$DIMTAD
 70
     1
  9
$DIMZIN
 70
     8
  9
$DIMBLK
  1

  9
$DIMASO
 70
     1
  9
$DIMSHO
 70
     0
  9
$DIMPOST
  1

  9
$DIMAPOST
  1

  9
$DIMALT
 70
     0
  9
$DIMALTD
 70
     2
  9
$DIMALTF
 40
25.399999999999999
  9
$DIMLFAC
 40
1.0
  9
$DIMTOFL
 70
     1
  9
$DIMTVP
 40
0.0
  9
$DIMTIX
 70
     1
  9
$DIMSOXD
 70
     0
  9
$DIMSAH
 70
     0
  9
$DIMBLK1
  1

  9
$DIMBLK2
  1

  9
$DIMSTYLE
  2
STANDARD
  9
$DIMCLRD
 70
     7
  9
$DIMCLRE
 70
     7
  9
$DIMCLRT
 70
     7
  9
$DIMTFAC
 40
1.0
  9
$DIMGAP
 40
25.0
  9
$LUNITS
 70
     2
  9
$LUPREC
 70
     4
  9
$SKETCHINC
 40
0.1
  9
$FILLETRAD
 40
3.0
  9
$AUNITS
 70
     1
  9
$AUPREC
 70
     3
  9
$MENU
  1
ACAD
  9
$ELEVATION
 40
0.0
  9
$PELEVATION
 40
0.0
  9
$THICKNESS
 40
50.0
  9
$LIMCHECK
 70
     0
  9
$CHAMFERA
 40
0.0
  9
$CHAMFERB
 40
0.0
  9
$SKPOLY
 70
     0
  9
$TDCREATE
 40
2453019.62301037
  9
$TDUPDATE
 40
2458659.372930243
  9
$TDINDWG
 40
1.7245414468
  9
$TDUSRTIMER
 40
1.7245414468
  9
$USRTIMER
 70
     1
  9
$ANGBASE
 50
0.0
  9
$ANGDIR
 70
     0
  9
$PDMODE
 70
     3
  9
$PDSIZE
 40
-2.0
  9
$PLINEWID
 40
0.0
  9
$SPLFRAME
 70
     0
  9
$SPLINETYPE
 70
     6
  9
$SPLINESEGS
 70
     8
  9
$SURFTAB1
 70
     6
  9
$SURFTAB2
 70
     6
  9
$SURFTYPE
 70
     6
  9
$SURFU
 70
     6
  9
$SURFV
 70
     6
  9
$UCSNAME
  2

  9
$UCSORG
 10
0.0
 20
0.0
 30
0.0
  9
$UCSXDIR
 10
1.0
 20
0.0
 30
0.0
  9
$UCSYDIR
 10
0.0
 20
1.0
 30
0.0
  9
$PUCSNAME
  2

  9
$PUCSORG
 10
0.0
 20
0.0
 30
0.0
  9
$PUCSXDIR
 10
1.0
 20
0.0
 30
0.0
  9
$PUCSYDIR
 10
0.0
 20
1.0
 30
0.0
  9
$USERI1
 70
     0
  9
$USERI2
 70
     0
  9
$USERI3
 70
     0
  9
$USERI4
 70
     0
  9
$USERI5
 70
     0
  9
$USERR1
 40
20.0
  9
$USERR2
 40
0.0
  9
$USERR3
 40
0.0
  9
$USERR4
 40
0.0
  9
$USERR5
 40
0.0
  9
$WORLDVIEW
 70
     1
  9
$SHADEDGE
 70
     3
  9
$SHADEDIF
 70
    70
  9
$TILEMODE
 70
     1
  9
$MAXACTVP
 70
    48
  9
$PINSBASE
 10
0.0
 20
0.0
 30
0.0
  9
$PLIMCHECK
 70
     0
  9
$PEXTMIN
 10
-100000000000000000000.0
 20
-100000000000000000000.0
 30
-100000000000000000000.0
  9
$PEXTMAX
 10
100000000000000000000.0
 20
100000000000000000000.0
 30
100000000000000000000.0
  9
$PLIMMIN
 10
0.0
 20
0.0
  9
$PLIMMAX
 10
12.0
 20
9.0
  9
$UNITMODE
 70
     0
  9
$VISRETAIN
 70
     0
  9
$PLINEGEN
 70
     0
  9
$PSLTSCALE
 70
     0
  9
$TREEDEPTH
 70
  3020
  9
$ATTDIA
 70
     0
  9
$ATTREQ
 70
     1
  9
$BLIPMODE
 70
     1
  9
$COORDS
 70
     1
  9
$DRAGMODE
 70
     2
  9
$OSMODE
 70
     0
  9
$HANDLING
 70
     0
  9
$HANDSEED
  5
EC66
  0
ENDSEC
  0
SECTION
  2
TABLES
  0
TABLE
  2
LTYPE
 70
     2
  0
LTYPE
  2
CONTINUOUS
 70
     0
  3
実線
 72
    65
 73
     0
 40
0.0
  0
LTYPE
  2
DASHDOT
 70
     0
  3
____ _ ____ _ ____ _ ____ _ ____ _ ____ _ ____
 72
    65
 73
     4
 40
5.5
 49
4.0
 49
-0.6
 49
0.3
 49
-0.6
  0
ENDTAB
  0
TABLE
  2
LAYER
 70
    12
  0
LAYER
  2
0
 70
     0
 62
     7
  6
CONTINUOUS
  0
LAYER
  2
BASIS
 70
     0
 62
     6
  6
DASHDOT
  0
LAYER
  2
OUTLINE
 70
     0
 62
     3
  6
CONTINUOUS
  0
LAYER
  2
DETAIL
 70
     0
 62
     5
  6
CONTINUOUS
  0
LAYER
  2
SIZE
 70
     0
 62
    30
  6
CONTINUOUS
  0
LAYER
  2
ARRANGE
 70
     0
 62
     1
  6
CONTINUOUS
  0
LAYER
  2
DEFPOINTS
 70
     0
 62
     7
  6
CONTINUOUS
  0
LAYER
  2
ETC
 70
     0
 62
    61
  6
CONTINUOUS
  0
LAYER
  2
FIX
 70
     0
 62
    11
  6
CONTINUOUS
  0
LAYER
  2
NOTE
 70
     0
 62
     4
  6
CONTINUOUS
  0
LAYER
  2
SERVICESPACE
 70
    64
 62
     2
  6
DASHDOT
  0
LAYER
  2
SYMBOLLINE
 70
    64
 62
    15
  6
CONTINUOUS
  0
ENDTAB
  0
TABLE
  2
STYLE
 70
     1
  0
STYLE
  2
STANDARD
 70
     0
 40
64.0
 41
0.9
 50
0.0
 71
     0
 42
64.0
  3
SIMPLEX.shx
  4
BIGFONT.shx
  0
ENDTAB
  0
TABLE
  2
APPID
 70
    17
  0
APPID
  2
ACAD
 70
     0
  0
APPID
  2
AUTOCAD_POSTSCRIPT_FIGURE
 70
     0
  0
APPID
  2
ACAD_EXEMPT_FROM_CAD_STANDARDS
 70
     0
  0
APPID
  2
ACAD_PSEXT
 70
     0
  0
APPID
  2
ACAUTHENVIRON
 70
     0
  0
APPID
  2
GENIUS_GENOENT_13
 70
     0
  0
APPID
  2
GENIUS_GENCFG_13
 70
     0
  0
APPID
  2
GENIUS_GENCFG0_13
 70
     0
  0
APPID
  2
GENIUS_GENCFG1_13
 70
     0
  0
APPID
  2
GENIUS_GENCFG2_13
 70
     0
  0
APPID
  2
GENIUS_GENCFG3_13
 70
     0
  0
APPID
  2
GENIUS_GENCFG4_13
 70
     0
  0
APPID
  2
GENIUS_GEVCFG0_13
 70
     0
  0
APPID
  2
CONTENTBLOCKICON
 70
     0
  0
APPID
  2
CONTENTBLOCKDESCRIPTION
 70
     0
  0
APPID
  2
ACAD_NAV_VCDISPLAY
 70
     0
  0
APPID
  2
ACAD_MLEADERVER
 70
     0
  0
ENDTAB
  0
TABLE
  2
DIMSTYLE
 70
     1
  0
DIMSTYLE
  2
STANDARD
 70
     0
  3

  4

  5
_ORIGIN
  6

  7

 40
1.0
 41
12.0
 42
20.0
 43
200.0
 44
20.0
 45
0.0
 46
0.0
 47
0.0
 48
0.0
140
64.0
141
0.09
142
0.0
143
25.399999999999999
144
1.0
145
0.0
146
1.0
147
25.0
 71
     0
 72
     0
 73
     0
 74
     0
 75
     0
 76
     0
 77
     1
 78
     8
170
     0
171
     2
172
     1
173
     0
174
     1
175
     0
176
     7
177
     7
178
     7
  0
ENDTAB
  0
TABLE
  2
VIEW
 70
     1
  0
VIEW
  2
ALL
 70
     0
 40
4282.6198079999986
 10
0.0
 20
41.309904000000003
 41
5940.0
 11
0.0
 21
0.0
 31
1.0
 12
0.0
 22
0.0
 32
0.0
 42
50.0
 43
0.0
 44
0.0
 50
0.0
 71
     0
  0
ENDTAB
  0
TABLE
  2
UCS
 70
     0
  0
ENDTAB
  0
TABLE
  2
VPORT
 70
     1
  0
VPORT
  2
*ACTIVE
 70
     0
 10
0.0
 20
0.0
 11
1.0
 21
1.0
 12
259.40951435378162
 22
-20.37599784580652
 13
0.0
 23
0.0
 14
1.0
 24
1.0
 15
0.0
 25
0.0
 16
0.0
 26
0.0
 36
1.0
 17
0.0
 27
0.0
 37
0.0
 40
1719.1169472192071
 41
2.0223642172523961
 42
50.0
 43
0.0
 44
0.0
 50
0.0
 51
0.0
 71
     0
 72
  1000
 73
     1
 74
     3
 75
     0
 76
     0
 77
     0
 78
     0
  0
ENDTAB
  0
ENDSEC
  0
SECTION
  2
BLOCKS
  0
BLOCK
  8
0
  2
_ORIGIN
 70
     0
 10
0.0
 20
0.0
 30
0.0
  3
_ORIGIN
  1
_ORIGIN
  0
CIRCLE
  8
0
  6
CONTINUOUS
 62
     7
 10
0.0
 20
0.0
 30
0.0
 40
0.5
  0
LINE
  8
0
  6
CONTINUOUS
 62
     7
 10
0.0
 20
0.0
 30
0.0
 11
-1.0
 21
0.0
 31
0.0
  0
ENDBLK
  8
0
  0
ENDSEC
  0
SECTION
  2
ENTITIES
  0
LINE
  8
DETAIL
  6
CONTINUOUS
 62
     5
 10
111.499999
 20
-225.0
 30
0.0
 11
-111.5
 21
-225.0
 31
0.0
  0
LINE
  8
DETAIL
  6
CONTINUOUS
 62
     5
 10
111.499999
 20
0.0
 30
0.0
 11
-111.5
 21
0.0
 31
0.0
  0
LINE
  8
BASIS
  6
DASHDOT
 62
     6
 10
-187.34667300000001
 20
-112.5
 30
0.0
 11
187.34667300000001
 21
-112.5
 31
0.0
  0
CIRCLE
  8
ARRANGE
  6
CONTINUOUS
 62
     1
 10
0.0
 20
0.0
 30
0.0
 40
44.210526000000002
  0
POINT
  8
ARRANGE
  6
CONTINUOUS
 62
     1
 10
0.0
 20
0.0
 30
0.0
 50
180.0
  0
LINE
  8
DETAIL
  6
CONTINUOUS
 62
     5
 10
-169.5
 20
-102.5
 30
0.0
 11
-169.5
 21
-130.106863
 31
0.0
  0
LINE
  8
DETAIL
  6
CONTINUOUS
 62
     5
 10
-80.324731999999983
 20
-149.965239
 30
0.0
 11
-94.515694999999994
 21
-105.965239
 31
0.0
  0
LINE
  8
BASIS
  6
DASHDOT
 62
     6
 10
0.0
 20
-261.39726000000002
 30
0.0
 11
0.0
 21
46.463045000000022
 31
0.0
  0
LINE
  8
DETAIL
  6
CONTINUOUS
 62
     5
 10
-85.083356999999978
 20
-156.5
 30
0.0
 11
-157.56938400000001
 21
-156.5
 31
0.0
  0
LINE
  8
DETAIL
  6
CONTINUOUS
 62
     5
 10
-169.5
 20
-130.106863
 30
0.0
 11
-157.56938400000001
 21
-156.5
 31
0.0
  0
LINE
  8
DETAIL
  6
CONTINUOUS
 62
     5
 10
-111.5
 20
-225.0
 30
0.0
 11
-111.5
 21
-156.5
 31
0.0
  0
LINE
  8
DETAIL
  6
CONTINUOUS
 62
     5
 10
-106.690476
 20
-156.5
 30
0.0
 11
-106.690476
 21
-225.0
 31
0.0
  0
ARC
  8
DETAIL
  6
CONTINUOUS
 62
     5
 10
-85.083356999999978
 20
-151.5
 30
0.0
 40
5.0
 50
270.0
 51
17.875648000000549
  0
LINE
  8
DETAIL
  6
CONTINUOUS
 62
     5
 10
-169.5
 20
-102.5
 30
0.0
 11
-99.274319999999989
 21
-102.5
 31
0.0
  0
LINE
  8
DETAIL
  6
CONTINUOUS
 62
     5
 10
-111.5
 20
0.0
 30
0.0
 11
-111.5
 21
-102.5
 31
0.0
  0
LINE
  8
DETAIL
  6
CONTINUOUS
 62
     5
 10
-106.690476
 20
-102.5
 30
0.0
 11
-106.690476
 21
0.0
 31
0.0
  0
ARC
  8
DETAIL
  6
CONTINUOUS
 62
     5
 10
-99.274319999999989
 20
-107.5
 30
0.0
 40
5.0
 50
17.875648000000549
 51
90.0
  0
LINE
  8
DETAIL
  6
CONTINUOUS
 62
     5
 10
169.49999700000001
 20
-102.5
 30
0.0
 11
169.49999700000001
 21
-130.106863
 31
0.0
  0
LINE
  8
DETAIL
  6
CONTINUOUS
 62
     5
 10
106.690476
 20
-156.5
 30
0.0
 11
106.690476
 21
-225.0
 31
0.0
  0
LINE
  8
DETAIL
  6
CONTINUOUS
 62
     5
 10
111.49999699999999
 20
-156.5
 30
0.0
 11
111.499999
 21
-225.0
 31
0.0
  0
LINE
  8
DETAIL
  6
CONTINUOUS
 62
     5
 10
106.690476
 20
-102.5
 30
0.0
 11
106.690476
 21
0.0
 31
0.0
  0
LINE
  8
DETAIL
  6
CONTINUOUS
 62
     5
 10
111.499999
 20
-102.5
 30
0.0
 11
111.499999
 21
0.0
 31
0.0
  0
LINE
  8
DETAIL
  6
CONTINUOUS
 62
     5
 10
128.12157500000001
 20
-207.075377
 30
0.0
 11
111.49999699999999
 21
-207.075377
 31
0.0
  0
LINE
  8
OUTLINE
  6
CONTINUOUS
 62
     3
 10
111.499999
 20
-225.0
 30
0.0
 11
-111.5
 21
-225.0
 31
0.0
  0
LINE
  8
OUTLINE
  6
CONTINUOUS
 62
     3
 10
111.499999
 20
0.0
 30
0.0
 11
-111.5
 21
0.0
 31
0.0
  0
LINE
  8
OUTLINE
  6
CONTINUOUS
 62
     3
 10
-169.5
 20
-102.5
 30
0.0
 11
-169.5
 21
-130.106863
 31
0.0
  0
LINE
  8
OUTLINE
  6
CONTINUOUS
 62
     3
 10
-80.324731999999983
 20
-149.965239
 30
0.0
 11
-94.515694999999994
 21
-105.965239
 31
0.0
  0
LINE
  8
OUTLINE
  6
CONTINUOUS
 62
     3
 10
-85.083356999999978
 20
-156.5
 30
0.0
 11
-157.56938400000001
 21
-156.5
 31
0.0
  0
LINE
  8
OUTLINE
  6
CONTINUOUS
 62
     3
 10
-111.5
 20
-225.0
 30
0.0
 11
-111.5
 21
-156.5
 31
0.0
  0
LINE
  8
OUTLINE
  6
CONTINUOUS
 62
     3
 10
-106.690476
 20
-156.5
 30
0.0
 11
-106.690476
 21
-225.0
 31
0.0
  0
LINE
  8
OUTLINE
  6
CONTINUOUS
 62
     3
 10
-169.5
 20
-130.106863
 30
0.0
 11
-157.56938400000001
 21
-156.5
 31
0.0
  0
ARC
  8
OUTLINE
  6
CONTINUOUS
 62
     3
 10
-85.083356999999978
 20
-151.5
 30
0.0
 40
5.0
 50
270.0
 51
17.875648000000549
  0
LINE
  8
OUTLINE
  6
CONTINUOUS
 62
     3
 10
-169.5
 20
-102.5
 30
0.0
 11
-99.274319999999989
 21
-102.5
 31
0.0
  0
LINE
  8
OUTLINE
  6
CONTINUOUS
 62
     3
 10
-111.5
 20
0.0
 30
0.0
 11
-111.5
 21
-102.5
 31
0.0
  0
LINE
  8
OUTLINE
  6
CONTINUOUS
 62
     3
 10
-106.690476
 20
-102.5
 30
0.0
 11
-106.690476
 21
0.0
 31
0.0
  0
ARC
  8
OUTLINE
  6
CONTINUOUS
 62
     3
 10
-99.274319999999989
 20
-107.5
 30
0.0
 40
5.0
 50
17.875648000000549
 51
90.0
  0
LINE
  8
OUTLINE
  6
CONTINUOUS
 62
     3
 10
169.49999700000001
 20
-102.5
 30
0.0
 11
169.49999700000001
 21
-130.106863
 31
0.0
  0
LINE
  8
OUTLINE
  6
CONTINUOUS
 62
     3
 10
106.690476
 20
-156.5
 30
0.0
 11
106.690476
 21
-225.0
 31
0.0
  0
LINE
  8
OUTLINE
  6
CONTINUOUS
 62
     3
 10
111.49999699999999
 20
-156.5
 30
0.0
 11
111.499999
 21
-225.0
 31
0.0
  0
LINE
  8
OUTLINE
  6
CONTINUOUS
 62
     3
 10
128.12157500000001
 20
-207.075377
 30
0.0
 11
111.49999699999999
 21
-207.075377
 31
0.0
  0
LINE
  8
OUTLINE
  6
CONTINUOUS
 62
     3
 10
111.499999
 20
-102.5
 30
0.0
 11
111.499999
 21
0.0
 31
0.0
  0
LINE
  8
OUTLINE
  6
CONTINUOUS
 62
     3
 10
106.690476
 20
-102.5
 30
0.0
 11
106.690476
 21
0.0
 31
0.0
  0
LINE
  8
SIZE
  6
CONTINUOUS
 62
    30
 10
111.499999
 20
20.0
 30
0.0
 11
111.499999
 21
168.80436599999999
 31
0.0
  0
LINE
  8
SIZE
  6
CONTINUOUS
 62
    30
 10
-111.5
 20
20.0
 30
0.0
 11
-111.5
 21
168.80436599999999
 31
0.0
  0
LINE
  8
SIZE
  6
CONTINUOUS
 62
    30
 10
109.499999
 20
138.80436599999999
 30
0.0
 11
-109.5
 21
138.80436599999999
 31
0.0
  0
CIRCLE
  8
SIZE
  6
CONTINUOUS
 62
    30
 10
111.499999
 20
138.80436599999999
 30
0.0
 40
6.0
  0
CIRCLE
  8
SIZE
  6
CONTINUOUS
 62
    30
 10
-111.5
 20
138.80436599999999
 30
0.0
 40
6.0
  0
TEXT
  8
SIZE
  6
CONTINUOUS
 62
    30
 10
-74.057142857142836
 20
158.80436599999999
 30
0.0
 40
64.0
  1
223
 41
0.9
 72
     1
 11
0.0
 21
158.80436599999999
 31
0.0
  0
POINT
  8
DEFPOINTS
  6
CONTINUOUS
 62
    30
 10
111.499999
 20
0.0
 30
0.0
  0
POINT
  8
DEFPOINTS
  6
CONTINUOUS
 62
    30
 10
-111.5
 20
0.0
 30
0.0
  0
POINT
  8
DEFPOINTS
  6
CONTINUOUS
 62
    30
 10
-111.5
 20
138.80436599999999
 30
0.0
  0
LINE
  8
SIZE
  6
CONTINUOUS
 62
    30
 10
-126.690476
 20
0.0
 30
0.0
 11
-301.74543399999999
 21
0.0
 31
0.0
  0
LINE
  8
SIZE
  6
CONTINUOUS
 62
    30
 10
-126.690476
 20
-225.0
 30
0.0
 11
-301.74543399999999
 21
-225.0
 31
0.0
  0
LINE
  8
SIZE
  6
CONTINUOUS
 62
    30
 10
-271.74543399999999
 20
-2.0
 30
0.0
 11
-271.74543399999999
 21
-223.0
 31
0.0
  0
CIRCLE
  8
SIZE
  6
CONTINUOUS
 62
    30
 10
-271.74543399999999
 20
0.0
 30
0.0
 40
6.0
  0
CIRCLE
  8
SIZE
  6
CONTINUOUS
 62
    30
 10
-271.74543399999999
 20
-225.0
 30
0.0
 40
6.0
  0
TEXT
  8
SIZE
  6
CONTINUOUS
 62
    30
 10
-291.74543399999999
 20
-186.55714285714279
 30
0.0
 40
64.0
  1
225
 50
90.0
 41
0.9
 72
     1
 11
-291.74543399999999
 21
-112.5
 31
0.0
  0
POINT
  8
DEFPOINTS
  6
CONTINUOUS
 62
    30
 10
-106.690476
 20
0.0
 30
0.0
  0
POINT
  8
DEFPOINTS
  6
CONTINUOUS
 62
    30
 10
-106.690476
 20
-225.0
 30
0.0
  0
POINT
  8
DEFPOINTS
  6
CONTINUOUS
 62
    30
 10
-271.74543399999999
 20
-225.0
 30
0.0
  0
LINE
  8
SIZE
  6
CONTINUOUS
 62
    30
 10
-148.13175100000001
 20
-76.580574143665217
 30
0.0
 11
-148.13175100000001
 21
270.67383699999999
 31
0.0
  0
LINE
  8
SIZE
  6
CONTINUOUS
 62
    30
 10
150.86824899999999
 20
-74.805949452788809
 30
0.0
 11
150.86824899999999
 21
270.67383699999999
 31
0.0
  0
LINE
  8
SIZE
  6
CONTINUOUS
 62
    30
 10
-146.13175100000001
 20
240.67383699999999
 30
0.0
 11
148.86824899999999
 21
240.67383699999999
 31
0.0
  0
CIRCLE
  8
SIZE
  6
CONTINUOUS
 62
    30
 10
-148.13175100000001
 20
240.67383699999999
 30
0.0
 40
6.0
  0
CIRCLE
  8
SIZE
  6
CONTINUOUS
 62
    30
 10
150.86824899999999
 20
240.67383699999999
 30
0.0
 40
6.0
  0
TEXT
  8
SIZE
  6
CONTINUOUS
 62
    30
 10
-71.317465285714292
 20
260.67383699999999
 30
0.0
 40
64.0
  1
299
 41
0.9
 72
     1
 11
1.3682489999999921
 21
260.67383699999999
 31
0.0
  0
POINT
  8
DEFPOINTS
  6
CONTINUOUS
 62
    30
 10
-148.13175100000001
 20
-112.5
 30
0.0
  0
POINT
  8
DEFPOINTS
  6
CONTINUOUS
 62
    30
 10
150.86824899999999
 20
-112.5
 30
0.0
  0
POINT
  8
DEFPOINTS
  6
CONTINUOUS
 62
    30
 10
150.86824899999999
 20
240.67383699999999
 30
0.0
  0
LINE
  8
SIZE
  6
CONTINUOUS
 62
    30
 10
169.49999700000001
 20
-88.361714000000006
 30
0.0
 11
169.49999700000001
 21
389.37690300000003
 31
0.0
  0
LINE
  8
SIZE
  6
CONTINUOUS
 62
    30
 10
-169.5
 20
-88.361714000000006
 30
0.0
 11
-169.5
 21
389.37690300000003
 31
0.0
  0
LINE
  8
SIZE
  6
CONTINUOUS
 62
    30
 10
167.49999700000001
 20
359.37690300000003
 30
0.0
 11
-167.5
 21
359.37690300000003
 31
0.0
  0
CIRCLE
  8
SIZE
  6
CONTINUOUS
 62
    30
 10
169.49999700000001
 20
359.37690300000003
 30
0.0
 40
6.0
  0
CIRCLE
  8
SIZE
  6
CONTINUOUS
 62
    30
 10
-169.5
 20
359.37690300000003
 30
0.0
 40
6.0
  0
TEXT
  8
SIZE
  6
CONTINUOUS
 62
    30
 10
-72.685716285714278
 20
379.37690300000003
 30
0.0
 40
64.0
  1
339
 41
0.9
 72
     1
 11
-0.000001999999995
 21
379.37690300000003
 31
0.0
  0
POINT
  8
DEFPOINTS
  6
CONTINUOUS
 62
    30
 10
169.49999700000001
 20
-108.36171400000001
 30
0.0
  0
POINT
  8
DEFPOINTS
  6
CONTINUOUS
 62
    30
 10
-169.5
 20
-108.36171400000001
 30
0.0
  0
POINT
  8
DEFPOINTS
  6
CONTINUOUS
 62
    30
 10
-169.5
 20
359.37690300000003
 30
0.0
  0
CIRCLE
  8
DETAIL
  6
CONTINUOUS
 62
     5
 10
0.0
 20
-112.5
 30
0.0
 40
71.0
  0
CIRCLE
  8
DETAIL
  6
CONTINUOUS
 62
     5
 10
0.0
 20
-112.5
 30
0.0
 40
80.0
  0
LINE
  8
SIZE
  6
CONTINUOUS
 62
    30
 10
469.15796100000011
 20
15.92742800000002
 30
0.0
 11
79.090259999999944
 21
-90.849810999999988
 31
0.0
  0
LINE
  8
SIZE
  6
CONTINUOUS
 62
    30
 10
-79.090260000000001
 20
-134.15018900000001
 30
0.0
 11
-81.01929100000001
 21
-134.67824300000001
 31
0.0
  0
TEXT
  8
SIZE
  6
CONTINUOUS
 62
    30
 10
248.28897427637611
 20
-23.797549539422729
 30
0.0
 40
64.0
  1
φ160
 50
15.309149
 41
0.9
 72
     1
 11
353.31641999999999
 21
4.9527350000000183
 31
0.0
  0
LINE
  8
SIZE
  6
CONTINUOUS
 62
    30
 10
-77.161229999999989
 20
-133.62213600000001
 30
0.0
 11
77.161230000000046
 21
-91.377863999999988
 31
0.0
  0
CIRCLE
  8
SIZE
  6
CONTINUOUS
 62
    30
 10
-77.161229999999989
 20
-133.62213600000001
 30
0.0
 40
6.0
  0
CIRCLE
  8
SIZE
  6
CONTINUOUS
 62
    30
 10
77.161230000000046
 20
-91.377863999999988
 30
0.0
 40
6.0
  0
POINT
  8
DEFPOINTS
  6
CONTINUOUS
 62
    30
 10
77.161230000000046
 20
-91.377863999999988
 30
0.0
  0
POINT
  8
DEFPOINTS
  6
CONTINUOUS
 62
    30
 10
-77.161229999999989
 20
-133.62213600000001
 30
0.0
  0
LINE
  8
SIZE
  6
CONTINUOUS
 62
    30
 10
455.966635
 20
-214.35527099999999
 30
0.0
 11
71.244097000000011
 21
-128.41473199999999
 31
0.0
  0
LINE
  8
SIZE
  6
CONTINUOUS
 62
    30
 10
-71.244097000000011
 20
-96.585267999999985
 30
0.0
 11
-73.195989999999995
 21
-96.149248
 31
0.0
  0
TEXT
  8
SIZE
  6
CONTINUOUS
 62
    30
 10
242.18326825181529
 20
-146.10675296431791
 30
0.0
 40
64.0
  1
φ142
 50
347.40782799999999
 41
0.9
 72
     1
 11
348.45548300000002
 21
-169.84616299999999
 31
0.0
  0
LINE
  8
SIZE
  6
CONTINUOUS
 62
    30
 10
-69.29220399999997
 20
-97.021287999999998
 30
0.0
 11
69.29220399999997
 21
-127.978712
 31
0.0
  0
CIRCLE
  8
SIZE
  6
CONTINUOUS
 62
    30
 10
-69.29220399999997
 20
-97.021287999999998
 30
0.0
 40
6.0
  0
CIRCLE
  8
SIZE
  6
CONTINUOUS
 62
    30
 10
69.29220399999997
 20
-127.978712
 30
0.0
 40
6.0
  0
POINT
  8
DEFPOINTS
  6
CONTINUOUS
 62
    30
 10
69.29220399999997
 20
-127.978712
 30
0.0
  0
POINT
  8
DEFPOINTS
  6
CONTINUOUS
 62
    30
 10
-69.29220399999997
 20
-97.021287999999998
 30
0.0
  0
LINE
  8
OUTLINE
  6
CONTINUOUS
 62
     3
 10
137.62213399999999
 20
-156.5
 30
0.0
 11
137.62213399999999
 21
-202.237945
 31
0.0
  0
LINE
  8
DETAIL
  6
CONTINUOUS
 62
     5
 10
137.62213399999999
 20
-156.5
 30
0.0
 11
137.62213399999999
 21
-202.237945
 31
0.0
  0
LINE
  8
OUTLINE
  6
CONTINUOUS
 62
     3
 10
111.499999
 20
-76.464698999999996
 30
0.0
 11
132.78470200000001
 21
-76.464698999999996
 31
0.0
  0
LINE
  8
DETAIL
  6
CONTINUOUS
 62
     5
 10
111.499999
 20
-76.464698999999996
 30
0.0
 11
132.78470200000001
 21
-76.464698999999996
 31
0.0
  0
ARC
  8
OUTLINE
  6
CONTINUOUS
 62
     3
 10
132.78470200000001
 20
-81.302132
 30
0.0
 40
4.8374329999999999
 50
0.0
 51
90.0
  0
ARC
  8
DETAIL
  6
CONTINUOUS
 62
     5
 10
132.78470200000001
 20
-81.302132
 30
0.0
 40
4.8374329999999999
 50
0.0
 51
90.0
  0
LINE
  8
OUTLINE
  6
CONTINUOUS
 62
     3
 10
111.499999
 20
-207.075377
 30
0.0
 11
132.78470200000001
 21
-207.075377
 31
0.0
  0
LINE
  8
DETAIL
  6
CONTINUOUS
 62
     5
 10
111.499999
 20
-207.075377
 30
0.0
 11
132.78470200000001
 21
-207.075377
 31
0.0
  0
ARC
  8
OUTLINE
  6
CONTINUOUS
 62
     3
 10
132.78470200000001
 20
-202.237945
 30
0.0
 40
4.8374329999999999
 50
270.0
 51
0.0
  0
ARC
  8
DETAIL
  6
CONTINUOUS
 62
     5
 10
132.78470200000001
 20
-202.237945
 30
0.0
 40
4.8374329999999999
 50
270.0
 51
0.0
  0
LINE
  8
OUTLINE
  6
CONTINUOUS
 62
     3
 10
137.62213399999999
 20
-81.302132
 30
0.0
 11
137.62213399999999
 21
-102.5
 31
0.0
  0
LINE
  8
DETAIL
  6
CONTINUOUS
 62
     5
 10
137.62213399999999
 20
-102.5
 30
0.0
 11
137.62213399999999
 21
-81.302132
 31
0.0
  0
LINE
  8
NOTE
  6
CONTINUOUS
 62
     4
 10
150.86824899999999
 20
-82.5
 30
0.0
 11
150.86824899999999
 21
-122.5
 31
0.0
  0
LINE
  8
NOTE
  6
CONTINUOUS
 62
     4
 10
-148.13175100000001
 20
-102.5
 30
0.0
 11
-306.21986600000002
 21
35.359392000000007
 31
0.0
  0
LINE
  8
NOTE
  6
CONTINUOUS
 62
     4
 10
-438.61520400000001
 20
35.359384999999968
 30
0.0
 11
-306.21986600000002
 21
35.359392000000007
 31
0.0
  0
TEXT
  8
NOTE
  6
CONTINUOUS
 62
     4
 10
-421.451347
 20
54.386935999999992
 30
0.0
 40
70.73684200000001
  1
AH
 41
0.9
  0
LINE
  8
NOTE
  6
CONTINUOUS
 62
     4
 10
-148.13175100000001
 20
-82.5
 30
0.0
 11
-148.13175100000001
 21
-122.5
 31
0.0
  0
LINE
  8
NOTE
  6
CONTINUOUS
 62
     4
 10
-189.073442
 20
-85.816234000000009
 30
0.0
 11
-148.13175100000001
 21
-102.5
 31
0.0
  0
LINE
  8
NOTE
  6
CONTINUOUS
 62
     4
 10
-148.13175100000001
 20
-102.5
 30
0.0
 11
-175.24641199999999
 21
-67.580589000000003
 31
0.0
  0
LINE
  8
OUTLINE
  6
CONTINUOUS
 62
     3
 10
85.083352999999988
 20
-156.5
 30
0.0
 11
157.56938099999999
 21
-156.5
 31
0.0
  0
LINE
  8
DETAIL
  6
CONTINUOUS
 62
     5
 10
85.083352999999988
 20
-156.5
 30
0.0
 11
157.56938099999999
 21
-156.5
 31
0.0
  0
ARC
  8
OUTLINE
  6
CONTINUOUS
 62
     3
 10
85.083352999999988
 20
-151.5
 30
0.0
 40
5.0
 50
162.1243519999995
 51
270.0
  0
ARC
  8
DETAIL
  6
CONTINUOUS
 62
     5
 10
85.083352999999988
 20
-151.5
 30
0.0
 40
5.0
 50
162.1243519999995
 51
270.0
  0
LINE
  8
OUTLINE
  6
CONTINUOUS
 62
     3
 10
80.32472800000005
 20
-149.965239
 30
0.0
 11
94.515691999999945
 21
-105.965239
 31
0.0
  0
LINE
  8
DETAIL
  6
CONTINUOUS
 62
     5
 10
80.32472800000005
 20
-149.965239
 30
0.0
 11
94.515691999999945
 21
-105.965239
 31
0.0
  0
LINE
  8
OUTLINE
  6
CONTINUOUS
 62
     3
 10
169.49999700000001
 20
-102.5
 30
0.0
 11
99.274316999999996
 21
-102.5
 31
0.0
  0
LINE
  8
DETAIL
  6
CONTINUOUS
 62
     5
 10
169.49999700000001
 20
-102.5
 30
0.0
 11
99.274316999999996
 21
-102.5
 31
0.0
  0
ARC
  8
OUTLINE
  6
CONTINUOUS
 62
     3
 10
99.642565999999988
 20
-107.5
 30
0.0
 40
5.0
 50
90.0
 51
162.1243519999995
  0
ARC
  8
DETAIL
  6
CONTINUOUS
 62
     5
 10
99.642565999999988
 20
-107.5
 30
0.0
 40
5.0
 50
90.0
 51
162.1243519999995
  0
LINE
  8
OUTLINE
  6
CONTINUOUS
 62
     3
 10
169.49999700000001
 20
-102.5
 30
0.0
 11
169.49999700000001
 21
-130.106863
 31
0.0
  0
LINE
  8
DETAIL
  6
CONTINUOUS
 62
     5
 10
169.49999700000001
 20
-102.5
 30
0.0
 11
169.49999700000001
 21
-130.106863
 31
0.0
  0
LINE
  8
OUTLINE
  6
CONTINUOUS
 62
     3
 10
169.49999700000001
 20
-130.106863
 30
0.0
 11
157.56938099999999
 21
-156.5
 31
0.0
  0
LINE
  8
DETAIL
  6
CONTINUOUS
 62
     5
 10
169.49999700000001
 20
-130.106863
 30
0.0
 11
157.56938099999999
 21
-156.5
 31
0.0
  0
LINE
  8
DETAIL
  6
CONTINUOUS
 62
     5
 10
-36.12852399999997
 20
-192.197149
 30
0.0
 11
-80.272131999999999
 21
-148.05354199999999
 31
0.0
  0
ARC
  8
DETAIL
  6
CONTINUOUS
 62
     5
 10
0.0
 20
-112.5
 30
0.0
 40
87.793334000000002
 50
0.0
 51
23.832090999999949
  0
ARC
  8
DETAIL
  6
CONTINUOUS
 62
     5
 10
0.0
 20
-112.5
 30
0.0
 40
87.793334000000002
 50
270.0
 51
0.0
  0
ARC
  8
DETAIL
  6
CONTINUOUS
 62
     5
 10
-0.8020379999999818
 20
-119.214054
 30
0.0
 40
81.083247
 50
244.17132099999861
 51
270.56675199999921
  0
ARC
  8
DETAIL
  6
CONTINUOUS
 62
     5
 10
0.0
 20
-112.5
 30
0.0
 40
87.793334000000002
 50
90.0
 51
180.0
  0
ARC
  8
DETAIL
  6
CONTINUOUS
 62
     5
 10
0.0
 20
-112.5
 30
0.0
 40
87.793334000000002
 50
180.0
 51
203.88915900000131
  0
LINE
  8
DETAIL
  6
CONTINUOUS
 62
     5
 10
80.307503999999994
 20
-77.02642800000001
 30
0.0
 11
36.16389700000002
 21
-32.882821000000007
 31
0.0
  0
ARC
  8
DETAIL
  6
CONTINUOUS
 62
     5
 10
0.7958939999999757
 20
-105.252579
 30
0.0
 40
80.549844999999991
 50
63.954664000001102
 51
90.56613499999969
  0
CIRCLE
  8
FIX
  6
CONTINUOUS
 62
    11
 10
150.86824899999991
 20
-102.5
 30
0.0
 40
5.5
  0
CIRCLE
  8
FIX
  6
CONTINUOUS
 62
    11
 10
-148.13175100000009
 20
-102.5
 30
0.0
 40
5.5
  0
TEXT
  8
ETC
  6
CONTINUOUS
 62
    61
 10
264.2662925491428
 20
382.30598763045901
 30
0.0
 40
60.0
  1
BFS-30SG2_3
 41
0.9
  0
TEXT
  8
ETC
  6
CONTINUOUS
 62
    61
 10
258.13896504914283
 20
288.18730513045881
 30
0.0
 40
60.0
  1
産業扇
 41
0.9
  0
TEXT
  8
ETC
  6
CONTINUOUS
 62
    61
 10
312.89006668406341
 20
217.61386273099521
 30
0.0
 40
40.0
  1
BFS-30SG2
 41
0.9
  0
ENDSEC
  0
EOF
