  0
SECTION
  2
HEADER
  9
$ACADVER
  1
AC1009
  9
$DWGCODEPAGE
  3
dos932
  9
$INSBASE
 10
0.0
 20
0.0
 30
0.0
  9
$EXTMIN
 10
-488.53452917949289
 20
-537.04832824534788
 30
-0.0030516297567118
  9
$EXTMAX
 10
1035.5301019101521
 20
664.90174150665007
 30
50.001526135026353
  9
$LIMMIN
 10
-2970.0
 20
-2100.0
  9
$LIMMAX
 10
2970.0
 20
2100.0
  9
$ORTHOMODE
 70
     1
  9
$REGENMODE
 70
     1
  9
$FILLMODE
 70
     1
  9
$QTEXTMODE
 70
     0
  9
$MIRRTEXT
 70
     0
  9
$LTSCALE
 40
20.0
  9
$ATTMODE
 70
     1
  9
$TEXTSIZE
 40
64.0
  9
$TRACEWID
 40
0.05
  9
$TEXTSTYLE
  7
STANDARD
  9
$CLAYER
  8
SIZE
  9
$CELTYPE
  6
CONTINUOUS
  9
$CECOLOR
 62
     7
  9
$DIMSCALE
 40
1.0
  9
$DIMASZ
 40
12.0
  9
$DIMEXO
 40
20.0
  9
$DIMDLI
 40
200.0
  9
$DIMRND
 40
0.0
  9
$DIMDLE
 40
0.0
  9
$DIMEXE
 40
20.0
  9
$DIMTP
 40
0.0
  9
$DIMTM
 40
0.0
  9
$DIMTXT
 40
64.0
  9
$DIMCEN
 40
0.09
  9
$DIMTSZ
 40
0.0
  9
$DIMTOL
 70
     0
  9
$DIMLIM
 70
     0
  9
$DIMTIH
 70
     0
  9
$DIMTOH
 70
     0
  9
$DIMSE1
 70
     0
  9
$DIMSE2
 70
     0
  9
$DIMTAD
 70
     1
  9
$DIMZIN
 70
     8
  9
$DIMBLK
  1

  9
$DIMASO
 70
     1
  9
$DIMSHO
 70
     0
  9
$DIMPOST
  1

  9
$DIMAPOST
  1

  9
$DIMALT
 70
     0
  9
$DIMALTD
 70
     2
  9
$DIMALTF
 40
25.399999999999999
  9
$DIMLFAC
 40
1.0
  9
$DIMTOFL
 70
     1
  9
$DIMTVP
 40
0.0
  9
$DIMTIX
 70
     1
  9
$DIMSOXD
 70
     0
  9
$DIMSAH
 70
     0
  9
$DIMBLK1
  1

  9
$DIMBLK2
  1

  9
$DIMSTYLE
  2
STANDARD
  9
$DIMCLRD
 70
     7
  9
$DIMCLRE
 70
     7
  9
$DIMCLRT
 70
     7
  9
$DIMTFAC
 40
1.0
  9
$DIMGAP
 40
25.0
  9
$LUNITS
 70
     2
  9
$LUPREC
 70
     4
  9
$SKETCHINC
 40
0.1
  9
$FILLETRAD
 40
3.0
  9
$AUNITS
 70
     1
  9
$AUPREC
 70
     3
  9
$MENU
  1
ACAD
  9
$ELEVATION
 40
0.0
  9
$PELEVATION
 40
0.0
  9
$THICKNESS
 40
0.0
  9
$LIMCHECK
 70
     0
  9
$CHAMFERA
 40
0.0
  9
$CHAMFERB
 40
0.0
  9
$SKPOLY
 70
     0
  9
$TDCREATE
 40
2453019.62301037
  9
$TDUPDATE
 40
2459268.668926007
  9
$TDINDWG
 40
1.7188701505
  9
$TDUSRTIMER
 40
1.7188701505
  9
$USRTIMER
 70
     1
  9
$ANGBASE
 50
0.0
  9
$ANGDIR
 70
     0
  9
$PDMODE
 70
     3
  9
$PDSIZE
 40
-2.0
  9
$PLINEWID
 40
0.0
  9
$SPLFRAME
 70
     0
  9
$SPLINETYPE
 70
     6
  9
$SPLINESEGS
 70
     8
  9
$SURFTAB1
 70
     6
  9
$SURFTAB2
 70
     6
  9
$SURFTYPE
 70
     6
  9
$SURFU
 70
     6
  9
$SURFV
 70
     6
  9
$UCSNAME
  2

  9
$UCSORG
 10
0.0
 20
0.0
 30
0.0
  9
$UCSXDIR
 10
1.0
 20
0.0
 30
0.0
  9
$UCSYDIR
 10
0.0
 20
1.0
 30
0.0
  9
$PUCSNAME
  2

  9
$PUCSORG
 10
0.0
 20
0.0
 30
0.0
  9
$PUCSXDIR
 10
1.0
 20
0.0
 30
0.0
  9
$PUCSYDIR
 10
0.0
 20
1.0
 30
0.0
  9
$USERI1
 70
     0
  9
$USERI2
 70
     0
  9
$USERI3
 70
     0
  9
$USERI4
 70
     0
  9
$USERI5
 70
     0
  9
$USERR1
 40
20.0
  9
$USERR2
 40
0.0
  9
$USERR3
 40
0.0
  9
$USERR4
 40
0.0
  9
$USERR5
 40
0.0
  9
$WORLDVIEW
 70
     1
  9
$SHADEDGE
 70
     3
  9
$SHADEDIF
 70
    70
  9
$TILEMODE
 70
     1
  9
$MAXACTVP
 70
    48
  9
$PINSBASE
 10
0.0
 20
0.0
 30
0.0
  9
$PLIMCHECK
 70
     0
  9
$PEXTMIN
 10
-100000000000000000000.0
 20
-100000000000000000000.0
 30
-100000000000000000000.0
  9
$PEXTMAX
 10
100000000000000000000.0
 20
100000000000000000000.0
 30
100000000000000000000.0
  9
$PLIMMIN
 10
0.0
 20
0.0
  9
$PLIMMAX
 10
12.0
 20
9.0
  9
$UNITMODE
 70
     0
  9
$VISRETAIN
 70
     0
  9
$PLINEGEN
 70
     0
  9
$PSLTSCALE
 70
     0
  9
$TREEDEPTH
 70
  3020
  9
$ATTDIA
 70
     0
  9
$ATTREQ
 70
     1
  9
$BLIPMODE
 70
     1
  9
$COORDS
 70
     1
  9
$DRAGMODE
 70
     2
  9
$OSMODE
 70
     0
  9
$HANDLING
 70
     0
  9
$HANDSEED
  5
F3ED
  0
ENDSEC
  0
SECTION
  2
TABLES
  0
TABLE
  2
LTYPE
 70
     2
  0
LTYPE
  2
CONTINUOUS
 70
     0
  3
実線
 72
    65
 73
     0
 40
0.0
  0
LTYPE
  2
DASHDOT
 70
     0
  3
____ _ ____ _ ____ _ ____ _ ____ _ ____ _ ____
 72
    65
 73
     4
 40
5.5
 49
4.0
 49
-0.6
 49
0.3
 49
-0.6
  0
ENDTAB
  0
TABLE
  2
LAYER
 70
    12
  0
LAYER
  2
0
 70
     0
 62
     7
  6
CONTINUOUS
  0
LAYER
  2
BASIS
 70
     0
 62
     6
  6
DASHDOT
  0
LAYER
  2
OUTLINE
 70
     0
 62
     3
  6
CONTINUOUS
  0
LAYER
  2
DETAIL
 70
     0
 62
     5
  6
CONTINUOUS
  0
LAYER
  2
SIZE
 70
     0
 62
    30
  6
CONTINUOUS
  0
LAYER
  2
ARRANGE
 70
     0
 62
     1
  6
CONTINUOUS
  0
LAYER
  2
DEFPOINTS
 70
     0
 62
     7
  6
CONTINUOUS
  0
LAYER
  2
ETC
 70
     0
 62
    61
  6
CONTINUOUS
  0
LAYER
  2
FIX
 70
     0
 62
    11
  6
CONTINUOUS
  0
LAYER
  2
NOTE
 70
     0
 62
     4
  6
CONTINUOUS
  0
LAYER
  2
SERVICESPACE
 70
    64
 62
     2
  6
DASHDOT
  0
LAYER
  2
SYMBOLLINE
 70
    64
 62
    15
  6
CONTINUOUS
  0
ENDTAB
  0
TABLE
  2
STYLE
 70
     1
  0
STYLE
  2
STANDARD
 70
     0
 40
64.0
 41
0.9
 50
0.0
 71
     0
 42
64.0
  3
SIMPLEX.shx
  4
BIGFONT.shx
  0
ENDTAB
  0
TABLE
  2
APPID
 70
    19
  0
APPID
  2
ACAD
 70
     0
  0
APPID
  2
AUTOCAD_POSTSCRIPT_FIGURE
 70
     0
  0
APPID
  2
ACAD_EXEMPT_FROM_CAD_STANDARDS
 70
     0
  0
APPID
  2
ACAD_PSEXT
 70
     0
  0
APPID
  2
ACAUTHENVIRON
 70
     0
  0
APPID
  2
GENIUS_GENOENT_13
 70
     0
  0
APPID
  2
GENIUS_GENCFG_13
 70
     0
  0
APPID
  2
GENIUS_GENCFG0_13
 70
     0
  0
APPID
  2
GENIUS_GENCFG1_13
 70
     0
  0
APPID
  2
GENIUS_GENCFG2_13
 70
     0
  0
APPID
  2
GENIUS_GENCFG3_13
 70
     0
  0
APPID
  2
GENIUS_GENCFG4_13
 70
     0
  0
APPID
  2
GENIUS_GEVCFG0_13
 70
     0
  0
APPID
  2
CONTENTBLOCKICON
 70
     0
  0
APPID
  2
CONTENTBLOCKDESCRIPTION
 70
     0
  0
APPID
  2
ACAD_NAV_VCDISPLAY
 70
     0
  0
APPID
  2
ACAD_MLEADERVER
 70
     0
  0
APPID
  2
ACDBDYNAMICBLOCKTRUENAME
 70
     0
  0
APPID
  2
ACDBDYNAMICBLOCKGUID
 70
     0
  0
ENDTAB
  0
TABLE
  2
DIMSTYLE
 70
     1
  0
DIMSTYLE
  2
STANDARD
 70
     0
  3

  4

  5
_ORIGIN
  6

  7

 40
1.0
 41
12.0
 42
20.0
 43
200.0
 44
20.0
 45
0.0
 46
0.0
 47
0.0
 48
0.0
140
64.0
141
0.09
142
0.0
143
25.399999999999999
144
1.0
145
0.0
146
1.0
147
25.0
 71
     0
 72
     0
 73
     0
 74
     0
 75
     0
 76
     0
 77
     1
 78
     8
170
     0
171
     2
172
     1
173
     0
174
     1
175
     0
176
     7
177
     7
178
     7
  0
ENDTAB
  0
TABLE
  2
VIEW
 70
     1
  0
VIEW
  2
ALL
 70
     0
 40
4282.6198079999986
 10
0.0
 20
41.309904000000003
 41
5940.0
 11
0.0
 21
0.0
 31
1.0
 12
0.0
 22
0.0
 32
0.0
 42
50.0
 43
0.0
 44
0.0
 50
0.0
 71
     0
  0
ENDTAB
  0
TABLE
  2
UCS
 70
     0
  0
ENDTAB
  0
TABLE
  2
VPORT
 70
     1
  0
VPORT
  2
*ACTIVE
 70
     0
 10
0.0
 20
0.0
 11
1.0
 21
1.0
 12
273.49778636532932
 22
63.926706630651097
 13
0.0
 23
0.0
 14
1.0
 24
1.0
 15
0.0
 25
0.0
 16
0.0
 26
0.0
 36
1.0
 17
0.0
 27
0.0
 37
0.0
 40
1210.0078355827379
 41
1.767337807606264
 42
50.0
 43
0.0
 44
0.0
 50
0.0
 51
0.0
 71
     0
 72
  1000
 73
     1
 74
     3
 75
     0
 76
     0
 77
     0
 78
     0
  0
ENDTAB
  0
ENDSEC
  0
SECTION
  2
BLOCKS
  0
BLOCK
  8
0
  2
_ORIGIN
 70
     0
 10
0.0
 20
0.0
 30
0.0
  3
_ORIGIN
  1
_ORIGIN
  0
CIRCLE
  8
SIZE
  6
CONTINUOUS
 62
    30
 10
0.0
 20
0.0
 30
0.0
 40
0.5
  0
LINE
  8
SIZE
  6
CONTINUOUS
 62
    30
 10
0.0
 20
0.0
 30
0.0
 11
-1.0
 21
0.0
 31
0.0
  0
ENDBLK
  8
0
  0
ENDSEC
  0
SECTION
  2
ENTITIES
  0
TEXT
  8
ETC
  6
CONTINUOUS
 62
    61
 10
440.07490146521832
 20
592.15124634601329
 30
0.0
 40
64.0
  1
BFS-30SKA2_1
 41
0.9
  0
TEXT
  8
ETC
  6
CONTINUOUS
 62
    61
 10
435.88890746521793
 20
474.19593633118211
 30
0.0
 40
64.0
  1
産業扇
 41
0.9
  0
CIRCLE
  8
ARRANGE
  6
CONTINUOUS
 62
     1
 10
0.0
 20
0.0
 30
0.0
 40
40.0
  0
POINT
  8
ARRANGE
  6
CONTINUOUS
 62
     1
 10
0.0
 20
0.0
 30
0.0
 39
50.0
  0
LINE
  8
BASIS
  6
DASHDOT
 62
     6
 39
50.0
 10
0.0
 20
248.91313203698789
 30
0.0
 11
0.0
 21
-248.91313203698789
 31
0.0
  0
LINE
  8
BASIS
  6
DASHDOT
 62
     6
 39
50.0
 10
-152.23979065215639
 20
0.0000000000000284
 30
0.0
 11
152.23979065215639
 21
-0.0000000000000284
 31
0.0
  0
TEXT
  8
ETC
  6
CONTINUOUS
 62
    61
 10
486.59030571377389
 20
366.04716344495682
 30
0.0
 40
40.0
  1
BFS-30SKA2
 41
0.9
  0
LINE
  8
SIZE
  6
CONTINUOUS
 62
    30
 10
-169.33819957910279
 20
190.38814035053639
 30
0.0
 11
-169.33819957910279
 21
595.71924040950307
 31
0.0
  0
LINE
  8
SIZE
  6
CONTINUOUS
 62
    30
 10
169.38819609506979
 20
190.38814035053639
 30
0.0
 11
169.38819609506979
 21
595.71924040950307
 31
0.0
  0
LINE
  8
SIZE
  6
CONTINUOUS
 62
    30
 10
-157.33819957910279
 20
575.71924040950307
 30
0.0
 11
157.38819609506979
 21
575.71924040950307
 31
0.0
  0
CIRCLE
  8
SIZE
  6
CONTINUOUS
 62
    30
 10
-169.33819957910279
 20
575.71924040950307
 30
0.0
 40
6.0
  0
LINE
  8
SIZE
  6
CONTINUOUS
 62
    30
 10
-169.33819957910279
 20
575.71924040950307
 30
0.0
 11
-157.33819957910279
 21
575.71924040950307
 31
0.0
  0
CIRCLE
  8
SIZE
  6
CONTINUOUS
 62
    30
 10
169.38819609506979
 20
575.71924040950307
 30
0.0
 40
6.0
  0
LINE
  8
SIZE
  6
CONTINUOUS
 62
    30
 10
169.38819609506979
 20
575.71924040950307
 30
0.0
 11
157.38819609506979
 21
575.71924040950307
 31
0.0
  0
TEXT
  8
SIZE
  6
CONTINUOUS
 62
    30
 10
-69.046028356874984
 20
600.71924040950307
 30
0.0
 40
64.0
  1
339
 41
0.9
 72
     1
 11
3.6396859288392989
 21
600.71924040950307
 31
0.0
  0
POINT
  8
DEFPOINTS
  6
CONTINUOUS
 62
    30
 10
-169.33819957910279
 20
170.38814035053639
 30
0.0
  0
POINT
  8
DEFPOINTS
  6
CONTINUOUS
 62
    30
 10
169.38819609506979
 20
170.38814035053639
 30
0.0
  0
POINT
  8
DEFPOINTS
  6
CONTINUOUS
 62
    30
 10
169.38819609506979
 20
575.71924040950307
 30
0.0
  0
LINE
  8
SIZE
  6
CONTINUOUS
 62
    30
 10
-149.33959319243581
 20
197.88761774553649
 30
0.0
 11
-149.33959319243581
 21
488.96135459287871
 31
0.0
  0
LINE
  8
SIZE
  6
CONTINUOUS
 62
    30
 10
149.38958970840261
 20
197.88761774553649
 30
0.0
 11
149.38958970840261
 21
488.96135459287871
 31
0.0
  0
LINE
  8
SIZE
  6
CONTINUOUS
 62
    30
 10
-137.33959319243581
 20
468.96135459287871
 30
0.0
 11
137.38958970840261
 21
468.96135459287871
 31
0.0
  0
CIRCLE
  8
SIZE
  6
CONTINUOUS
 62
    30
 10
-149.33959319243581
 20
468.96135459287871
 30
0.0
 40
6.0
  0
LINE
  8
SIZE
  6
CONTINUOUS
 62
    30
 10
-149.33959319243581
 20
468.96135459287871
 30
0.0
 11
-137.33959319243581
 21
468.96135459287871
 31
0.0
  0
CIRCLE
  8
SIZE
  6
CONTINUOUS
 62
    30
 10
149.38958970840261
 20
468.96135459287871
 30
0.0
 40
6.0
  0
LINE
  8
SIZE
  6
CONTINUOUS
 62
    30
 10
149.38958970840261
 20
468.96135459287871
 30
0.0
 11
137.38958970840261
 21
468.96135459287871
 31
0.0
  0
TEXT
  8
SIZE
  6
CONTINUOUS
 62
    30
 10
-70.741029570342079
 20
493.96135459287871
 30
0.0
 40
64.0
  1
299
 41
0.9
 72
     1
 11
1.9446847153722051
 21
493.96135459287871
 31
0.0
  0
POINT
  8
DEFPOINTS
  6
CONTINUOUS
 62
    30
 10
-149.33959319243581
 20
177.88761774553649
 30
0.0
  0
POINT
  8
DEFPOINTS
  6
CONTINUOUS
 62
    30
 10
149.38958970840261
 20
177.88761774553649
 30
0.0
  0
POINT
  8
DEFPOINTS
  6
CONTINUOUS
 62
    30
 10
149.38958970840261
 20
468.96135459287871
 30
0.0
  0
LINE
  8
SIZE
  6
CONTINUOUS
 62
    30
 10
-111.3922375737352
 20
185.38848875386961
 30
0.0
 11
-111.3922375737352
 21
365.25776766850908
 31
0.0
  0
LINE
  8
SIZE
  6
CONTINUOUS
 62
    30
 10
111.442234089702
 20
185.38848875386961
 30
0.0
 11
111.442234089702
 21
365.25776766850908
 31
0.0
  0
LINE
  8
SIZE
  6
CONTINUOUS
 62
    30
 10
-99.392237573735201
 20
345.25776766850908
 30
0.0
 11
99.442234089701969
 21
345.25776766850908
 31
0.0
  0
CIRCLE
  8
SIZE
  6
CONTINUOUS
 62
    30
 10
-111.3922375737352
 20
345.25776766850908
 30
0.0
 40
6.0
  0
LINE
  8
SIZE
  6
CONTINUOUS
 62
    30
 10
-111.3922375737352
 20
345.25776766850908
 30
0.0
 11
-99.392237573735201
 21
345.25776766850908
 31
0.0
  0
CIRCLE
  8
SIZE
  6
CONTINUOUS
 62
    30
 10
111.442234089702
 20
345.25776766850908
 30
0.0
 40
6.0
  0
LINE
  8
SIZE
  6
CONTINUOUS
 62
    30
 10
111.442234089702
 20
345.25776766850908
 30
0.0
 11
99.442234089701969
 21
345.25776766850908
 31
0.0
  0
TEXT
  8
SIZE
  6
CONTINUOUS
 62
    30
 10
-72.112458141770631
 20
370.25776766850908
 30
0.0
 40
64.0
  1
223
 41
0.9
 72
     1
 11
1.9446847153722051
 21
370.25776766850908
 31
0.0
  0
POINT
  8
DEFPOINTS
  6
CONTINUOUS
 62
    30
 10
-111.3922375737352
 20
165.38848875386961
 30
0.0
  0
POINT
  8
DEFPOINTS
  6
CONTINUOUS
 62
    30
 10
111.442234089702
 20
165.38848875386961
 30
0.0
  0
POINT
  8
DEFPOINTS
  6
CONTINUOUS
 62
    30
 10
111.442234089702
 20
345.25776766850908
 30
0.0
  0
LINE
  8
SIZE
  6
CONTINUOUS
 62
    30
 10
-195.6377605909029
 20
149.8395583521027
 30
0.0
 11
-285.41176442247342
 21
149.8395583521027
 31
0.0
  0
LINE
  8
SIZE
  6
CONTINUOUS
 62
    30
 10
-195.6377605909031
 20
-149.18960364453591
 30
0.0
 11
-285.41176442247342
 21
-149.18960364453591
 31
0.0
  0
LINE
  8
SIZE
  6
CONTINUOUS
 62
    30
 10
-265.41176442247342
 20
137.8395583521027
 30
0.0
 11
-265.41176442247342
 21
-137.18960364453579
 31
0.0
  0
CIRCLE
  8
SIZE
  6
CONTINUOUS
 62
    30
 10
-265.41176442247342
 20
149.8395583521027
 30
0.0
 40
6.0
  0
LINE
  8
SIZE
  6
CONTINUOUS
 62
    30
 10
-265.41176442247342
 20
149.8395583521027
 30
0.0
 11
-265.41176442247342
 21
137.8395583521027
 31
0.0
  0
CIRCLE
  8
SIZE
  6
CONTINUOUS
 62
    30
 10
-265.41176442247342
 20
-149.18960364453591
 30
0.0
 40
6.0
  0
LINE
  8
SIZE
  6
CONTINUOUS
 62
    30
 10
-265.41176442247342
 20
-149.18960364453591
 30
0.0
 11
-265.41176442247342
 21
-137.18960364453579
 31
0.0
  0
TEXT
  8
SIZE
  6
CONTINUOUS
 62
    30
 10
-290.41176442247342
 20
-72.360736931930859
 30
0.0
 40
64.0
  1
299
 50
90.0
 41
0.9
 72
     1
 11
-290.41176442247342
 21
0.3249773537834244
 31
0.0
  0
POINT
  8
DEFPOINTS
  6
CONTINUOUS
 62
    30
 10
-175.6377605909029
 20
149.8395583521027
 30
0.0
  0
POINT
  8
DEFPOINTS
  6
CONTINUOUS
 62
    30
 10
-175.6377605909031
 20
-149.18960364453591
 30
0.0
  0
POINT
  8
DEFPOINTS
  6
CONTINUOUS
 62
    30
 10
-265.41176442247342
 20
-149.18960364453591
 30
0.0
  0
LINE
  8
SIZE
  6
CONTINUOUS
 62
    30
 10
-189.33819957910279
 20
170.38814035053639
 30
0.0
 11
-419.21310302184071
 21
170.3881403505365
 31
0.0
  0
LINE
  8
SIZE
  6
CONTINUOUS
 62
    30
 10
-189.33819957910299
 20
-170.08816125473621
 30
0.0
 11
-419.21310302184071
 21
-170.08816125473609
 31
0.0
  0
LINE
  8
SIZE
  6
CONTINUOUS
 62
    30
 10
-399.21310302184071
 20
158.38814035053639
 30
0.0
 11
-399.21310302184071
 21
-158.08816125473621
 31
0.0
  0
CIRCLE
  8
SIZE
  6
CONTINUOUS
 62
    30
 10
-399.21310302184071
 20
170.38814035053639
 30
0.0
 40
6.0
  0
LINE
  8
SIZE
  6
CONTINUOUS
 62
    30
 10
-399.21310302184071
 20
170.38814035053639
 30
0.0
 11
-399.21310302184071
 21
158.38814035053639
 31
0.0
  0
CIRCLE
  8
SIZE
  6
CONTINUOUS
 62
    30
 10
-399.21310302184071
 20
-170.08816125473621
 30
0.0
 40
6.0
  0
LINE
  8
SIZE
  6
CONTINUOUS
 62
    30
 10
-399.21310302184071
 20
-170.08816125473621
 30
0.0
 11
-399.21310302184071
 21
-158.08816125473621
 31
0.0
  0
TEXT
  8
SIZE
  6
CONTINUOUS
 62
    30
 10
-424.21310302184071
 20
-73.907153309242716
 30
0.0
 40
64.0
  1
340
 50
90.0
 41
0.9
 72
     1
 11
-424.21310302184071
 21
0.1499895479001339
 31
0.0
  0
POINT
  8
DEFPOINTS
  6
CONTINUOUS
 62
    30
 10
-169.33819957910279
 20
170.38814035053639
 30
0.0
  0
POINT
  8
DEFPOINTS
  6
CONTINUOUS
 62
    30
 10
-169.33819957910299
 20
-170.08816125473621
 30
0.0
  0
POINT
  8
DEFPOINTS
  6
CONTINUOUS
 62
    30
 10
-399.21310302184071
 20
-170.08816125473621
 30
0.0
  0
CIRCLE
  8
FIX
  6
CONTINUOUS
 62
    11
 39
50.0
 10
149.33959319243581
 20
-149.8395583521027
 30
0.0
 40
5.0
  0
LINE
  8
NOTE
  6
CONTINUOUS
 62
     4
 39
50.0
 10
149.33959319243581
 20
-173.26294001861979
 30
0.0
 11
149.33959319243581
 21
-126.6161766855856
 31
0.0
  0
LINE
  8
NOTE
  6
CONTINUOUS
 62
     4
 39
50.0
 10
177.71261600351951
 20
-149.8395583521027
 30
0.0
 11
120.9665703813521
 21
-149.8395583521027
 31
0.0
  0
CIRCLE
  8
FIX
  6
CONTINUOUS
 62
    11
 39
50.0
 10
-149.38958970840261
 20
-149.8395583521027
 30
0.0
 40
5.0
  0
LINE
  8
NOTE
  6
CONTINUOUS
 62
     4
 39
50.0
 10
-149.38958970840261
 20
-173.26294001861979
 30
0.0
 11
-149.38958970840261
 21
-126.6161766855856
 31
0.0
  0
LINE
  8
NOTE
  6
CONTINUOUS
 62
     4
 39
50.0
 10
-121.0165668973189
 20
-149.8395583521027
 30
0.0
 11
-177.76261251948651
 21
-149.8395583521027
 31
0.0
  0
CIRCLE
  8
FIX
  6
CONTINUOUS
 62
    11
 39
50.0
 10
-149.38958970840261
 20
149.18960364453591
 30
0.0
 40
5.0
  0
LINE
  8
NOTE
  6
CONTINUOUS
 62
     4
 39
50.0
 10
-149.38958970840261
 20
125.96622197801879
 30
0.0
 11
-149.38958970840261
 21
172.612985311053
 31
0.0
  0
LINE
  8
NOTE
  6
CONTINUOUS
 62
     4
 39
50.0
 10
-121.0165668973189
 20
149.18960364453591
 30
0.0
 11
-177.76261251948651
 21
149.18960364453591
 31
0.0
  0
CIRCLE
  8
FIX
  6
CONTINUOUS
 62
    11
 39
50.0
 10
149.33959319243601
 20
149.18960364453579
 30
0.0
 40
5.0
  0
LINE
  8
NOTE
  6
CONTINUOUS
 62
     4
 39
50.0
 10
149.33959319243601
 20
125.96622197801869
 30
0.0
 11
149.33959319243601
 21
172.61298531105291
 31
0.0
  0
LINE
  8
NOTE
  6
CONTINUOUS
 62
     4
 39
50.0
 10
177.7126160035198
 20
149.18960364453579
 30
0.0
 11
120.9665703813521
 21
149.18960364453579
 31
0.0
  0
LINE
  8
SIZE
  6
CONTINUOUS
 62
    30
 10
-71.012326555174241
 20
-257.76203062334599
 30
0.0
 11
-71.012326555174241
 21
-382.99129294717568
 31
0.0
  0
LINE
  8
SIZE
  6
CONTINUOUS
 62
    30
 10
70.957320880072984
 20
-258.25708169925349
 30
0.0
 11
70.957320880072984
 21
-382.99129294717568
 31
0.0
  0
LINE
  8
SIZE
  6
CONTINUOUS
 62
    30
 10
58.957320880072977
 20
-362.99129294717568
 30
0.0
 11
-59.012326555174241
 21
-362.99129294717568
 31
0.0
  0
LINE
  8
SIZE
  6
CONTINUOUS
 62
    30
 10
-71.012326555174241
 20
-362.99129294717568
 30
0.0
 11
-362.73777201691632
 21
-362.99129294717568
 31
0.0
  0
CIRCLE
  8
SIZE
  6
CONTINUOUS
 62
    30
 10
70.957320880072984
 20
-362.99129294717568
 30
0.0
 40
6.0
  0
LINE
  8
SIZE
  6
CONTINUOUS
 62
    30
 10
70.957320880072984
 20
-362.99129294717568
 30
0.0
 11
58.957320880072977
 21
-362.99129294717568
 31
0.0
  0
CIRCLE
  8
SIZE
  6
CONTINUOUS
 62
    30
 10
-71.012326555174241
 20
-362.99129294717568
 30
0.0
 40
6.0
  0
LINE
  8
SIZE
  6
CONTINUOUS
 62
    30
 10
-71.012326555174241
 20
-362.99129294717568
 30
0.0
 11
-59.012326555174241
 21
-362.99129294717568
 31
0.0
  0
TEXT
  8
SIZE
  6
CONTINUOUS
 62
    30
 10
-347.88634344548791
 20
-327.32462628050911
 30
0.0
 40
64.0
  1
φ142
 41
0.9
 72
     1
 11
-238.9949148740593
 21
-327.32462628050911
 31
0.0
  0
POINT
  8
DEFPOINTS
  6
CONTINUOUS
 62
    30
 10
-71.012326555174241
 20
-237.76203062334599
 30
0.0
  0
POINT
  8
DEFPOINTS
  6
CONTINUOUS
 62
    30
 10
70.957320880072984
 20
-238.25708169925349
 30
0.0
  0
POINT
  8
DEFPOINTS
  6
CONTINUOUS
 62
    30
 10
70.957320880072984
 20
-362.99129294717568
 30
0.0
  0
LINE
  8
SIZE
  6
CONTINUOUS
 62
    30
 10
79.483200520702212
 20
-192.96534535456581
 30
0.0
 11
79.483200520702212
 21
-537.02443051951286
 31
0.0
  0
LINE
  8
SIZE
  6
CONTINUOUS
 62
    30
 10
-80.033257271710681
 20
-192.96534535456581
 30
0.0
 11
-80.033257271710681
 21
-537.02443051951286
 31
0.0
  0
LINE
  8
SIZE
  6
CONTINUOUS
 62
    30
 10
67.483200520702212
 20
-517.02443051951286
 30
0.0
 11
-68.033257271710681
 21
-517.02443051951286
 31
0.0
  0
LINE
  8
SIZE
  6
CONTINUOUS
 62
    30
 10
-80.033257271710681
 20
-517.02443051951286
 30
0.0
 11
-389.46457696079938
 21
-517.02443051951286
 31
0.0
  0
CIRCLE
  8
SIZE
  6
CONTINUOUS
 62
    30
 10
79.483200520702212
 20
-517.02443051951286
 30
0.0
 40
6.0
  0
LINE
  8
SIZE
  6
CONTINUOUS
 62
    30
 10
79.483200520702212
 20
-517.02443051951286
 30
0.0
 11
67.483200520702212
 21
-517.02443051951286
 31
0.0
  0
CIRCLE
  8
SIZE
  6
CONTINUOUS
 62
    30
 10
-80.033257271710681
 20
-517.02443051951286
 30
0.0
 40
6.0
  0
LINE
  8
SIZE
  6
CONTINUOUS
 62
    30
 10
-80.033257271710681
 20
-517.02443051951286
 30
0.0
 11
-68.033257271710681
 21
-517.02443051951286
 31
0.0
  0
TEXT
  8
SIZE
  6
CONTINUOUS
 62
    30
 10
-374.61314838937102
 20
-481.35776385284618
 30
0.0
 40
64.0
  1
φ160
 41
0.9
 72
     1
 11
-265.72171981794241
 21
-481.35776385284618
 31
0.0
  0
POINT
  8
DEFPOINTS
  6
CONTINUOUS
 62
    30
 10
79.483200520702212
 20
-172.96534535456581
 30
0.0
  0
POINT
  8
DEFPOINTS
  6
CONTINUOUS
 62
    30
 10
-80.033257271710681
 20
-172.96534535456581
 30
0.0
  0
POINT
  8
DEFPOINTS
  6
CONTINUOUS
 62
    30
 10
-80.033257271710681
 20
-517.02443051951286
 30
0.0
  0
LINE
  8
SIZE
  6
CONTINUOUS
 62
    30
 10
89.967218728258104
 20
-239.082166825766
 30
0.0
 11
365.56827127091492
 21
-239.08216682576611
 31
0.0
  0
LINE
  8
SIZE
  6
CONTINUOUS
 62
    30
 10
120.2753457088165
 20
-169.05994242240709
 30
0.0
 11
365.56827127091492
 21
-169.05994242240709
 31
0.0
  0
LINE
  8
SIZE
  6
CONTINUOUS
 62
    30
 10
345.56827127091492
 20
-157.05994242240709
 30
0.0
 11
345.56827127091492
 21
-145.05994242240709
 31
0.0
  0
LINE
  8
SIZE
  6
CONTINUOUS
 62
    30
 10
345.56827127091492
 20
-251.08216682576611
 30
0.0
 11
345.56827127091492
 21
-406.33930968290878
 31
0.0
  0
LINE
  8
SIZE
  6
CONTINUOUS
 62
    30
 10
345.56827127091492
 20
-169.05994242240709
 30
0.0
 11
345.56827127091492
 21
-239.08216682576611
 31
0.0
  0
CIRCLE
  8
SIZE
  6
CONTINUOUS
 62
    30
 10
345.56827127091492
 20
-169.05994242240709
 30
0.0
 40
6.0
  0
LINE
  8
SIZE
  6
CONTINUOUS
 62
    30
 10
345.56827127091492
 20
-169.05994242240709
 30
0.0
 11
345.56827127091492
 21
-157.05994242240709
 31
0.0
  0
CIRCLE
  8
SIZE
  6
CONTINUOUS
 62
    30
 10
345.56827127091492
 20
-239.08216682576611
 30
0.0
 40
6.0
  0
LINE
  8
SIZE
  6
CONTINUOUS
 62
    30
 10
345.56827127091492
 20
-239.08216682576611
 30
0.0
 11
345.56827127091492
 21
-251.08216682576611
 31
0.0
  0
TEXT
  8
SIZE
  6
CONTINUOUS
 62
    30
 10
320.56827127091492
 20
-381.33930968290878
 30
0.0
 40
64.0
  1
70
 50
90.0
 41
0.9
 72
     1
 11
320.56827127091492
 21
-334.7107382543374
 31
0.0
  0
POINT
  8
DEFPOINTS
  6
CONTINUOUS
 62
    30
 10
69.967218728258104
 20
-239.082166825766
 30
0.0
  0
POINT
  8
DEFPOINTS
  6
CONTINUOUS
 62
    30
 10
100.2753457088165
 20
-169.05994242240709
 30
0.0
  0
POINT
  8
DEFPOINTS
  6
CONTINUOUS
 62
    30
 10
345.56827127091492
 20
-169.05994242240709
 30
0.0
  0
LINE
  8
SIZE
  6
CONTINUOUS
 62
    30
 10
120.2753457088165
 20
-169.05994242240709
 30
0.0
 11
365.56827127091492
 21
-169.05994242240709
 31
0.0
  0
LINE
  8
SIZE
  6
CONTINUOUS
 62
    30
 10
130.45139560247071
 20
165.48457354085289
 30
0.0
 11
365.56827127091492
 21
165.48457354085281
 31
0.0
  0
LINE
  8
SIZE
  6
CONTINUOUS
 62
    30
 10
345.56827127091492
 20
-157.05994242240709
 30
0.0
 11
345.56827127091492
 21
153.48457354085281
 31
0.0
  0
CIRCLE
  8
SIZE
  6
CONTINUOUS
 62
    30
 10
345.56827127091492
 20
-169.05994242240709
 30
0.0
 40
6.0
  0
LINE
  8
SIZE
  6
CONTINUOUS
 62
    30
 10
345.56827127091492
 20
-169.05994242240709
 30
0.0
 11
345.56827127091492
 21
-157.05994242240709
 31
0.0
  0
CIRCLE
  8
SIZE
  6
CONTINUOUS
 62
    30
 10
345.56827127091492
 20
165.48457354085281
 30
0.0
 40
6.0
  0
LINE
  8
SIZE
  6
CONTINUOUS
 62
    30
 10
345.56827127091492
 20
165.48457354085281
 30
0.0
 11
345.56827127091492
 21
153.48457354085281
 31
0.0
  0
TEXT
  8
SIZE
  6
CONTINUOUS
 62
    30
 10
320.56827127091492
 20
-73.907153309242801
 30
0.0
 40
64.0
  1
335
 50
90.0
 41
0.9
 72
     1
 11
320.56827127091492
 21
0.1499895479000486
 31
0.0
  0
POINT
  8
DEFPOINTS
  6
CONTINUOUS
 62
    30
 10
100.2753457088165
 20
-169.05994242240709
 30
0.0
  0
POINT
  8
DEFPOINTS
  6
CONTINUOUS
 62
    30
 10
110.4513956024707
 20
165.48457354085289
 30
0.0
  0
POINT
  8
DEFPOINTS
  6
CONTINUOUS
 62
    30
 10
345.56827127091492
 20
165.48457354085281
 30
0.0
  0
LINE
  8
SIZE
  6
CONTINUOUS
 62
    30
 10
89.967218728258104
 20
235.506797944212
 30
0.0
 11
365.56827127091492
 21
235.50679794421191
 31
0.0
  0
LINE
  8
SIZE
  6
CONTINUOUS
 62
    30
 10
130.45139560247071
 20
165.48457354085289
 30
0.0
 11
365.56827127091492
 21
165.48457354085281
 31
0.0
  0
LINE
  8
SIZE
  6
CONTINUOUS
 62
    30
 10
345.56827127091492
 20
153.48457354085281
 30
0.0
 11
345.56827127091492
 21
141.48457354085281
 31
0.0
  0
LINE
  8
SIZE
  6
CONTINUOUS
 62
    30
 10
345.56827127091492
 20
247.50679794421191
 30
0.0
 11
345.56827127091492
 21
402.76394080135481
 31
0.0
  0
LINE
  8
SIZE
  6
CONTINUOUS
 62
    30
 10
345.56827127091492
 20
165.48457354085281
 30
0.0
 11
345.56827127091492
 21
235.50679794421191
 31
0.0
  0
CIRCLE
  8
SIZE
  6
CONTINUOUS
 62
    30
 10
345.56827127091492
 20
165.48457354085281
 30
0.0
 40
6.0
  0
LINE
  8
SIZE
  6
CONTINUOUS
 62
    30
 10
345.56827127091492
 20
165.48457354085281
 30
0.0
 11
345.56827127091492
 21
153.48457354085281
 31
0.0
  0
CIRCLE
  8
SIZE
  6
CONTINUOUS
 62
    30
 10
345.56827127091492
 20
235.50679794421191
 30
0.0
 40
6.0
  0
LINE
  8
SIZE
  6
CONTINUOUS
 62
    30
 10
345.56827127091492
 20
235.50679794421191
 30
0.0
 11
345.56827127091492
 21
247.50679794421191
 31
0.0
  0
TEXT
  8
SIZE
  6
CONTINUOUS
 62
    30
 10
320.56827127091492
 20
284.50679794421188
 30
0.0
 40
64.0
  1
70
 50
90.0
 41
0.9
 72
     1
 11
320.56827127091492
 21
331.13536937278337
 31
0.0
  0
POINT
  8
DEFPOINTS
  6
CONTINUOUS
 62
    30
 10
69.967218728258104
 20
235.506797944212
 30
0.0
  0
POINT
  8
DEFPOINTS
  6
CONTINUOUS
 62
    30
 10
110.4513956024707
 20
165.48457354085289
 30
0.0
  0
POINT
  8
DEFPOINTS
  6
CONTINUOUS
 62
    30
 10
345.56827127091492
 20
165.48457354085281
 30
0.0
  0
TEXT
  8
NOTE
  6
CONTINUOUS
 62
     4
 10
-345.52252189970562
 20
291.99836458508082
 30
0.0
 40
64.0
  1
AH
 41
0.9
 72
     2
 11
-246.7796647568484
 21
291.99836458508082
 31
0.0
  0
LINE
  8
NOTE
  6
CONTINUOUS
 62
     4
 10
-151.1337628169608
 20
155.15136172897559
 30
0.0
 11
-149.38958970840261
 21
149.18960364453591
 31
0.0
  0
LINE
  8
NOTE
  6
CONTINUOUS
 62
     4
 10
-149.38958970840261
 20
149.18960364453591
 30
0.0
 11
-153.88097343744289
 21
153.4805442743411
 31
0.0
  0
LINE
  8
NOTE
  6
CONTINUOUS
 62
     4
 10
-149.38958970840261
 20
149.18960364453591
 30
0.0
 11
-155.6251465460011
 21
159.44230235878089
 31
0.0
  0
LINE
  8
NOTE
  6
CONTINUOUS
 62
     4
 10
-155.62514654600091
 20
159.44230235878081
 30
0.0
 11
-222.0159388714014
 21
268.60413166134231
 31
0.0
  0
LINE
  8
NOTE
  6
CONTINUOUS
 62
     4
 10
-222.0159388714014
 20
268.60413166134231
 30
0.0
 11
-357.75879601425868
 21
268.60413166134231
 31
0.0
  0
TEXT
  8
NOTE
  6
CONTINUOUS
 62
     4
 10
-50.742857142857147
 20
248.91313203698789
 30
0.0
 40
64.0
  1
RA
 41
0.9
 72
     1
 11
0.0
 21
248.91313203698789
 31
0.0
  0
TEXT
  8
NOTE
  6
CONTINUOUS
 62
     4
 10
-48.0
 20
-317.31897070422337
 30
0.0
 40
64.0
  1
EA
 41
0.9
 72
     1
 11
0.0
 21
-317.31897070422337
 31
0.0
  0
LINE
  8
DETAIL
  6
CONTINUOUS
 62
     5
 10
-112.5416112563021
 20
18.014358595522591
 30
0.0
 11
-117.2170936398729
 21
18.014358595522591
 31
0.0
  0
LINE
  8
DETAIL
  6
CONTINUOUS
 62
     5
 10
-117.2170936398729
 20
18.014358595522591
 30
0.0
 11
-118.20719579168779
 21
17.73933022001836
 31
0.0
  0
LINE
  8
DETAIL
  6
CONTINUOUS
 62
     5
 10
-118.20719579168779
 20
17.73933022001836
 30
0.0
 11
-119.0322809182003
 21
17.40929616941332
 31
0.0
  0
LINE
  8
DETAIL
  6
CONTINUOUS
 62
     5
 10
-119.0322809182003
 20
17.40929616941332
 30
0.0
 11
-119.6923490194099
 21
16.694222393102681
 31
0.0
  0
LINE
  8
DETAIL
  6
CONTINUOUS
 62
     5
 10
-119.6923490194099
 20
16.694222393102681
 30
0.0
 11
-120.2974114455192
 21
15.92414294169077
 31
0.0
  0
LINE
  8
DETAIL
  6
CONTINUOUS
 62
     5
 10
-120.2974114455192
 20
15.92414294169077
 30
0.0
 11
-120.2974114455192
 21
14.93404078987589
 31
0.0
  0
LINE
  8
DETAIL
  6
CONTINUOUS
 62
     5
 10
-116.7220425639653
 20
14.93404078987589
 30
0.0
 11
-120.2974114455192
 21
14.93404078987589
 31
0.0
  0
LINE
  8
DETAIL
  6
CONTINUOUS
 62
     5
 10
-110.5064012775711
 20
-107.5635976596767
 30
0.0
 11
-110.5064012775711
 21
-109.4887962882059
 31
0.0
  0
LINE
  8
DETAIL
  6
CONTINUOUS
 62
     5
 10
100.44036273411891
 20
-167.57478919468451
 30
0.0
 11
107.4810891470256
 21
-167.57478919468451
 31
0.0
  0
LINE
  8
DETAIL
  6
CONTINUOUS
 62
     5
 10
107.75611752252961
 20
-166.96972676857521
 30
0.0
 11
107.4810891470256
 21
-167.57478919468451
 31
0.0
  0
LINE
  8
DETAIL
  6
CONTINUOUS
 62
     5
 10
-108.0311458980341
 20
-166.96972676857521
 30
0.0
 11
-107.5360948221264
 21
-167.57478919468451
 31
0.0
  0
LINE
  8
DETAIL
  6
CONTINUOUS
 62
     5
 10
-110.5064012775711
 20
88.42162272458738
 30
0.0
 11
-110.5064012775711
 21
86.386412745856703
 31
0.0
  0
LINE
  8
DETAIL
  6
CONTINUOUS
 62
     5
 10
-107.5360948221264
 20
-167.57478919468451
 30
0.0
 11
-100.49536840921969
 21
-167.57478919468451
 31
0.0
  0
LINE
  8
DETAIL
  6
CONTINUOUS
 62
     5
 10
110.4513956024707
 20
165.48457354085289
 30
0.0
 11
-110.5064012775711
 21
165.48457354085289
 31
0.0
  0
LINE
  8
DETAIL
  6
CONTINUOUS
 62
     5
 10
110.4513956024707
 20
165.48457354085289
 30
0.0
 11
110.4513956024707
 21
163.3943578870213
 31
0.0
  0
LINE
  8
DETAIL
  6
CONTINUOUS
 62
     5
 10
-110.5064012775711
 20
165.48457354085289
 30
0.0
 11
-110.5064012775711
 21
163.3943578870213
 31
0.0
  0
LINE
  8
DETAIL
  6
CONTINUOUS
 62
     5
 10
110.4513956024707
 20
-167.79481189508769
 30
0.0
 11
110.4513956024707
 21
-166.96972676857521
 31
0.0
  0
LINE
  8
DETAIL
  6
CONTINUOUS
 62
     5
 10
-110.5064012775711
 20
-167.79481189508769
 30
0.0
 11
-110.5064012775711
 21
-166.96972676857521
 31
0.0
  0
LINE
  8
DETAIL
  6
CONTINUOUS
 62
     5
 10
100.44036273411891
 20
-154.09839879498071
 30
0.0
 11
97.470056278673837
 21
-151.07308666443481
 31
0.0
  0
LINE
  8
DETAIL
  6
CONTINUOUS
 62
     5
 10
-97.525061953775094
 20
-151.07308666443481
 30
0.0
 11
-100.49536840921969
 21
-154.09839879498071
 31
0.0
  0
LINE
  8
DETAIL
  6
CONTINUOUS
 62
     5
 10
100.44036273411891
 20
-169.05994242240709
 30
0.0
 11
100.44036273411891
 21
-154.09839879498071
 31
0.0
  0
LINE
  8
DETAIL
  6
CONTINUOUS
 62
     5
 10
-100.49536840921969
 20
-169.05994242240709
 30
0.0
 11
-100.49536840921969
 21
-154.09839879498071
 31
0.0
  0
LINE
  8
DETAIL
  6
CONTINUOUS
 62
     5
 10
-110.5064012775711
 20
-168.28986297099519
 30
0.0
 11
-100.49536840921969
 21
-168.28986297099519
 31
0.0
  0
LINE
  8
DETAIL
  6
CONTINUOUS
 62
     5
 10
-110.5064012775711
 20
-169.05994242240709
 30
0.0
 11
-110.5064012775711
 21
-168.28986297099519
 31
0.0
  0
LINE
  8
DETAIL
  6
CONTINUOUS
 62
     5
 10
110.4513956024707
 20
-169.05994242240709
 30
0.0
 11
110.4513956024707
 21
-168.28986297099519
 31
0.0
  0
LINE
  8
DETAIL
  6
CONTINUOUS
 62
     5
 10
110.4513956024707
 20
-169.05994242240709
 30
0.0
 11
-110.5064012775711
 21
-169.05994242240709
 31
0.0
  0
LINE
  8
DETAIL
  6
CONTINUOUS
 62
     5
 10
100.44036273411891
 20
-168.28986297099519
 30
0.0
 11
110.4513956024707
 21
-168.28986297099519
 31
0.0
  0
LINE
  8
DETAIL
  6
CONTINUOUS
 62
     5
 10
97.470056278673837
 20
-151.07308666443481
 30
0.0
 11
-97.525061953775094
 21
-151.07308666443481
 31
0.0
  0
LINE
  8
DETAIL
  6
CONTINUOUS
 62
     5
 10
102.47557271285
 20
-167.57478919468451
 30
0.0
 11
102.750601088354
 21
-167.79481189508769
 31
0.0
  0
LINE
  8
DETAIL
  6
CONTINUOUS
 62
     5
 10
101.9805216369423
 20
-167.57478919468451
 30
0.0
 11
101.9805216369423
 21
-167.79481189508769
 31
0.0
  0
LINE
  8
DETAIL
  6
CONTINUOUS
 62
     5
 10
101.9805216369423
 20
-167.79481189508769
 30
0.0
 11
101.9805216369423
 21
-167.95982892039041
 31
0.0
  0
LINE
  8
DETAIL
  6
CONTINUOUS
 62
     5
 10
101.9805216369423
 20
-167.95982892039041
 30
0.0
 11
102.1455386622447
 21
-168.28986297099519
 31
0.0
  0
LINE
  8
DETAIL
  6
CONTINUOUS
 62
     5
 10
102.1455386622447
 20
-168.28986297099519
 30
0.0
 11
102.47557271285
 21
-168.28986297099519
 31
0.0
  0
LINE
  8
DETAIL
  6
CONTINUOUS
 62
     5
 10
102.47557271285
 20
-168.28986297099519
 30
0.0
 11
102.750601088354
 21
-168.28986297099519
 31
0.0
  0
LINE
  8
DETAIL
  6
CONTINUOUS
 62
     5
 10
107.4810891470256
 20
-166.96972676857521
 30
0.0
 11
111.44149775428561
 21
-166.96972676857521
 31
0.0
  0
LINE
  8
DETAIL
  6
CONTINUOUS
 62
     5
 10
111.44149775428561
 20
163.3943578870213
 30
0.0
 11
111.44149775428561
 21
-166.96972676857521
 31
0.0
  0
LINE
  8
DETAIL
  6
CONTINUOUS
 62
     5
 10
107.4810891470256
 20
163.3943578870213
 30
0.0
 11
105.94093024420231
 21
163.17433518661801
 31
0.0
  0
LINE
  8
DETAIL
  6
CONTINUOUS
 62
     5
 10
105.94093024420231
 20
163.17433518661801
 30
0.0
 11
104.4557770164797
 21
162.40425573520631
 31
0.0
  0
LINE
  8
DETAIL
  6
CONTINUOUS
 62
     5
 10
104.4557770164797
 20
162.40425573520631
 30
0.0
 11
103.46567486466481
 21
161.19413088298811
 31
0.0
  0
LINE
  8
DETAIL
  6
CONTINUOUS
 62
     5
 10
103.46567486466481
 20
161.19413088298811
 30
0.0
 11
102.750601088354
 21
159.87399468056779
 31
0.0
  0
LINE
  8
DETAIL
  6
CONTINUOUS
 62
     5
 10
102.750601088354
 20
159.87399468056779
 30
0.0
 11
102.47557271285
 21
158.38884145284541
 31
0.0
  0
LINE
  8
DETAIL
  6
CONTINUOUS
 62
     5
 10
111.44149775428561
 20
163.3943578870213
 30
0.0
 11
107.4810891470256
 21
163.3943578870213
 31
0.0
  0
LINE
  8
DETAIL
  6
CONTINUOUS
 62
     5
 10
102.47557271285
 20
-161.96421033439961
 30
0.0
 11
102.750601088354
 21
-163.77939761272691
 31
0.0
  0
LINE
  8
DETAIL
  6
CONTINUOUS
 62
     5
 10
102.750601088354
 20
-163.77939761272691
 30
0.0
 11
103.46567486466481
 21
-165.09953381514691
 31
0.0
  0
LINE
  8
DETAIL
  6
CONTINUOUS
 62
     5
 10
103.46567486466481
 20
-165.09953381514691
 30
0.0
 11
104.4557770164797
 21
-166.2546529922646
 31
0.0
  0
LINE
  8
DETAIL
  6
CONTINUOUS
 62
     5
 10
104.4557770164797
 20
-166.2546529922646
 30
0.0
 11
105.94093024420231
 21
-166.74970406817201
 31
0.0
  0
LINE
  8
DETAIL
  6
CONTINUOUS
 62
     5
 10
105.94093024420231
 20
-166.74970406817201
 30
0.0
 11
107.4810891470256
 21
-166.96972676857521
 31
0.0
  0
LINE
  8
DETAIL
  6
CONTINUOUS
 62
     5
 10
110.4513956024707
 20
163.88940896292871
 30
0.0
 11
110.78142965307551
 21
163.88940896292871
 31
0.0
  0
LINE
  8
DETAIL
  6
CONTINUOUS
 62
     5
 10
110.78142965307551
 20
163.88940896292871
 30
0.0
 11
110.9464466783779
 21
164.21944301353361
 31
0.0
  0
LINE
  8
DETAIL
  6
CONTINUOUS
 62
     5
 10
110.9464466783779
 20
164.21944301353361
 30
0.0
 11
111.1664693787811
 21
164.49447138903801
 31
0.0
  0
LINE
  8
DETAIL
  6
CONTINUOUS
 62
     5
 10
111.1664693787811
 20
164.49447138903801
 30
0.0
 11
111.1664693787811
 21
164.71449408944119
 31
0.0
  0
LINE
  8
DETAIL
  6
CONTINUOUS
 62
     5
 10
111.1664693787811
 20
164.71449408944119
 30
0.0
 11
111.44149775428561
 21
164.87951111474371
 31
0.0
  0
LINE
  8
DETAIL
  6
CONTINUOUS
 62
     5
 10
111.44149775428561
 20
164.87951111474371
 30
0.0
 11
111.1664693787811
 21
165.2095451653486
 31
0.0
  0
LINE
  8
DETAIL
  6
CONTINUOUS
 62
     5
 10
111.1664693787811
 20
165.2095451653486
 30
0.0
 11
111.1664693787811
 21
165.48457354085289
 31
0.0
  0
LINE
  8
DETAIL
  6
CONTINUOUS
 62
     5
 10
111.1664693787811
 20
165.48457354085289
 30
0.0
 11
110.9464466783779
 21
165.7045962412561
 31
0.0
  0
LINE
  8
DETAIL
  6
CONTINUOUS
 62
     5
 10
110.9464466783779
 20
165.7045962412561
 30
0.0
 11
110.78142965307551
 21
165.92461894165959
 31
0.0
  0
LINE
  8
DETAIL
  6
CONTINUOUS
 62
     5
 10
110.78142965307551
 20
165.92461894165959
 30
0.0
 11
110.4513956024707
 21
165.92461894165959
 31
0.0
  0
LINE
  8
DETAIL
  6
CONTINUOUS
 62
     5
 10
102.750601088354
 20
165.48457354085289
 30
0.0
 11
110.4513956024707
 21
165.48457354085289
 31
0.0
  0
LINE
  8
DETAIL
  6
CONTINUOUS
 62
     5
 10
110.4513956024707
 20
164.49447138903801
 30
0.0
 11
110.78142965307551
 21
164.71449408944119
 31
0.0
  0
LINE
  8
DETAIL
  6
CONTINUOUS
 62
     5
 10
110.78142965307551
 20
164.71449408944119
 30
0.0
 11
110.78142965307551
 21
164.87951111474371
 31
0.0
  0
LINE
  8
DETAIL
  6
CONTINUOUS
 62
     5
 10
110.78142965307551
 20
164.87951111474371
 30
0.0
 11
110.78142965307551
 21
165.2095451653486
 31
0.0
  0
LINE
  8
DETAIL
  6
CONTINUOUS
 62
     5
 10
110.78142965307551
 20
165.2095451653486
 30
0.0
 11
110.4513956024707
 21
165.2095451653486
 31
0.0
  0
LINE
  8
DETAIL
  6
CONTINUOUS
 62
     5
 10
110.4513956024707
 20
165.2095451653486
 30
0.0
 11
110.4513956024707
 21
165.48457354085289
 31
0.0
  0
LINE
  8
DETAIL
  6
CONTINUOUS
 62
     5
 10
110.4513956024707
 20
165.48457354085289
 30
0.0
 11
110.28637857716789
 21
165.48457354085289
 31
0.0
  0
LINE
  8
DETAIL
  6
CONTINUOUS
 62
     5
 10
110.28637857716789
 20
165.48457354085289
 30
0.0
 11
110.28637857716789
 21
165.2095451653486
 31
0.0
  0
LINE
  8
DETAIL
  6
CONTINUOUS
 62
     5
 10
110.28637857716789
 20
165.2095451653486
 30
0.0
 11
109.956344526563
 21
165.2095451653486
 31
0.0
  0
LINE
  8
DETAIL
  6
CONTINUOUS
 62
     5
 10
109.956344526563
 20
165.2095451653486
 30
0.0
 11
109.956344526563
 21
164.87951111474371
 31
0.0
  0
LINE
  8
DETAIL
  6
CONTINUOUS
 62
     5
 10
109.956344526563
 20
164.87951111474371
 30
0.0
 11
109.956344526563
 21
164.71449408944119
 31
0.0
  0
LINE
  8
DETAIL
  6
CONTINUOUS
 62
     5
 10
109.956344526563
 20
164.71449408944119
 30
0.0
 11
110.28637857716789
 21
164.71449408944119
 31
0.0
  0
LINE
  8
DETAIL
  6
CONTINUOUS
 62
     5
 10
110.28637857716789
 20
164.71449408944119
 30
0.0
 11
110.28637857716789
 21
164.49447138903801
 31
0.0
  0
LINE
  8
DETAIL
  6
CONTINUOUS
 62
     5
 10
110.28637857716789
 20
164.49447138903801
 30
0.0
 11
110.4513956024707
 21
164.49447138903801
 31
0.0
  0
LINE
  8
DETAIL
  6
CONTINUOUS
 62
     5
 10
102.750601088354
 20
165.92461894165959
 30
0.0
 11
110.4513956024707
 21
165.92461894165959
 31
0.0
  0
LINE
  8
DETAIL
  6
CONTINUOUS
 62
     5
 10
102.750601088354
 20
165.92461894165959
 30
0.0
 11
102.750601088354
 21
165.48457354085289
 31
0.0
  0
LINE
  8
DETAIL
  6
CONTINUOUS
 62
     5
 10
102.750601088354
 20
-167.79481189508769
 30
0.0
 11
110.4513956024707
 21
-167.79481189508769
 31
0.0
  0
LINE
  8
DETAIL
  6
CONTINUOUS
 62
     5
 10
110.4513956024707
 20
-169.77501619871771
 30
0.0
 11
110.78142965307551
 21
-169.77501619871771
 31
0.0
  0
LINE
  8
DETAIL
  6
CONTINUOUS
 62
     5
 10
110.78142965307551
 20
-169.77501619871771
 30
0.0
 11
110.9464466783779
 21
-169.4999878232135
 31
0.0
  0
LINE
  8
DETAIL
  6
CONTINUOUS
 62
     5
 10
110.9464466783779
 20
-169.4999878232135
 30
0.0
 11
111.1664693787811
 21
-169.2799651228103
 31
0.0
  0
LINE
  8
DETAIL
  6
CONTINUOUS
 62
     5
 10
111.1664693787811
 20
-169.2799651228103
 30
0.0
 11
111.1664693787811
 21
-169.05994242240709
 31
0.0
  0
LINE
  8
DETAIL
  6
CONTINUOUS
 62
     5
 10
111.1664693787811
 20
-169.05994242240709
 30
0.0
 11
111.44149775428561
 21
-168.7849140469028
 31
0.0
  0
LINE
  8
DETAIL
  6
CONTINUOUS
 62
     5
 10
111.44149775428561
 20
-168.7849140469028
 30
0.0
 11
111.1664693787811
 21
-168.56489134649939
 31
0.0
  0
LINE
  8
DETAIL
  6
CONTINUOUS
 62
     5
 10
111.1664693787811
 20
-168.56489134649939
 30
0.0
 11
111.1664693787811
 21
-168.28986297099519
 31
0.0
  0
LINE
  8
DETAIL
  6
CONTINUOUS
 62
     5
 10
111.1664693787811
 20
-168.28986297099519
 30
0.0
 11
110.9464466783779
 21
-167.95982892039041
 31
0.0
  0
LINE
  8
DETAIL
  6
CONTINUOUS
 62
     5
 10
110.9464466783779
 20
-167.95982892039041
 30
0.0
 11
110.78142965307551
 21
-167.79481189508769
 31
0.0
  0
LINE
  8
DETAIL
  6
CONTINUOUS
 62
     5
 10
110.78142965307551
 20
-167.79481189508769
 30
0.0
 11
110.4513956024707
 21
-167.79481189508769
 31
0.0
  0
LINE
  8
DETAIL
  6
CONTINUOUS
 62
     5
 10
102.750601088354
 20
-169.05994242240709
 30
0.0
 11
110.4513956024707
 21
-169.05994242240709
 31
0.0
  0
LINE
  8
DETAIL
  6
CONTINUOUS
 62
     5
 10
110.4513956024707
 20
-169.05994242240709
 30
0.0
 11
110.78142965307551
 21
-169.05994242240709
 31
0.0
  0
LINE
  8
DETAIL
  6
CONTINUOUS
 62
     5
 10
110.78142965307551
 20
-169.05994242240709
 30
0.0
 11
110.78142965307551
 21
-168.7849140469028
 31
0.0
  0
LINE
  8
DETAIL
  6
CONTINUOUS
 62
     5
 10
110.78142965307551
 20
-168.7849140469028
 30
0.0
 11
110.78142965307551
 21
-168.56489134649939
 31
0.0
  0
LINE
  8
DETAIL
  6
CONTINUOUS
 62
     5
 10
110.78142965307551
 20
-168.56489134649939
 30
0.0
 11
110.4513956024707
 21
-168.28986297099519
 31
0.0
  0
LINE
  8
DETAIL
  6
CONTINUOUS
 62
     5
 10
110.4513956024707
 20
-168.28986297099519
 30
0.0
 11
110.28637857716789
 21
-168.28986297099519
 31
0.0
  0
LINE
  8
DETAIL
  6
CONTINUOUS
 62
     5
 10
110.28637857716789
 20
-168.28986297099519
 30
0.0
 11
109.956344526563
 21
-168.56489134649939
 31
0.0
  0
LINE
  8
DETAIL
  6
CONTINUOUS
 62
     5
 10
109.956344526563
 20
-168.56489134649939
 30
0.0
 11
109.956344526563
 21
-168.7849140469028
 31
0.0
  0
LINE
  8
DETAIL
  6
CONTINUOUS
 62
     5
 10
109.956344526563
 20
-168.7849140469028
 30
0.0
 11
109.956344526563
 21
-169.05994242240709
 31
0.0
  0
LINE
  8
DETAIL
  6
CONTINUOUS
 62
     5
 10
109.956344526563
 20
-169.05994242240709
 30
0.0
 11
110.28637857716789
 21
-169.05994242240709
 31
0.0
  0
LINE
  8
DETAIL
  6
CONTINUOUS
 62
     5
 10
110.28637857716789
 20
-169.05994242240709
 30
0.0
 11
110.4513956024707
 21
-169.05994242240709
 31
0.0
  0
LINE
  8
DETAIL
  6
CONTINUOUS
 62
     5
 10
102.750601088354
 20
-169.77501619871771
 30
0.0
 11
110.4513956024707
 21
-169.77501619871771
 31
0.0
  0
LINE
  8
DETAIL
  6
CONTINUOUS
 62
     5
 10
102.750601088354
 20
-169.77501619871771
 30
0.0
 11
102.750601088354
 21
-169.05994242240709
 31
0.0
  0
LINE
  8
DETAIL
  6
CONTINUOUS
 62
     5
 10
102.47557271285
 20
-161.96421033439961
 30
0.0
 11
102.47557271285
 21
158.38884145284541
 31
0.0
  0
LINE
  8
DETAIL
  6
CONTINUOUS
 62
     5
 10
-107.81112319763039
 20
88.42162272458738
 30
0.0
 11
-111.49650342938639
 21
88.42162272458738
 31
0.0
  0
LINE
  8
DETAIL
  6
CONTINUOUS
 62
     5
 10
-107.81112319763039
 20
163.3943578870213
 30
0.0
 11
-111.49650342938639
 21
163.3943578870213
 31
0.0
  0
LINE
  8
DETAIL
  6
CONTINUOUS
 62
     5
 10
-102.8056067634548
 20
165.92461894165959
 30
0.0
 11
-110.5064012775711
 21
165.92461894165959
 31
0.0
  0
LINE
  8
DETAIL
  6
CONTINUOUS
 62
     5
 10
-102.8056067634548
 20
165.48457354085289
 30
0.0
 11
-110.5064012775711
 21
165.48457354085289
 31
0.0
  0
LINE
  8
DETAIL
  6
CONTINUOUS
 62
     5
 10
-111.49650342938639
 20
88.42162272458738
 30
0.0
 11
-111.49650342938639
 21
163.3943578870213
 31
0.0
  0
LINE
  8
DETAIL
  6
CONTINUOUS
 62
     5
 10
-102.8056067634548
 20
165.48457354085289
 30
0.0
 11
-102.8056067634548
 21
165.92461894165959
 31
0.0
  0
LINE
  8
DETAIL
  6
CONTINUOUS
 62
     5
 10
-110.5064012775711
 20
165.92461894165959
 30
0.0
 11
-111.0014523534787
 21
165.92461894165959
 31
0.0
  0
LINE
  8
DETAIL
  6
CONTINUOUS
 62
     5
 10
-111.0014523534787
 20
165.92461894165959
 30
0.0
 11
-111.33148640408351
 21
165.7045962412561
 31
0.0
  0
LINE
  8
DETAIL
  6
CONTINUOUS
 62
     5
 10
-111.33148640408351
 20
165.7045962412561
 30
0.0
 11
-111.49650342938639
 21
165.48457354085289
 31
0.0
  0
LINE
  8
DETAIL
  6
CONTINUOUS
 62
     5
 10
-111.49650342938639
 20
165.48457354085289
 30
0.0
 11
-111.49650342938639
 21
165.2095451653486
 31
0.0
  0
LINE
  8
DETAIL
  6
CONTINUOUS
 62
     5
 10
-111.49650342938639
 20
165.2095451653486
 30
0.0
 11
-111.49650342938639
 21
164.71449408944119
 31
0.0
  0
LINE
  8
DETAIL
  6
CONTINUOUS
 62
     5
 10
-111.49650342938639
 20
164.71449408944119
 30
0.0
 11
-111.49650342938639
 21
164.49447138903801
 31
0.0
  0
LINE
  8
DETAIL
  6
CONTINUOUS
 62
     5
 10
-111.49650342938639
 20
164.49447138903801
 30
0.0
 11
-111.33148640408351
 21
164.21944301353361
 31
0.0
  0
LINE
  8
DETAIL
  6
CONTINUOUS
 62
     5
 10
-111.33148640408351
 20
164.21944301353361
 30
0.0
 11
-111.0014523534787
 21
163.88940896292871
 31
0.0
  0
LINE
  8
DETAIL
  6
CONTINUOUS
 62
     5
 10
-111.0014523534787
 20
163.88940896292871
 30
0.0
 11
-110.5064012775711
 21
163.88940896292871
 31
0.0
  0
LINE
  8
DETAIL
  6
CONTINUOUS
 62
     5
 10
-110.5064012775711
 20
164.49447138903801
 30
0.0
 11
-110.3413842522687
 21
164.71449408944119
 31
0.0
  0
LINE
  8
DETAIL
  6
CONTINUOUS
 62
     5
 10
-110.3413842522687
 20
164.71449408944119
 30
0.0
 11
-110.3413842522687
 21
164.87951111474371
 31
0.0
  0
LINE
  8
DETAIL
  6
CONTINUOUS
 62
     5
 10
-110.3413842522687
 20
164.87951111474371
 30
0.0
 11
-110.3413842522687
 21
165.2095451653486
 31
0.0
  0
LINE
  8
DETAIL
  6
CONTINUOUS
 62
     5
 10
-110.3413842522687
 20
165.2095451653486
 30
0.0
 11
-110.5064012775711
 21
165.2095451653486
 31
0.0
  0
LINE
  8
DETAIL
  6
CONTINUOUS
 62
     5
 10
-110.5064012775711
 20
165.2095451653486
 30
0.0
 11
-110.5064012775711
 21
165.48457354085289
 31
0.0
  0
LINE
  8
DETAIL
  6
CONTINUOUS
 62
     5
 10
-110.5064012775711
 20
165.48457354085289
 30
0.0
 11
-110.7264239779747
 21
165.48457354085289
 31
0.0
  0
LINE
  8
DETAIL
  6
CONTINUOUS
 62
     5
 10
-110.7264239779747
 20
165.48457354085289
 30
0.0
 11
-110.7264239779747
 21
165.2095451653486
 31
0.0
  0
LINE
  8
DETAIL
  6
CONTINUOUS
 62
     5
 10
-110.7264239779747
 20
165.2095451653486
 30
0.0
 11
-111.0014523534787
 21
165.2095451653486
 31
0.0
  0
LINE
  8
DETAIL
  6
CONTINUOUS
 62
     5
 10
-111.0014523534787
 20
165.2095451653486
 30
0.0
 11
-111.0014523534787
 21
164.87951111474371
 31
0.0
  0
LINE
  8
DETAIL
  6
CONTINUOUS
 62
     5
 10
-111.0014523534787
 20
164.87951111474371
 30
0.0
 11
-111.0014523534787
 21
164.71449408944119
 31
0.0
  0
LINE
  8
DETAIL
  6
CONTINUOUS
 62
     5
 10
-111.0014523534787
 20
164.71449408944119
 30
0.0
 11
-110.7264239779747
 21
164.71449408944119
 31
0.0
  0
LINE
  8
DETAIL
  6
CONTINUOUS
 62
     5
 10
-110.7264239779747
 20
164.71449408944119
 30
0.0
 11
-110.7264239779747
 21
164.49447138903801
 31
0.0
  0
LINE
  8
DETAIL
  6
CONTINUOUS
 62
     5
 10
-110.7264239779747
 20
164.49447138903801
 30
0.0
 11
-110.5064012775711
 21
164.49447138903801
 31
0.0
  0
LINE
  8
DETAIL
  6
CONTINUOUS
 62
     5
 10
-102.8056067634548
 20
158.38884145284541
 30
0.0
 11
-103.02562946385839
 21
159.87399468056779
 31
0.0
  0
LINE
  8
DETAIL
  6
CONTINUOUS
 62
     5
 10
-103.02562946385839
 20
159.87399468056779
 30
0.0
 11
-103.7957089152696
 21
161.19413088298811
 31
0.0
  0
LINE
  8
DETAIL
  6
CONTINUOUS
 62
     5
 10
-103.7957089152696
 20
161.19413088298811
 30
0.0
 11
-104.73080539198421
 21
162.40425573520631
 31
0.0
  0
LINE
  8
DETAIL
  6
CONTINUOUS
 62
     5
 10
-104.73080539198421
 20
162.40425573520631
 30
0.0
 11
-106.3259699699083
 21
163.17433518661801
 31
0.0
  0
LINE
  8
DETAIL
  6
CONTINUOUS
 62
     5
 10
-106.3259699699083
 20
163.17433518661801
 30
0.0
 11
-107.81112319763039
 21
163.3943578870213
 31
0.0
  0
LINE
  8
DETAIL
  6
CONTINUOUS
 62
     5
 10
-107.81112319763039
 20
88.42162272458738
 30
0.0
 11
-106.3259699699083
 21
88.696651100091628
 31
0.0
  0
LINE
  8
DETAIL
  6
CONTINUOUS
 62
     5
 10
-106.3259699699083
 20
88.696651100091628
 30
0.0
 11
-104.73080539198421
 21
89.521736226604105
 31
0.0
  0
LINE
  8
DETAIL
  6
CONTINUOUS
 62
     5
 10
-104.73080539198421
 20
89.521736226604105
 30
0.0
 11
-103.7957089152696
 21
90.511838378418986
 31
0.0
  0
LINE
  8
DETAIL
  6
CONTINUOUS
 62
     5
 10
-103.7957089152696
 20
90.511838378418986
 30
0.0
 11
-103.02562946385839
 21
91.996991606141421
 31
0.0
  0
LINE
  8
DETAIL
  6
CONTINUOUS
 62
     5
 10
-103.02562946385839
 20
91.996991606141421
 30
0.0
 11
-102.8056067634548
 21
93.427139158763154
 31
0.0
  0
LINE
  8
DETAIL
  6
CONTINUOUS
 62
     5
 10
-102.8056067634548
 20
93.427139158763154
 30
0.0
 11
-102.8056067634548
 21
158.38884145284541
 31
0.0
  0
LINE
  8
DETAIL
  6
CONTINUOUS
 62
     5
 10
-102.8056067634548
 20
-169.05994242240709
 30
0.0
 11
-102.8056067634548
 21
-169.77501619871771
 31
0.0
  0
LINE
  8
DETAIL
  6
CONTINUOUS
 62
     5
 10
-110.5064012775711
 20
-168.28986297099519
 30
0.0
 11
-110.7264239779747
 21
-169.05994242240709
 31
0.0
  0
LINE
  8
DETAIL
  6
CONTINUOUS
 62
     5
 10
-102.8056067634548
 20
-169.05994242240709
 30
0.0
 11
-110.7264239779747
 21
-169.05994242240709
 31
0.0
  0
LINE
  8
DETAIL
  6
CONTINUOUS
 62
     5
 10
-110.5064012775711
 20
-167.79481189508769
 30
0.0
 11
-103.02562946385839
 21
-167.79481189508769
 31
0.0
  0
LINE
  8
DETAIL
  6
CONTINUOUS
 62
     5
 10
-103.02562946385839
 20
-167.79481189508769
 30
0.0
 11
-102.8056067634548
 21
-167.57478919468451
 31
0.0
  0
LINE
  8
DETAIL
  6
CONTINUOUS
 62
     5
 10
-103.02562946385839
 20
-168.28986297099519
 30
0.0
 11
-102.8056067634548
 21
-168.28986297099519
 31
0.0
  0
LINE
  8
DETAIL
  6
CONTINUOUS
 62
     5
 10
-102.8056067634548
 20
-168.28986297099519
 30
0.0
 11
-102.5305783879508
 21
-168.28986297099519
 31
0.0
  0
LINE
  8
DETAIL
  6
CONTINUOUS
 62
     5
 10
-102.5305783879508
 20
-168.28986297099519
 30
0.0
 11
-102.2005443373459
 21
-167.95982892039041
 31
0.0
  0
LINE
  8
DETAIL
  6
CONTINUOUS
 62
     5
 10
-102.2005443373459
 20
-167.95982892039041
 30
0.0
 11
-102.2005443373459
 21
-167.79481189508769
 31
0.0
  0
LINE
  8
DETAIL
  6
CONTINUOUS
 62
     5
 10
-102.2005443373459
 20
-167.79481189508769
 30
0.0
 11
-102.0355273120435
 21
-167.57478919468451
 31
0.0
  0
LINE
  8
DETAIL
  6
CONTINUOUS
 62
     5
 10
-102.8056067634548
 20
-169.77501619871771
 30
0.0
 11
-110.7264239779747
 21
-169.77501619871771
 31
0.0
  0
LINE
  8
DETAIL
  6
CONTINUOUS
 62
     5
 10
-110.5064012775711
 20
-167.79481189508769
 30
0.0
 11
-111.0014523534787
 21
-167.79481189508769
 31
0.0
  0
LINE
  8
DETAIL
  6
CONTINUOUS
 62
     5
 10
-111.0014523534787
 20
-167.79481189508769
 30
0.0
 11
-111.33148640408351
 21
-167.95982892039041
 31
0.0
  0
LINE
  8
DETAIL
  6
CONTINUOUS
 62
     5
 10
-111.33148640408351
 20
-167.95982892039041
 30
0.0
 11
-111.49650342938639
 21
-168.28986297099519
 31
0.0
  0
LINE
  8
DETAIL
  6
CONTINUOUS
 62
     5
 10
-111.49650342938639
 20
-168.28986297099519
 30
0.0
 11
-111.49650342938639
 21
-168.56489134649939
 31
0.0
  0
LINE
  8
DETAIL
  6
CONTINUOUS
 62
     5
 10
-111.49650342938639
 20
-168.56489134649939
 30
0.0
 11
-111.49650342938639
 21
-168.7849140469028
 31
0.0
  0
LINE
  8
DETAIL
  6
CONTINUOUS
 62
     5
 10
-111.49650342938639
 20
-168.7849140469028
 30
0.0
 11
-111.49650342938639
 21
-169.05994242240709
 31
0.0
  0
LINE
  8
DETAIL
  6
CONTINUOUS
 62
     5
 10
-111.49650342938639
 20
-169.05994242240709
 30
0.0
 11
-111.49650342938639
 21
-169.2799651228103
 31
0.0
  0
LINE
  8
DETAIL
  6
CONTINUOUS
 62
     5
 10
-111.49650342938639
 20
-169.2799651228103
 30
0.0
 11
-111.33148640408351
 21
-169.4999878232135
 31
0.0
  0
LINE
  8
DETAIL
  6
CONTINUOUS
 62
     5
 10
-111.33148640408351
 20
-169.4999878232135
 30
0.0
 11
-110.7264239779747
 21
-169.77501619871771
 31
0.0
  0
LINE
  8
DETAIL
  6
CONTINUOUS
 62
     5
 10
-110.7264239779747
 20
-169.77501619871771
 30
0.0
 11
-110.5064012775711
 21
-169.77501619871771
 31
0.0
  0
LINE
  8
DETAIL
  6
CONTINUOUS
 62
     5
 10
-111.49650342938639
 20
-166.96972676857521
 30
0.0
 11
-107.81112319763039
 21
-166.96972676857521
 31
0.0
  0
LINE
  8
DETAIL
  6
CONTINUOUS
 62
     5
 10
-111.49650342938639
 20
-109.4887962882059
 30
0.0
 11
-111.49650342938639
 21
-166.96972676857521
 31
0.0
  0
LINE
  8
DETAIL
  6
CONTINUOUS
 62
     5
 10
-111.49650342938639
 20
-109.4887962882059
 30
0.0
 11
-107.81112319763039
 21
-109.4887962882059
 31
0.0
  0
LINE
  8
DETAIL
  6
CONTINUOUS
 62
     5
 10
-102.8056067634548
 20
-114.49431272238181
 30
0.0
 11
-103.02562946385839
 21
-112.9541538195582
 31
0.0
  0
LINE
  8
DETAIL
  6
CONTINUOUS
 62
     5
 10
-103.02562946385839
 20
-112.9541538195582
 30
0.0
 11
-103.7957089152696
 21
-111.5790119420373
 31
0.0
  0
LINE
  8
DETAIL
  6
CONTINUOUS
 62
     5
 10
-103.7957089152696
 20
-111.5790119420373
 30
0.0
 11
-104.73080539198421
 21
-110.478898440021
 31
0.0
  0
LINE
  8
DETAIL
  6
CONTINUOUS
 62
     5
 10
-104.73080539198421
 20
-110.478898440021
 30
0.0
 11
-106.3259699699083
 21
-109.7638246637099
 31
0.0
  0
LINE
  8
DETAIL
  6
CONTINUOUS
 62
     5
 10
-106.3259699699083
 20
-109.7638246637099
 30
0.0
 11
-107.81112319763039
 21
-109.4887962882059
 31
0.0
  0
LINE
  8
DETAIL
  6
CONTINUOUS
 62
     5
 10
-107.81112319763039
 20
-166.96972676857521
 30
0.0
 11
-106.3259699699083
 21
-166.74970406817201
 31
0.0
  0
LINE
  8
DETAIL
  6
CONTINUOUS
 62
     5
 10
-106.3259699699083
 20
-166.74970406817201
 30
0.0
 11
-104.73080539198421
 21
-166.2546529922646
 31
0.0
  0
LINE
  8
DETAIL
  6
CONTINUOUS
 62
     5
 10
-104.73080539198421
 20
-166.2546529922646
 30
0.0
 11
-103.7957089152696
 21
-165.09953381514691
 31
0.0
  0
LINE
  8
DETAIL
  6
CONTINUOUS
 62
     5
 10
-103.7957089152696
 20
-165.09953381514691
 30
0.0
 11
-103.02562946385839
 21
-163.77939761272691
 31
0.0
  0
LINE
  8
DETAIL
  6
CONTINUOUS
 62
     5
 10
-103.02562946385839
 20
-163.77939761272691
 30
0.0
 11
-102.8056067634548
 21
-161.96421033439961
 31
0.0
  0
LINE
  8
DETAIL
  6
CONTINUOUS
 62
     5
 10
-102.8056067634548
 20
-161.96421033439961
 30
0.0
 11
-102.8056067634548
 21
-114.49431272238181
 31
0.0
  0
LINE
  8
DETAIL
  6
CONTINUOUS
 62
     5
 10
-103.52068053976561
 20
-102.5580812255013
 30
0.0
 11
-103.52068053976561
 21
81.380896311680829
 31
0.0
  0
LINE
  8
DETAIL
  6
CONTINUOUS
 62
     5
 10
-112.5416112563021
 20
-107.5635976596767
 30
0.0
 11
-112.5416112563021
 21
86.386412745856703
 31
0.0
  0
LINE
  8
DETAIL
  6
CONTINUOUS
 62
     5
 10
-108.5261969739413
 20
-107.5635976596767
 30
0.0
 11
-107.0410437462187
 21
-107.2885692841725
 31
0.0
  0
LINE
  8
DETAIL
  6
CONTINUOUS
 62
     5
 10
-107.0410437462187
 20
-107.2885692841725
 30
0.0
 11
-105.50088484339589
 21
-106.793518208265
 31
0.0
  0
LINE
  8
DETAIL
  6
CONTINUOUS
 62
     5
 10
-105.50088484339589
 20
-106.793518208265
 30
0.0
 11
-104.510782691581
 21
-105.4733820058451
 31
0.0
  0
LINE
  8
DETAIL
  6
CONTINUOUS
 62
     5
 10
-104.510782691581
 20
-105.4733820058451
 30
0.0
 11
-103.7957089152696
 21
-104.2632571536268
 31
0.0
  0
LINE
  8
DETAIL
  6
CONTINUOUS
 62
     5
 10
-103.7957089152696
 20
-104.2632571536268
 30
0.0
 11
-103.52068053976561
 21
-102.5580812255013
 31
0.0
  0
LINE
  8
DETAIL
  6
CONTINUOUS
 62
     5
 10
-112.5416112563021
 20
86.386412745856703
 30
0.0
 11
-108.5261969739413
 21
86.386412745856703
 31
0.0
  0
LINE
  8
DETAIL
  6
CONTINUOUS
 62
     5
 10
-103.52068053976561
 20
81.380896311680829
 30
0.0
 11
-103.7957089152696
 21
83.031066564705782
 31
0.0
  0
LINE
  8
DETAIL
  6
CONTINUOUS
 62
     5
 10
-103.7957089152696
 20
83.031066564705782
 30
0.0
 11
-104.510782691581
 21
84.516219792428203
 31
0.0
  0
LINE
  8
DETAIL
  6
CONTINUOUS
 62
     5
 10
-104.510782691581
 20
84.516219792428203
 30
0.0
 11
-105.50088484339589
 21
85.506321944243226
 31
0.0
  0
LINE
  8
DETAIL
  6
CONTINUOUS
 62
     5
 10
-105.50088484339589
 20
85.506321944243226
 30
0.0
 11
-107.0410437462187
 21
86.221395720553858
 31
0.0
  0
LINE
  8
DETAIL
  6
CONTINUOUS
 62
     5
 10
-107.0410437462187
 20
86.221395720553858
 30
0.0
 11
-108.5261969739413
 21
86.386412745856703
 31
0.0
  0
LINE
  8
DETAIL
  6
CONTINUOUS
 62
     5
 10
-108.5261969739413
 20
-107.5635976596767
 30
0.0
 11
-112.5416112563021
 21
-107.5635976596767
 31
0.0
  0
LINE
  8
DETAIL
  6
CONTINUOUS
 62
     5
 10
-111.49650342938639
 20
105.6934047062486
 30
0.0
 11
-111.9915545052941
 21
105.6934047062486
 31
0.0
  0
LINE
  8
DETAIL
  6
CONTINUOUS
 62
     5
 10
-111.9915545052941
 20
105.6934047062486
 30
0.0
 11
-112.2115772056973
 21
105.5283876809461
 31
0.0
  0
LINE
  8
DETAIL
  6
CONTINUOUS
 62
     5
 10
-112.2115772056973
 20
105.5283876809461
 30
0.0
 11
-112.2115772056973
 21
104.9233252548369
 31
0.0
  0
LINE
  8
DETAIL
  6
CONTINUOUS
 62
     5
 10
-112.2115772056973
 20
104.9233252548369
 30
0.0
 11
-112.5416112563021
 21
104.70330255443371
 31
0.0
  0
LINE
  8
DETAIL
  6
CONTINUOUS
 62
     5
 10
-112.5416112563021
 20
104.70330255443371
 30
0.0
 11
-112.2115772056973
 21
104.20825147852619
 31
0.0
  0
LINE
  8
DETAIL
  6
CONTINUOUS
 62
     5
 10
-112.2115772056973
 20
104.20825147852619
 30
0.0
 11
-112.2115772056973
 21
103.8782174279212
 31
0.0
  0
LINE
  8
DETAIL
  6
CONTINUOUS
 62
     5
 10
-112.2115772056973
 20
103.8782174279212
 30
0.0
 11
-111.9915545052941
 21
103.7132004026187
 31
0.0
  0
LINE
  8
DETAIL
  6
CONTINUOUS
 62
     5
 10
-111.9915545052941
 20
103.7132004026187
 30
0.0
 11
-111.49650342938639
 21
103.3831663520137
 31
0.0
  0
LINE
  8
DETAIL
  6
CONTINUOUS
 62
     5
 10
-80.033257271710681
 20
169.49998782321339
 30
0.0
 11
-80.033257271710681
 21
169.22495944770949
 31
0.0
  0
LINE
  8
DETAIL
  6
CONTINUOUS
 62
     5
 10
-81.023359423525562
 20
165.7045962412561
 30
0.0
 11
-80.693325372920754
 21
165.7045962412561
 31
0.0
  0
LINE
  8
DETAIL
  6
CONTINUOUS
 62
     5
 10
-80.693325372920754
 20
165.7045962412561
 30
0.0
 11
-80.528308347617894
 21
165.92461894165959
 31
0.0
  0
LINE
  8
DETAIL
  6
CONTINUOUS
 62
     5
 10
-80.528308347617894
 20
165.92461894165959
 30
0.0
 11
-80.308285647214689
 21
165.92461894165959
 31
0.0
  0
LINE
  8
DETAIL
  6
CONTINUOUS
 62
     5
 10
-80.308285647214689
 20
165.92461894165959
 30
0.0
 11
-80.308285647214689
 21
166.41967001756711
 31
0.0
  0
LINE
  8
DETAIL
  6
CONTINUOUS
 62
     5
 10
-80.308285647214689
 20
166.41967001756711
 30
0.0
 11
-80.033257271710681
 21
166.69469839307109
 31
0.0
  0
LINE
  8
DETAIL
  6
CONTINUOUS
 62
     5
 10
80.968353748424306
 20
165.7045962412561
 30
0.0
 11
89.989284464960747
 21
165.7045962412561
 31
0.0
  0
LINE
  8
DETAIL
  6
CONTINUOUS
 62
     5
 10
89.989284464960747
 20
165.7045962412561
 30
0.0
 11
89.989284464960747
 21
165.48457354085289
 31
0.0
  0
LINE
  8
DETAIL
  6
CONTINUOUS
 62
     5
 10
-90.044290140062003
 20
165.7045962412561
 30
0.0
 11
0.0
 21
165.7045962412561
 31
0.0
  0
LINE
  8
DETAIL
  6
CONTINUOUS
 62
     5
 10
-90.044290140062003
 20
165.48457354085289
 30
0.0
 11
89.989284464960747
 21
165.48457354085289
 31
0.0
  0
LINE
  8
DETAIL
  6
CONTINUOUS
 62
     5
 10
-90.044290140062003
 20
165.7045962412561
 30
0.0
 11
-90.044290140062003
 21
165.48457354085289
 31
0.0
  0
LINE
  8
DETAIL
  6
CONTINUOUS
 62
     5
 10
-80.033257271710681
 20
169.22495944770949
 30
0.0
 11
-71.012326555174241
 21
231.2163552863469
 31
0.0
  0
LINE
  8
DETAIL
  6
CONTINUOUS
 62
     5
 10
70.957320880072984
 20
231.38137231164939
 30
0.0
 11
79.978251596609425
 21
169.22495944770949
 31
0.0
  0
LINE
  8
DETAIL
  6
CONTINUOUS
 62
     5
 10
70.957320880072984
 20
227.97102045539799
 30
0.0
 11
79.483200520702212
 21
169.22495944770949
 31
0.0
  0
LINE
  8
DETAIL
  6
CONTINUOUS
 62
     5
 10
-71.012326555174241
 20
233.91163336628779
 30
0.0
 11
-71.012326555174241
 21
231.38137231164939
 31
0.0
  0
LINE
  8
DETAIL
  6
CONTINUOUS
 62
     5
 10
-69.747196027854898
 20
235.506797944212
 30
0.0
 11
-70.297252778863367
 21
235.17676389360699
 31
0.0
  0
LINE
  8
DETAIL
  6
CONTINUOUS
 62
     5
 10
-70.297252778863367
 20
235.17676389360699
 30
0.0
 11
-70.517275479266573
 21
235.17676389360699
 31
0.0
  0
LINE
  8
DETAIL
  6
CONTINUOUS
 62
     5
 10
-70.517275479266573
 20
235.17676389360699
 30
0.0
 11
-70.737298179669779
 21
234.68171281769949
 31
0.0
  0
LINE
  8
DETAIL
  6
CONTINUOUS
 62
     5
 10
-70.737298179669779
 20
234.68171281769949
 30
0.0
 11
-71.012326555174241
 21
234.516695792397
 31
0.0
  0
LINE
  8
DETAIL
  6
CONTINUOUS
 62
     5
 10
-71.012326555174241
 20
234.516695792397
 30
0.0
 11
-71.012326555174241
 21
233.91163336628779
 31
0.0
  0
LINE
  8
DETAIL
  6
CONTINUOUS
 62
     5
 10
70.462269804165771
 20
231.38137231164939
 30
0.0
 11
-71.012326555174241
 21
231.38137231164939
 31
0.0
  0
LINE
  8
DETAIL
  6
CONTINUOUS
 62
     5
 10
-71.012326555174241
 20
231.2163552863469
 30
0.0
 11
-71.012326555174241
 21
231.38137231164939
 31
0.0
  0
LINE
  8
DETAIL
  6
CONTINUOUS
 62
     5
 10
70.242247103762566
 20
232.3714744634643
 30
0.0
 11
70.462269804165771
 21
232.3714744634643
 31
0.0
  0
LINE
  8
DETAIL
  6
CONTINUOUS
 62
     5
 10
70.242247103762566
 20
232.3714744634643
 30
0.0
 11
69.25214495194723
 21
234.18666174179199
 31
0.0
  0
LINE
  8
DETAIL
  6
CONTINUOUS
 62
     5
 10
70.462269804165771
 20
231.2163552863469
 30
0.0
 11
70.79230385477058
 21
228.90611693211201
 31
0.0
  0
LINE
  8
DETAIL
  6
CONTINUOUS
 62
     5
 10
70.462269804165771
 20
232.97653688957359
 30
0.0
 11
70.462269804165771
 21
232.7015085140693
 31
0.0
  0
LINE
  8
DETAIL
  6
CONTINUOUS
 62
     5
 10
70.462269804165771
 20
232.97653688957359
 30
0.0
 11
70.462269804165771
 21
232.7015085140693
 31
0.0
  0
LINE
  8
DETAIL
  6
CONTINUOUS
 62
     5
 10
-69.747196027854898
 20
235.506797944212
 30
0.0
 11
69.967218728258104
 21
235.506797944212
 31
0.0
  0
LINE
  8
DETAIL
  6
CONTINUOUS
 62
     5
 10
70.462269804165771
 20
231.38137231164939
 30
0.0
 11
70.462269804165771
 21
231.2163552863469
 31
0.0
  0
LINE
  8
DETAIL
  6
CONTINUOUS
 62
     5
 10
70.79230385477058
 20
227.97102045539799
 30
0.0
 11
71.17734358047619
 21
227.97102045539799
 31
0.0
  0
LINE
  8
DETAIL
  6
CONTINUOUS
 62
     5
 10
71.17734358047619
 20
228.90611693211201
 30
0.0
 11
70.957320880072984
 21
227.97102045539799
 31
0.0
  0
LINE
  8
DETAIL
  6
CONTINUOUS
 62
     5
 10
70.957320880072984
 20
234.516695792397
 30
0.0
 11
70.957320880072984
 21
231.38137231164939
 31
0.0
  0
LINE
  8
DETAIL
  6
CONTINUOUS
 62
     5
 10
70.79230385477058
 20
228.90611693211201
 30
0.0
 11
70.79230385477058
 21
227.97102045539799
 31
0.0
  0
LINE
  8
DETAIL
  6
CONTINUOUS
 62
     5
 10
70.462269804165771
 20
232.3714744634643
 30
0.0
 11
69.47216765235089
 21
234.516695792397
 31
0.0
  0
LINE
  8
DETAIL
  6
CONTINUOUS
 62
     5
 10
79.483200520702212
 20
169.22495944770949
 30
0.0
 11
0.0
 21
169.22495944770949
 31
0.0
  0
LINE
  8
DETAIL
  6
CONTINUOUS
 62
     5
 10
70.957320880072984
 20
234.516695792397
 30
0.0
 11
70.79230385477058
 21
234.68171281769949
 31
0.0
  0
LINE
  8
DETAIL
  6
CONTINUOUS
 62
     5
 10
70.79230385477058
 20
234.68171281769949
 30
0.0
 11
70.79230385477058
 21
234.9017355181027
 31
0.0
  0
LINE
  8
DETAIL
  6
CONTINUOUS
 62
     5
 10
70.79230385477058
 20
234.9017355181027
 30
0.0
 11
70.462269804165771
 21
235.17676389360699
 31
0.0
  0
LINE
  8
DETAIL
  6
CONTINUOUS
 62
     5
 10
70.462269804165771
 20
235.17676389360699
 30
0.0
 11
70.242247103762566
 21
235.17676389360699
 31
0.0
  0
LINE
  8
DETAIL
  6
CONTINUOUS
 62
     5
 10
70.242247103762566
 20
235.17676389360699
 30
0.0
 11
69.967218728258104
 21
235.506797944212
 31
0.0
  0
LINE
  8
DETAIL
  6
CONTINUOUS
 62
     5
 10
69.967218728258104
 20
235.506797944212
 30
0.0
 11
69.692190352754096
 21
235.17676389360699
 31
0.0
  0
LINE
  8
DETAIL
  6
CONTINUOUS
 62
     5
 10
69.692190352754096
 20
235.17676389360699
 30
0.0
 11
69.47216765235089
 21
235.17676389360699
 31
0.0
  0
LINE
  8
DETAIL
  6
CONTINUOUS
 62
     5
 10
69.47216765235089
 20
235.17676389360699
 30
0.0
 11
69.25214495194723
 21
234.9017355181027
 31
0.0
  0
LINE
  8
DETAIL
  6
CONTINUOUS
 62
     5
 10
69.25214495194723
 20
234.9017355181027
 30
0.0
 11
69.25214495194723
 21
234.68171281769949
 31
0.0
  0
LINE
  8
DETAIL
  6
CONTINUOUS
 62
     5
 10
69.25214495194723
 20
234.68171281769949
 30
0.0
 11
69.25214495194723
 21
234.18666174179199
 31
0.0
  0
LINE
  8
DETAIL
  6
CONTINUOUS
 62
     5
 10
69.25214495194723
 20
234.18666174179199
 30
0.0
 11
69.47216765235089
 21
233.91163336628779
 31
0.0
  0
LINE
  8
DETAIL
  6
CONTINUOUS
 62
     5
 10
79.483200520702212
 20
169.22495944770949
 30
0.0
 11
79.483200520702212
 21
166.69469839307109
 31
0.0
  0
LINE
  8
DETAIL
  6
CONTINUOUS
 62
     5
 10
79.978251596609425
 20
169.22495944770949
 30
0.0
 11
79.978251596609425
 21
166.69469839307109
 31
0.0
  0
LINE
  8
DETAIL
  6
CONTINUOUS
 62
     5
 10
69.967218728258104
 20
233.91163336628779
 30
0.0
 11
70.242247103762566
 21
233.91163336628779
 31
0.0
  0
LINE
  8
DETAIL
  6
CONTINUOUS
 62
     5
 10
70.242247103762566
 20
233.91163336628779
 30
0.0
 11
70.462269804165771
 21
234.18666174179199
 31
0.0
  0
LINE
  8
DETAIL
  6
CONTINUOUS
 62
     5
 10
70.462269804165771
 20
234.18666174179199
 30
0.0
 11
70.462269804165771
 21
234.516695792397
 31
0.0
  0
LINE
  8
DETAIL
  6
CONTINUOUS
 62
     5
 10
70.462269804165771
 20
234.516695792397
 30
0.0
 11
70.462269804165771
 21
234.68171281769949
 31
0.0
  0
LINE
  8
DETAIL
  6
CONTINUOUS
 62
     5
 10
70.462269804165771
 20
234.68171281769949
 30
0.0
 11
70.462269804165771
 21
234.9017355181027
 31
0.0
  0
LINE
  8
DETAIL
  6
CONTINUOUS
 62
     5
 10
70.462269804165771
 20
234.9017355181027
 30
0.0
 11
70.242247103762566
 21
234.9017355181027
 31
0.0
  0
LINE
  8
DETAIL
  6
CONTINUOUS
 62
     5
 10
70.242247103762566
 20
234.9017355181027
 30
0.0
 11
69.967218728258104
 21
234.9017355181027
 31
0.0
  0
LINE
  8
DETAIL
  6
CONTINUOUS
 62
     5
 10
69.967218728258104
 20
234.9017355181027
 30
0.0
 11
69.692190352754096
 21
234.9017355181027
 31
0.0
  0
LINE
  8
DETAIL
  6
CONTINUOUS
 62
     5
 10
69.692190352754096
 20
234.9017355181027
 30
0.0
 11
69.692190352754096
 21
234.68171281769949
 31
0.0
  0
LINE
  8
DETAIL
  6
CONTINUOUS
 62
     5
 10
69.692190352754096
 20
234.68171281769949
 30
0.0
 11
69.47216765235089
 21
234.68171281769949
 31
0.0
  0
LINE
  8
DETAIL
  6
CONTINUOUS
 62
     5
 10
69.47216765235089
 20
234.68171281769949
 30
0.0
 11
69.47216765235089
 21
234.516695792397
 31
0.0
  0
LINE
  8
DETAIL
  6
CONTINUOUS
 62
     5
 10
69.47216765235089
 20
234.516695792397
 30
0.0
 11
69.692190352754096
 21
234.18666174179199
 31
0.0
  0
LINE
  8
DETAIL
  6
CONTINUOUS
 62
     5
 10
69.692190352754096
 20
234.18666174179199
 30
0.0
 11
69.967218728258104
 21
233.91163336628779
 31
0.0
  0
LINE
  8
DETAIL
  6
CONTINUOUS
 62
     5
 10
70.462269804165771
 20
231.38137231164939
 30
0.0
 11
70.462269804165771
 21
234.516695792397
 31
0.0
  0
LINE
  8
DETAIL
  6
CONTINUOUS
 62
     5
 10
79.483200520702212
 20
169.22495944770949
 30
0.0
 11
79.483200520702212
 21
169.49998782321339
 31
0.0
  0
LINE
  8
DETAIL
  6
CONTINUOUS
 62
     5
 10
79.978251596609425
 20
169.22495944770949
 30
0.0
 11
79.978251596609425
 21
169.49998782321339
 31
0.0
  0
LINE
  8
DETAIL
  6
CONTINUOUS
 62
     5
 10
79.978251596609425
 20
166.69469839307109
 30
0.0
 11
79.978251596609425
 21
166.41967001756711
 31
0.0
  0
LINE
  8
DETAIL
  6
CONTINUOUS
 62
     5
 10
79.978251596609425
 20
166.41967001756711
 30
0.0
 11
79.978251596609425
 21
165.92461894165959
 31
0.0
  0
LINE
  8
DETAIL
  6
CONTINUOUS
 62
     5
 10
79.978251596609425
 20
165.92461894165959
 30
0.0
 11
80.253279972113887
 21
165.92461894165959
 31
0.0
  0
LINE
  8
DETAIL
  6
CONTINUOUS
 62
     5
 10
80.253279972113887
 20
165.92461894165959
 30
0.0
 11
80.473302672517093
 21
165.7045962412561
 31
0.0
  0
LINE
  8
DETAIL
  6
CONTINUOUS
 62
     5
 10
80.473302672517093
 20
165.7045962412561
 30
0.0
 11
80.968353748424306
 21
165.7045962412561
 31
0.0
  0
LINE
  8
DETAIL
  6
CONTINUOUS
 62
     5
 10
79.483200520702212
 20
166.69469839307109
 30
0.0
 11
79.648217546004616
 21
166.1996473171636
 31
0.0
  0
LINE
  8
DETAIL
  6
CONTINUOUS
 62
     5
 10
79.648217546004616
 20
166.1996473171636
 30
0.0
 11
79.648217546004616
 21
165.92461894165959
 31
0.0
  0
LINE
  8
DETAIL
  6
CONTINUOUS
 62
     5
 10
79.648217546004616
 20
165.92461894165959
 30
0.0
 11
80.253279972113887
 21
165.7045962412561
 31
0.0
  0
LINE
  8
DETAIL
  6
CONTINUOUS
 62
     5
 10
80.253279972113887
 20
165.7045962412561
 30
0.0
 11
80.473302672517093
 21
165.48457354085289
 31
0.0
  0
LINE
  8
DETAIL
  6
CONTINUOUS
 62
     5
 10
80.473302672517093
 20
165.48457354085289
 30
0.0
 11
80.968353748424306
 21
165.48457354085289
 31
0.0
  0
LINE
  8
DETAIL
  6
CONTINUOUS
 62
     5
 10
-80.033257271710681
 20
169.49998782321339
 30
0.0
 11
0.0
 21
169.49998782321339
 31
0.0
  0
LINE
  8
DETAIL
  6
CONTINUOUS
 62
     5
 10
-80.033257271710681
 20
169.22495944770949
 30
0.0
 11
-80.033257271710681
 21
166.69469839307109
 31
0.0
  0
LINE
  8
DETAIL
  6
CONTINUOUS
 62
     5
 10
-80.033257271710681
 20
169.49998782321339
 30
0.0
 11
-80.033257271710681
 21
169.22495944770949
 31
0.0
  0
LINE
  8
DETAIL
  6
CONTINUOUS
 62
     5
 10
-80.033257271710681
 20
-170.49008997502841
 30
0.0
 11
-80.308285647214689
 21
-170.05004457422189
 31
0.0
  0
LINE
  8
DETAIL
  6
CONTINUOUS
 62
     5
 10
-80.308285647214689
 20
-170.05004457422189
 30
0.0
 11
-80.308285647214689
 21
-169.77501619871771
 31
0.0
  0
LINE
  8
DETAIL
  6
CONTINUOUS
 62
     5
 10
-80.308285647214689
 20
-169.77501619871771
 30
0.0
 11
-80.528308347617894
 21
-169.4999878232135
 31
0.0
  0
LINE
  8
DETAIL
  6
CONTINUOUS
 62
     5
 10
-80.528308347617894
 20
-169.4999878232135
 30
0.0
 11
-80.693325372920754
 21
-169.4999878232135
 31
0.0
  0
LINE
  8
DETAIL
  6
CONTINUOUS
 62
     5
 10
-80.693325372920754
 20
-169.4999878232135
 30
0.0
 11
-81.023359423525562
 21
-169.4999878232135
 31
0.0
  0
LINE
  8
DETAIL
  6
CONTINUOUS
 62
     5
 10
80.968353748424306
 20
-169.4999878232135
 30
0.0
 11
89.989284464960747
 21
-169.4999878232135
 31
0.0
  0
LINE
  8
DETAIL
  6
CONTINUOUS
 62
     5
 10
89.989284464960747
 20
-169.4999878232135
 30
0.0
 11
89.989284464960747
 21
-169.05994242240709
 31
0.0
  0
LINE
  8
DETAIL
  6
CONTINUOUS
 62
     5
 10
-90.044290140062003
 20
-169.4999878232135
 30
0.0
 11
0.0
 21
-169.4999878232135
 31
0.0
  0
LINE
  8
DETAIL
  6
CONTINUOUS
 62
     5
 10
-90.044290140062003
 20
-169.05994242240709
 30
0.0
 11
89.989284464960747
 21
-169.05994242240709
 31
0.0
  0
LINE
  8
DETAIL
  6
CONTINUOUS
 62
     5
 10
-90.044290140062003
 20
-169.4999878232135
 30
0.0
 11
-90.044290140062003
 21
-169.05994242240709
 31
0.0
  0
LINE
  8
DETAIL
  6
CONTINUOUS
 62
     5
 10
-80.033257271710681
 20
-172.96534535456581
 30
0.0
 11
-71.012326555174241
 21
-235.06675254340519
 31
0.0
  0
LINE
  8
DETAIL
  6
CONTINUOUS
 62
     5
 10
70.957320880072984
 20
-235.28677524380839
 30
0.0
 11
79.978251596609425
 21
-172.96534535456581
 31
0.0
  0
LINE
  8
DETAIL
  6
CONTINUOUS
 62
     5
 10
70.957320880072984
 20
-231.54638933695171
 30
0.0
 11
79.483200520702212
 21
-172.96534535456581
 31
0.0
  0
LINE
  8
DETAIL
  6
CONTINUOUS
 62
     5
 10
-71.012326555174241
 20
-237.76203062334599
 30
0.0
 11
-71.012326555174241
 21
-235.28677524380839
 31
0.0
  0
LINE
  8
DETAIL
  6
CONTINUOUS
 62
     5
 10
-71.012326555174241
 20
-236.77192847153091
 30
0.0
 11
-71.012326555174241
 21
-236.55190577112771
 31
0.0
  0
LINE
  8
DETAIL
  6
CONTINUOUS
 62
     5
 10
-71.012326555174241
 20
-237.76203062334599
 30
0.0
 11
-71.012326555174241
 21
-238.25708169925349
 31
0.0
  0
LINE
  8
DETAIL
  6
CONTINUOUS
 62
     5
 10
-71.012326555174241
 20
-238.25708169925349
 30
0.0
 11
-70.737298179670233
 21
-238.5871157498585
 31
0.0
  0
LINE
  8
DETAIL
  6
CONTINUOUS
 62
     5
 10
-70.737298179670233
 20
-238.5871157498585
 30
0.0
 11
-70.517275479266573
 21
-238.75213277516119
 31
0.0
  0
LINE
  8
DETAIL
  6
CONTINUOUS
 62
     5
 10
-70.517275479266573
 20
-238.75213277516119
 30
0.0
 11
-70.297252778863367
 21
-239.082166825766
 31
0.0
  0
LINE
  8
DETAIL
  6
CONTINUOUS
 62
     5
 10
-70.297252778863367
 20
-239.082166825766
 30
0.0
 11
-69.747196027855352
 21
-239.082166825766
 31
0.0
  0
LINE
  8
DETAIL
  6
CONTINUOUS
 62
     5
 10
70.462269804165771
 20
-235.06675254340519
 30
0.0
 11
-71.012326555174241
 21
-235.06675254340519
 31
0.0
  0
LINE
  8
DETAIL
  6
CONTINUOUS
 62
     5
 10
-71.012326555174241
 20
-235.28677524380839
 30
0.0
 11
-71.012326555174241
 21
-235.06675254340519
 31
0.0
  0
LINE
  8
DETAIL
  6
CONTINUOUS
 62
     5
 10
70.242247103762566
 20
-236.0568546952201
 30
0.0
 11
70.462269804165771
 21
-236.2768773956235
 31
0.0
  0
LINE
  8
DETAIL
  6
CONTINUOUS
 62
     5
 10
70.242247103762566
 20
-236.0568546952201
 30
0.0
 11
69.25214495194723
 21
-237.982053323749
 31
0.0
  0
LINE
  8
DETAIL
  6
CONTINUOUS
 62
     5
 10
70.462269804165771
 20
-235.06675254340519
 30
0.0
 11
70.79230385477058
 21
-232.75651418917039
 31
0.0
  0
LINE
  8
DETAIL
  6
CONTINUOUS
 62
     5
 10
70.462269804165771
 20
-236.55190577112771
 30
0.0
 11
70.462269804165771
 21
-236.77192847153091
 31
0.0
  0
LINE
  8
DETAIL
  6
CONTINUOUS
 62
     5
 10
70.462269804165771
 20
-236.55190577112771
 30
0.0
 11
70.462269804165771
 21
-236.77192847153091
 31
0.0
  0
LINE
  8
DETAIL
  6
CONTINUOUS
 62
     5
 10
70.957320880072984
 20
-236.55190577112771
 30
0.0
 11
70.957320880072984
 21
-236.77192847153091
 31
0.0
  0
LINE
  8
DETAIL
  6
CONTINUOUS
 62
     5
 10
-69.747196027855352
 20
-239.082166825766
 30
0.0
 11
69.967218728258104
 21
-239.082166825766
 31
0.0
  0
LINE
  8
DETAIL
  6
CONTINUOUS
 62
     5
 10
70.462269804165771
 20
-235.06675254340519
 30
0.0
 11
70.462269804165771
 21
-235.28677524380839
 31
0.0
  0
LINE
  8
DETAIL
  6
CONTINUOUS
 62
     5
 10
70.79230385477058
 20
-231.54638933695171
 30
0.0
 11
71.17734358047619
 21
-231.54638933695171
 31
0.0
  0
LINE
  8
DETAIL
  6
CONTINUOUS
 62
     5
 10
70.957320880072984
 20
-231.54638933695171
 30
0.0
 11
71.17734358047619
 21
-232.75651418917039
 31
0.0
  0
LINE
  8
DETAIL
  6
CONTINUOUS
 62
     5
 10
70.957320880072984
 20
-238.25708169925349
 30
0.0
 11
70.957320880072984
 21
-235.28677524380839
 31
0.0
  0
LINE
  8
DETAIL
  6
CONTINUOUS
 62
     5
 10
70.79230385477058
 20
-231.54638933695171
 30
0.0
 11
70.79230385477058
 21
-232.75651418917039
 31
0.0
  0
LINE
  8
DETAIL
  6
CONTINUOUS
 62
     5
 10
70.462269804165771
 20
-236.2768773956235
 30
0.0
 11
69.47216765235089
 21
-238.25708169925349
 31
0.0
  0
LINE
  8
DETAIL
  6
CONTINUOUS
 62
     5
 10
79.483200520702212
 20
-172.96534535456581
 30
0.0
 11
0.0
 21
-172.96534535456581
 31
0.0
  0
LINE
  8
DETAIL
  6
CONTINUOUS
 62
     5
 10
69.47216765235089
 20
-237.76203062334599
 30
0.0
 11
69.25214495194723
 21
-237.982053323749
 31
0.0
  0
LINE
  8
DETAIL
  6
CONTINUOUS
 62
     5
 10
69.25214495194723
 20
-237.982053323749
 30
0.0
 11
69.25214495194723
 21
-238.25708169925349
 31
0.0
  0
LINE
  8
DETAIL
  6
CONTINUOUS
 62
     5
 10
69.25214495194723
 20
-238.25708169925349
 30
0.0
 11
69.25214495194723
 21
-238.75213277516119
 31
0.0
  0
LINE
  8
DETAIL
  6
CONTINUOUS
 62
     5
 10
69.25214495194723
 20
-238.75213277516119
 30
0.0
 11
69.47216765235089
 21
-238.75213277516119
 31
0.0
  0
LINE
  8
DETAIL
  6
CONTINUOUS
 62
     5
 10
69.47216765235089
 20
-238.75213277516119
 30
0.0
 11
69.692190352754096
 21
-239.082166825766
 31
0.0
  0
LINE
  8
DETAIL
  6
CONTINUOUS
 62
     5
 10
69.692190352754096
 20
-239.082166825766
 30
0.0
 11
69.967218728258104
 21
-239.082166825766
 31
0.0
  0
LINE
  8
DETAIL
  6
CONTINUOUS
 62
     5
 10
69.967218728258104
 20
-239.082166825766
 30
0.0
 11
70.242247103762566
 21
-239.082166825766
 31
0.0
  0
LINE
  8
DETAIL
  6
CONTINUOUS
 62
     5
 10
70.242247103762566
 20
-239.082166825766
 30
0.0
 11
70.462269804165771
 21
-239.082166825766
 31
0.0
  0
LINE
  8
DETAIL
  6
CONTINUOUS
 62
     5
 10
70.462269804165771
 20
-239.082166825766
 30
0.0
 11
70.79230385477058
 21
-238.75213277516119
 31
0.0
  0
LINE
  8
DETAIL
  6
CONTINUOUS
 62
     5
 10
70.79230385477058
 20
-238.75213277516119
 30
0.0
 11
70.79230385477058
 21
-238.5871157498585
 31
0.0
  0
LINE
  8
DETAIL
  6
CONTINUOUS
 62
     5
 10
70.79230385477058
 20
-238.5871157498585
 30
0.0
 11
70.957320880072984
 21
-238.25708169925349
 31
0.0
  0
LINE
  8
DETAIL
  6
CONTINUOUS
 62
     5
 10
79.483200520702212
 20
-172.96534535456581
 30
0.0
 11
79.483200520702212
 21
-170.49008997502841
 31
0.0
  0
LINE
  8
DETAIL
  6
CONTINUOUS
 62
     5
 10
79.978251596609425
 20
-172.96534535456581
 30
0.0
 11
79.978251596609425
 21
-170.49008997502841
 31
0.0
  0
LINE
  8
DETAIL
  6
CONTINUOUS
 62
     5
 10
69.967218728258104
 20
-238.75213277516119
 30
0.0
 11
70.242247103762566
 21
-238.75213277516119
 31
0.0
  0
LINE
  8
DETAIL
  6
CONTINUOUS
 62
     5
 10
70.242247103762566
 20
-238.75213277516119
 30
0.0
 11
70.462269804165771
 21
-238.75213277516119
 31
0.0
  0
LINE
  8
DETAIL
  6
CONTINUOUS
 62
     5
 10
70.462269804165771
 20
-238.75213277516119
 30
0.0
 11
70.462269804165771
 21
-238.5871157498585
 31
0.0
  0
LINE
  8
DETAIL
  6
CONTINUOUS
 62
     5
 10
70.462269804165771
 20
-238.5871157498585
 30
0.0
 11
70.462269804165771
 21
-238.25708169925349
 31
0.0
  0
LINE
  8
DETAIL
  6
CONTINUOUS
 62
     5
 10
70.462269804165771
 20
-238.25708169925349
 30
0.0
 11
70.462269804165771
 21
-237.982053323749
 31
0.0
  0
LINE
  8
DETAIL
  6
CONTINUOUS
 62
     5
 10
70.462269804165771
 20
-237.982053323749
 30
0.0
 11
70.242247103762566
 21
-237.982053323749
 31
0.0
  0
LINE
  8
DETAIL
  6
CONTINUOUS
 62
     5
 10
70.242247103762566
 20
-237.982053323749
 30
0.0
 11
70.242247103762566
 21
-237.76203062334599
 31
0.0
  0
LINE
  8
DETAIL
  6
CONTINUOUS
 62
     5
 10
70.242247103762566
 20
-237.76203062334599
 30
0.0
 11
69.967218728258104
 21
-237.76203062334599
 31
0.0
  0
LINE
  8
DETAIL
  6
CONTINUOUS
 62
     5
 10
69.967218728258104
 20
-237.76203062334599
 30
0.0
 11
69.692190352754096
 21
-237.982053323749
 31
0.0
  0
LINE
  8
DETAIL
  6
CONTINUOUS
 62
     5
 10
69.692190352754096
 20
-237.982053323749
 30
0.0
 11
69.47216765235089
 21
-238.25708169925349
 31
0.0
  0
LINE
  8
DETAIL
  6
CONTINUOUS
 62
     5
 10
69.47216765235089
 20
-238.25708169925349
 30
0.0
 11
69.47216765235089
 21
-238.5871157498585
 31
0.0
  0
LINE
  8
DETAIL
  6
CONTINUOUS
 62
     5
 10
69.47216765235089
 20
-238.5871157498585
 30
0.0
 11
69.692190352754096
 21
-238.5871157498585
 31
0.0
  0
LINE
  8
DETAIL
  6
CONTINUOUS
 62
     5
 10
69.692190352754096
 20
-238.5871157498585
 30
0.0
 11
69.692190352754096
 21
-238.75213277516119
 31
0.0
  0
LINE
  8
DETAIL
  6
CONTINUOUS
 62
     5
 10
69.692190352754096
 20
-238.75213277516119
 30
0.0
 11
69.967218728258104
 21
-238.75213277516119
 31
0.0
  0
LINE
  8
DETAIL
  6
CONTINUOUS
 62
     5
 10
70.462269804165771
 20
-235.28677524380839
 30
0.0
 11
70.462269804165771
 21
-238.25708169925349
 31
0.0
  0
LINE
  8
DETAIL
  6
CONTINUOUS
 62
     5
 10
80.968353748424306
 20
-169.4999878232135
 30
0.0
 11
80.473302672517093
 21
-169.4999878232135
 31
0.0
  0
LINE
  8
DETAIL
  6
CONTINUOUS
 62
     5
 10
80.473302672517093
 20
-169.4999878232135
 30
0.0
 11
80.253279972113887
 21
-169.4999878232135
 31
0.0
  0
LINE
  8
DETAIL
  6
CONTINUOUS
 62
     5
 10
80.253279972113887
 20
-169.4999878232135
 30
0.0
 11
79.978251596609425
 21
-169.77501619871771
 31
0.0
  0
LINE
  8
DETAIL
  6
CONTINUOUS
 62
     5
 10
79.978251596609425
 20
-169.77501619871771
 30
0.0
 11
79.978251596609425
 21
-170.05004457422189
 31
0.0
  0
LINE
  8
DETAIL
  6
CONTINUOUS
 62
     5
 10
79.978251596609425
 20
-170.05004457422189
 30
0.0
 11
79.978251596609425
 21
-170.49008997502841
 31
0.0
  0
LINE
  8
DETAIL
  6
CONTINUOUS
 62
     5
 10
80.968353748424306
 20
-169.05994242240709
 30
0.0
 11
80.473302672517093
 21
-169.2799651228103
 31
0.0
  0
LINE
  8
DETAIL
  6
CONTINUOUS
 62
     5
 10
80.473302672517093
 20
-169.2799651228103
 30
0.0
 11
80.253279972113887
 21
-169.2799651228103
 31
0.0
  0
LINE
  8
DETAIL
  6
CONTINUOUS
 62
     5
 10
80.253279972113887
 20
-169.2799651228103
 30
0.0
 11
79.648217546004616
 21
-169.77501619871771
 31
0.0
  0
LINE
  8
DETAIL
  6
CONTINUOUS
 62
     5
 10
79.648217546004616
 20
-169.77501619871771
 30
0.0
 11
79.648217546004616
 21
-170.05004457422189
 31
0.0
  0
LINE
  8
DETAIL
  6
CONTINUOUS
 62
     5
 10
79.648217546004616
 20
-170.05004457422189
 30
0.0
 11
79.483200520702212
 21
-170.49008997502841
 31
0.0
  0
LINE
  8
DETAIL
  6
CONTINUOUS
 62
     5
 10
-80.033257271710681
 20
-172.96534535456581
 30
0.0
 11
0.0
 21
-172.96534535456581
 31
0.0
  0
LINE
  8
DETAIL
  6
CONTINUOUS
 62
     5
 10
-80.033257271710681
 20
-172.96534535456581
 30
0.0
 11
-80.033257271710681
 21
-170.49008997502841
 31
0.0
  0
LINE
  8
DETAIL
  6
CONTINUOUS
 62
     5
 10
-80.033257271710681
 20
-172.96534535456581
 30
0.0
 11
-80.033257271710681
 21
-173.29537940517079
 31
0.0
  0
LINE
  8
DETAIL
  6
CONTINUOUS
 62
     5
 10
-112.5416112563021
 20
14.93404078987589
 30
0.0
 11
-123.8177746519727
 21
14.93404078987589
 31
0.0
  0
LINE
  8
DETAIL
  6
CONTINUOUS
 62
     5
 10
-123.8177746519727
 20
14.93404078987589
 30
0.0
 11
-127.008103807821
 21
14.493995389069481
 31
0.0
  0
LINE
  8
DETAIL
  6
CONTINUOUS
 62
     5
 10
-127.008103807821
 20
14.493995389069481
 30
0.0
 11
-129.70338188776171
 21
13.00884216134671
 31
0.0
  0
LINE
  8
DETAIL
  6
CONTINUOUS
 62
     5
 10
-129.70338188776171
 20
13.00884216134671
 30
0.0
 11
-132.0136202419967
 21
10.69860380711191
 31
0.0
  0
LINE
  8
DETAIL
  6
CONTINUOUS
 62
     5
 10
-132.0136202419967
 20
10.69860380711191
 30
0.0
 11
-133.22374509421519
 21
8.0033257271712728
 31
0.0
  0
LINE
  8
DETAIL
  6
CONTINUOUS
 62
     5
 10
-133.22374509421519
 20
8.0033257271712728
 30
0.0
 11
-133.82880752032409
 21
4.9230079215245723
 31
0.0
  0
LINE
  8
DETAIL
  6
CONTINUOUS
 62
     5
 10
-133.82880752032409
 20
4.9230079215245723
 30
0.0
 11
-133.82880752032409
 21
-106.57349550786179
 31
0.0
  0
LINE
  8
DETAIL
  6
CONTINUOUS
 62
     5
 10
-123.8177746519727
 20
-93.59215618406563
 30
0.0
 11
-112.5416112563021
 21
-93.59215618406563
 31
0.0
  0
LINE
  8
DETAIL
  6
CONTINUOUS
 62
     5
 10
-133.82880752032409
 20
-106.57349550786179
 30
0.0
 11
-133.22374509421519
 21
-109.4887962882059
 31
0.0
  0
LINE
  8
DETAIL
  6
CONTINUOUS
 62
     5
 10
-133.22374509421519
 20
-109.4887962882059
 30
0.0
 11
-132.0136202419967
 21
-112.2940857183484
 31
0.0
  0
LINE
  8
DETAIL
  6
CONTINUOUS
 62
     5
 10
-132.0136202419967
 20
-112.2940857183484
 30
0.0
 11
-129.70338188776171
 21
-114.49431272238181
 31
0.0
  0
LINE
  8
DETAIL
  6
CONTINUOUS
 62
     5
 10
-129.70338188776171
 20
-114.49431272238181
 30
0.0
 11
-127.008103807821
 21
-116.0894773003057
 31
0.0
  0
LINE
  8
DETAIL
  6
CONTINUOUS
 62
     5
 10
-127.008103807821
 20
-116.0894773003057
 30
0.0
 11
-123.8177746519727
 21
-116.5845283762131
 31
0.0
  0
LINE
  8
DETAIL
  6
CONTINUOUS
 62
     5
 10
-123.8177746519727
 20
-116.5845283762131
 30
0.0
 11
-111.49650342938639
 21
-116.5845283762131
 31
0.0
  0
LINE
  8
DETAIL
  6
CONTINUOUS
 62
     5
 10
-133.82880752032409
 20
-83.58112331571408
 30
0.0
 11
-133.22374509421519
 21
-86.606435446259979
 31
0.0
  0
LINE
  8
DETAIL
  6
CONTINUOUS
 62
     5
 10
-133.22374509421519
 20
-86.606435446259979
 30
0.0
 11
-132.0136202419967
 21
-89.301713526200615
 31
0.0
  0
LINE
  8
DETAIL
  6
CONTINUOUS
 62
     5
 10
-132.0136202419967
 20
-89.301713526200615
 30
0.0
 11
-129.70338188776171
 21
-91.556946205334583
 31
0.0
  0
LINE
  8
DETAIL
  6
CONTINUOUS
 62
     5
 10
-129.70338188776171
 20
-91.556946205334583
 30
0.0
 11
-127.008103807821
 21
-92.987093757956359
 31
0.0
  0
LINE
  8
DETAIL
  6
CONTINUOUS
 62
     5
 10
-127.008103807821
 20
-92.987093757956359
 30
0.0
 11
-123.8177746519727
 21
-93.59215618406563
 31
0.0
  0
LINE
  8
DETAIL
  6
CONTINUOUS
 62
     5
 10
94.939795224036061
 20
-171.9752432027509
 30
0.0
 11
94.939795224036061
 21
-172.80032832926341
 31
0.0
  0
LINE
  8
DETAIL
  6
CONTINUOUS
 62
     5
 10
94.939795224036061
 20
-172.80032832926341
 30
0.0
 11
95.26982927464087
 21
-173.29537940517079
 31
0.0
  0
LINE
  8
DETAIL
  6
CONTINUOUS
 62
     5
 10
95.26982927464087
 20
-173.29537940517079
 30
0.0
 11
95.764880350548538
 21
-173.79043048107829
 31
0.0
  0
LINE
  8
DETAIL
  6
CONTINUOUS
 62
     5
 10
95.764880350548538
 20
-173.79043048107829
 30
0.0
 11
96.149920076254148
 21
-174.0654588565825
 31
0.0
  0
LINE
  8
DETAIL
  6
CONTINUOUS
 62
     5
 10
96.149920076254148
 20
-174.0654588565825
 30
0.0
 11
96.975005202766624
 21
-174.0654588565825
 31
0.0
  0
LINE
  8
DETAIL
  6
CONTINUOUS
 62
     5
 10
126.7880811074174
 20
-174.0654588565825
 30
0.0
 11
127.17312083312341
 21
-174.0654588565825
 31
0.0
  0
LINE
  8
DETAIL
  6
CONTINUOUS
 62
     5
 10
127.17312083312341
 20
-174.0654588565825
 30
0.0
 11
127.7781832592327
 21
-173.79043048107829
 31
0.0
  0
LINE
  8
DETAIL
  6
CONTINUOUS
 62
     5
 10
127.7781832592327
 20
-173.79043048107829
 30
0.0
 11
128.2732343351399
 21
-173.29537940517079
 31
0.0
  0
LINE
  8
DETAIL
  6
CONTINUOUS
 62
     5
 10
128.2732343351399
 20
-173.29537940517079
 30
0.0
 11
128.43825136044231
 21
-172.80032832926341
 31
0.0
  0
LINE
  8
DETAIL
  6
CONTINUOUS
 62
     5
 10
128.43825136044231
 20
-172.80032832926341
 30
0.0
 11
128.65827406084551
 21
-171.9752432027509
 31
0.0
  0
LINE
  8
DETAIL
  6
CONTINUOUS
 62
     5
 10
126.7880811074174
 20
-174.0654588565825
 30
0.0
 11
96.975005202766624
 21
-174.0654588565825
 31
0.0
  0
LINE
  8
DETAIL
  6
CONTINUOUS
 62
     5
 10
112.4866055812013
 20
-170.05004457422189
 30
0.0
 11
112.4866055812013
 21
-166.5846870428696
 31
0.0
  0
LINE
  8
DETAIL
  6
CONTINUOUS
 62
     5
 10
112.4866055812013
 20
-170.05004457422189
 30
0.0
 11
85.973870182600422
 21
-170.05004457422189
 31
0.0
  0
LINE
  8
DETAIL
  6
CONTINUOUS
 62
     5
 10
85.973870182600422
 20
-171.0951524011376
 30
0.0
 11
83.993665878970205
 21
-171.0951524011376
 31
0.0
  0
LINE
  8
DETAIL
  6
CONTINUOUS
 62
     5
 10
85.973870182600422
 20
-170.05004457422189
 30
0.0
 11
85.973870182600422
 21
-171.9752432027509
 31
0.0
  0
LINE
  8
DETAIL
  6
CONTINUOUS
 62
     5
 10
101.15543651042979
 20
-170.05004457422189
 30
0.0
 11
101.15543651042979
 21
-169.77501619871771
 31
0.0
  0
LINE
  8
DETAIL
  6
CONTINUOUS
 62
     5
 10
101.15543651042979
 20
-169.77501619871771
 30
0.0
 11
100.9904194851274
 21
-169.4999878232135
 31
0.0
  0
LINE
  8
DETAIL
  6
CONTINUOUS
 62
     5
 10
100.9904194851274
 20
-169.4999878232135
 30
0.0
 11
100.9904194851274
 21
-169.2799651228103
 31
0.0
  0
LINE
  8
DETAIL
  6
CONTINUOUS
 62
     5
 10
100.9904194851274
 20
-169.2799651228103
 30
0.0
 11
100.44036273411891
 21
-169.2799651228103
 31
0.0
  0
LINE
  8
DETAIL
  6
CONTINUOUS
 62
     5
 10
100.44036273411891
 20
-169.2799651228103
 30
0.0
 11
100.2753457088165
 21
-169.05994242240709
 31
0.0
  0
LINE
  8
DETAIL
  6
CONTINUOUS
 62
     5
 10
100.2753457088165
 20
-169.05994242240709
 30
0.0
 11
83.993665878970205
 21
-169.05994242240709
 31
0.0
  0
LINE
  8
DETAIL
  6
CONTINUOUS
 62
     5
 10
169.47248498566299
 20
-171.9752432027509
 30
0.0
 11
169.47248498566299
 21
-131.05102092773211
 31
0.0
  0
LINE
  8
DETAIL
  6
CONTINUOUS
 62
     5
 10
169.47248498566299
 20
-171.9752432027509
 30
0.0
 11
85.973870182600422
 21
-171.9752432027509
 31
0.0
  0
LINE
  8
DETAIL
  6
CONTINUOUS
 62
     5
 10
83.993665878970205
 20
-169.05994242240709
 30
0.0
 11
83.993665878970205
 21
-171.0951524011376
 31
0.0
  0
LINE
  8
DETAIL
  6
CONTINUOUS
 62
     5
 10
169.47248498566299
 20
-131.05102092773211
 30
0.0
 11
154.95098675904359
 21
-131.05102092773211
 31
0.0
  0
LINE
  8
DETAIL
  6
CONTINUOUS
 62
     5
 10
143.94985173887699
 20
-151.56813774034219
 30
0.0
 11
143.94985173887699
 21
-131.05102092773211
 31
0.0
  0
LINE
  8
DETAIL
  6
CONTINUOUS
 62
     5
 10
154.95098675904359
 20
-151.56813774034219
 30
0.0
 11
154.95098675904359
 21
-131.05102092773211
 31
0.0
  0
LINE
  8
DETAIL
  6
CONTINUOUS
 62
     5
 10
143.94985173887699
 20
-151.56813774034219
 30
0.0
 11
144.27988578948231
 21
-152.99828529296391
 31
0.0
  0
LINE
  8
DETAIL
  6
CONTINUOUS
 62
     5
 10
144.27988578948231
 20
-152.99828529296391
 30
0.0
 11
144.93995389069229
 21
-154.7584668961905
 31
0.0
  0
LINE
  8
DETAIL
  6
CONTINUOUS
 62
     5
 10
144.93995389069229
 20
-154.7584668961905
 30
0.0
 11
146.15007874291041
 21
-155.74856904800561
 31
0.0
  0
LINE
  8
DETAIL
  6
CONTINUOUS
 62
     5
 10
146.15007874291041
 20
-155.74856904800561
 30
0.0
 11
147.74524332083459
 21
-156.79367687492149
 31
0.0
  0
LINE
  8
DETAIL
  6
CONTINUOUS
 62
     5
 10
147.74524332083459
 20
-156.79367687492149
 30
0.0
 11
149.45041924896029
 21
-156.95869390022389
 31
0.0
  0
LINE
  8
DETAIL
  6
CONTINUOUS
 62
     5
 10
149.45041924896029
 20
-156.95869390022389
 30
0.0
 11
150.93557247668289
 21
-156.79367687492149
 31
0.0
  0
LINE
  8
DETAIL
  6
CONTINUOUS
 62
     5
 10
150.93557247668289
 20
-156.79367687492149
 30
0.0
 11
152.47573137950619
 21
-155.74856904800561
 31
0.0
  0
LINE
  8
DETAIL
  6
CONTINUOUS
 62
     5
 10
152.47573137950619
 20
-155.74856904800561
 30
0.0
 11
153.6858562317243
 21
-154.7584668961905
 31
0.0
  0
LINE
  8
DETAIL
  6
CONTINUOUS
 62
     5
 10
153.6858562317243
 20
-154.7584668961905
 30
0.0
 11
154.455935683136
 21
-152.99828529296391
 31
0.0
  0
LINE
  8
DETAIL
  6
CONTINUOUS
 62
     5
 10
154.455935683136
 20
-152.99828529296391
 30
0.0
 11
154.95098675904359
 21
-151.56813774034219
 31
0.0
  0
LINE
  8
DETAIL
  6
CONTINUOUS
 62
     5
 10
163.47686639967239
 20
-166.96972676857521
 30
0.0
 11
166.17214447961311
 21
-171.9752432027509
 31
0.0
  0
LINE
  8
DETAIL
  6
CONTINUOUS
 62
     5
 10
163.47686639967239
 20
-166.96972676857521
 30
0.0
 11
160.45155426912649
 21
-171.9752432027509
 31
0.0
  0
LINE
  8
DETAIL
  6
CONTINUOUS
 62
     5
 10
163.47686639967239
 20
-166.96972676857521
 30
0.0
 11
163.47686639967239
 21
-171.9752432027509
 31
0.0
  0
LINE
  8
DETAIL
  6
CONTINUOUS
 62
     5
 10
135.47897777334899
 20
-166.96972676857521
 30
0.0
 11
132.45366564280309
 21
-171.9752432027509
 31
0.0
  0
LINE
  8
DETAIL
  6
CONTINUOUS
 62
     5
 10
135.47897777334899
 20
-166.96972676857521
 30
0.0
 11
138.28426720349131
 21
-171.9752432027509
 31
0.0
  0
LINE
  8
DETAIL
  6
CONTINUOUS
 62
     5
 10
135.47897777334899
 20
-166.96972676857521
 30
0.0
 11
135.47897777334899
 21
-171.9752432027509
 31
0.0
  0
LINE
  8
DETAIL
  6
CONTINUOUS
 62
     5
 10
143.94985173887699
 20
-131.05102092773211
 30
0.0
 11
111.44149775428561
 21
-131.05102092773211
 31
0.0
  0
LINE
  8
DETAIL
  6
CONTINUOUS
 62
     5
 10
112.4866055812013
 20
-166.5846870428696
 30
0.0
 11
111.44149775428561
 21
-166.5846870428696
 31
0.0
  0
LINE
  8
DETAIL
  6
CONTINUOUS
 62
     5
 10
-97.195027903170285
 20
-174.0654588565825
 30
0.0
 11
-96.534959801960213
 21
-174.0654588565825
 31
0.0
  0
LINE
  8
DETAIL
  6
CONTINUOUS
 62
     5
 10
-96.534959801960213
 20
-174.0654588565825
 30
0.0
 11
-96.039908726052545
 21
-173.79043048107829
 31
0.0
  0
LINE
  8
DETAIL
  6
CONTINUOUS
 62
     5
 10
-96.039908726052545
 20
-173.79043048107829
 30
0.0
 11
-95.544857650145332
 21
-173.29537940517079
 31
0.0
  0
LINE
  8
DETAIL
  6
CONTINUOUS
 62
     5
 10
-95.544857650145332
 20
-173.29537940517079
 30
0.0
 11
-95.324834949741671
 21
-172.80032832926341
 31
0.0
  0
LINE
  8
DETAIL
  6
CONTINUOUS
 62
     5
 10
-95.324834949741671
 20
-172.80032832926341
 30
0.0
 11
-95.324834949741671
 21
-171.9752432027509
 31
0.0
  0
LINE
  8
DETAIL
  6
CONTINUOUS
 62
     5
 10
-129.04331378655161
 20
-171.9752432027509
 30
0.0
 11
-128.8232910861484
 21
-172.80032832926341
 31
0.0
  0
LINE
  8
DETAIL
  6
CONTINUOUS
 62
     5
 10
-128.8232910861484
 20
-172.80032832926341
 30
0.0
 11
-128.49325703554311
 21
-173.29537940517079
 31
0.0
  0
LINE
  8
DETAIL
  6
CONTINUOUS
 62
     5
 10
-128.49325703554311
 20
-173.29537940517079
 30
0.0
 11
-127.9982059596359
 21
-173.79043048107829
 31
0.0
  0
LINE
  8
DETAIL
  6
CONTINUOUS
 62
     5
 10
-127.9982059596359
 20
-173.79043048107829
 30
0.0
 11
-127.5031548837283
 21
-174.0654588565825
 31
0.0
  0
LINE
  8
DETAIL
  6
CONTINUOUS
 62
     5
 10
-127.5031548837283
 20
-174.0654588565825
 30
0.0
 11
-127.008103807821
 21
-174.0654588565825
 31
0.0
  0
LINE
  8
DETAIL
  6
CONTINUOUS
 62
     5
 10
-127.008103807821
 20
-174.0654588565825
 30
0.0
 11
-97.195027903170285
 21
-174.0654588565825
 31
0.0
  0
LINE
  8
DETAIL
  6
CONTINUOUS
 62
     5
 10
-112.8166396318065
 20
-170.05004457422189
 30
0.0
 11
-112.8166396318065
 21
-166.5846870428696
 31
0.0
  0
LINE
  8
DETAIL
  6
CONTINUOUS
 62
     5
 10
-112.8166396318065
 20
-170.05004457422189
 30
0.0
 11
-86.30390423320523
 21
-170.05004457422189
 31
0.0
  0
LINE
  8
DETAIL
  6
CONTINUOUS
 62
     5
 10
-86.30390423320523
 20
-171.0951524011376
 30
0.0
 11
-83.993665878970205
 21
-171.0951524011376
 31
0.0
  0
LINE
  8
DETAIL
  6
CONTINUOUS
 62
     5
 10
-86.30390423320523
 20
-170.05004457422189
 30
0.0
 11
-86.30390423320523
 21
-171.9752432027509
 31
0.0
  0
LINE
  8
DETAIL
  6
CONTINUOUS
 62
     5
 10
-100.49536840921969
 20
-169.05994242240709
 30
0.0
 11
-100.7153911096234
 21
-169.2799651228103
 31
0.0
  0
LINE
  8
DETAIL
  6
CONTINUOUS
 62
     5
 10
-100.7153911096234
 20
-169.2799651228103
 30
0.0
 11
-101.04542516022821
 21
-169.2799651228103
 31
0.0
  0
LINE
  8
DETAIL
  6
CONTINUOUS
 62
     5
 10
-101.04542516022821
 20
-169.2799651228103
 30
0.0
 11
-101.3204535357322
 21
-169.4999878232135
 31
0.0
  0
LINE
  8
DETAIL
  6
CONTINUOUS
 62
     5
 10
-101.3204535357322
 20
-169.4999878232135
 30
0.0
 11
-101.5404762361359
 21
-169.77501619871771
 31
0.0
  0
LINE
  8
DETAIL
  6
CONTINUOUS
 62
     5
 10
-101.5404762361359
 20
-169.77501619871771
 30
0.0
 11
-101.5404762361359
 21
-170.05004457422189
 31
0.0
  0
LINE
  8
DETAIL
  6
CONTINUOUS
 62
     5
 10
-100.49536840921969
 20
-169.05994242240709
 30
0.0
 11
-83.993665878970205
 21
-169.05994242240709
 31
0.0
  0
LINE
  8
DETAIL
  6
CONTINUOUS
 62
     5
 10
-169.52749066076419
 20
-171.9752432027509
 30
0.0
 11
-169.52749066076419
 21
-131.05102092773211
 31
0.0
  0
LINE
  8
DETAIL
  6
CONTINUOUS
 62
     5
 10
-169.52749066076419
 20
-171.9752432027509
 30
0.0
 11
-86.30390423320523
 21
-171.9752432027509
 31
0.0
  0
LINE
  8
DETAIL
  6
CONTINUOUS
 62
     5
 10
-83.993665878970205
 20
-169.05994242240709
 30
0.0
 11
-83.993665878970205
 21
-171.0951524011376
 31
0.0
  0
LINE
  8
DETAIL
  6
CONTINUOUS
 62
     5
 10
-169.52749066076419
 20
-131.05102092773211
 30
0.0
 11
-155.00599243414439
 21
-131.05102092773211
 31
0.0
  0
LINE
  8
DETAIL
  6
CONTINUOUS
 62
     5
 10
-144.00485741397819
 20
-151.56813774034219
 30
0.0
 11
-144.00485741397819
 21
-131.05102092773211
 31
0.0
  0
LINE
  8
DETAIL
  6
CONTINUOUS
 62
     5
 10
-155.00599243414439
 20
-151.56813774034219
 30
0.0
 11
-155.00599243414439
 21
-131.05102092773211
 31
0.0
  0
LINE
  8
DETAIL
  6
CONTINUOUS
 62
     5
 10
-155.00599243414439
 20
-151.56813774034219
 30
0.0
 11
-154.73096405864001
 21
-152.99828529296391
 31
0.0
  0
LINE
  8
DETAIL
  6
CONTINUOUS
 62
     5
 10
-154.73096405864001
 20
-152.99828529296391
 30
0.0
 11
-154.01589028232959
 21
-154.7584668961905
 31
0.0
  0
LINE
  8
DETAIL
  6
CONTINUOUS
 62
     5
 10
-154.01589028232959
 20
-154.7584668961905
 30
0.0
 11
-152.80576543011099
 21
-155.74856904800561
 31
0.0
  0
LINE
  8
DETAIL
  6
CONTINUOUS
 62
     5
 10
-152.80576543011099
 20
-155.74856904800561
 30
0.0
 11
-151.3206122023885
 21
-156.79367687492149
 31
0.0
  0
LINE
  8
DETAIL
  6
CONTINUOUS
 62
     5
 10
-151.3206122023885
 20
-156.79367687492149
 30
0.0
 11
-149.50542492406109
 21
-156.95869390022389
 31
0.0
  0
LINE
  8
DETAIL
  6
CONTINUOUS
 62
     5
 10
-149.50542492406109
 20
-156.95869390022389
 30
0.0
 11
-148.0202716963386
 21
-156.79367687492149
 31
0.0
  0
LINE
  8
DETAIL
  6
CONTINUOUS
 62
     5
 10
-148.0202716963386
 20
-156.79367687492149
 30
0.0
 11
-146.5351184686165
 21
-155.74856904800561
 31
0.0
  0
LINE
  8
DETAIL
  6
CONTINUOUS
 62
     5
 10
-146.5351184686165
 20
-155.74856904800561
 30
0.0
 11
-145.3249936163979
 21
-154.7584668961905
 31
0.0
  0
LINE
  8
DETAIL
  6
CONTINUOUS
 62
     5
 10
-145.3249936163979
 20
-154.7584668961905
 30
0.0
 11
-144.49990848988551
 21
-152.99828529296391
 31
0.0
  0
LINE
  8
DETAIL
  6
CONTINUOUS
 62
     5
 10
-144.49990848988551
 20
-152.99828529296391
 30
0.0
 11
-144.00485741397819
 21
-151.56813774034219
 31
0.0
  0
LINE
  8
DETAIL
  6
CONTINUOUS
 62
     5
 10
-163.53187207477319
 20
-166.96972676857521
 30
0.0
 11
-166.50217853021829
 21
-171.9752432027509
 31
0.0
  0
LINE
  8
DETAIL
  6
CONTINUOUS
 62
     5
 10
-163.53187207477319
 20
-166.96972676857521
 30
0.0
 11
-160.72658264463101
 21
-171.9752432027509
 31
0.0
  0
LINE
  8
DETAIL
  6
CONTINUOUS
 62
     5
 10
-163.53187207477319
 20
-166.96972676857521
 30
0.0
 11
-163.53187207477319
 21
-171.9752432027509
 31
0.0
  0
LINE
  8
DETAIL
  6
CONTINUOUS
 62
     5
 10
-135.53398344844979
 20
-166.96972676857521
 30
0.0
 11
-132.83870536850921
 21
-171.9752432027509
 31
0.0
  0
LINE
  8
DETAIL
  6
CONTINUOUS
 62
     5
 10
-135.53398344844979
 20
-166.96972676857521
 30
0.0
 11
-138.50428990389489
 21
-171.9752432027509
 31
0.0
  0
LINE
  8
DETAIL
  6
CONTINUOUS
 62
     5
 10
-135.53398344844979
 20
-166.96972676857521
 30
0.0
 11
-135.53398344844979
 21
-171.9752432027509
 31
0.0
  0
LINE
  8
DETAIL
  6
CONTINUOUS
 62
     5
 10
-144.00485741397819
 20
-131.05102092773211
 30
0.0
 11
-111.49650342938639
 21
-131.05102092773211
 31
0.0
  0
LINE
  8
DETAIL
  6
CONTINUOUS
 62
     5
 10
-112.8166396318065
 20
-166.5846870428696
 30
0.0
 11
-111.49650342938639
 21
-166.5846870428696
 31
0.0
  0
LINE
  8
DETAIL
  6
CONTINUOUS
 62
     5
 10
96.975005202766624
 20
170.49008997502861
 30
0.0
 11
96.149920076254148
 21
170.2150615995244
 31
0.0
  0
LINE
  8
DETAIL
  6
CONTINUOUS
 62
     5
 10
96.149920076254148
 20
170.2150615995244
 30
0.0
 11
95.764880350548538
 21
169.88502754891951
 31
0.0
  0
LINE
  8
DETAIL
  6
CONTINUOUS
 62
     5
 10
95.764880350548538
 20
169.88502754891951
 30
0.0
 11
95.26982927464087
 21
169.49998782321339
 31
0.0
  0
LINE
  8
DETAIL
  6
CONTINUOUS
 62
     5
 10
95.26982927464087
 20
169.49998782321339
 30
0.0
 11
94.939795224036061
 21
168.89492539710449
 31
0.0
  0
LINE
  8
DETAIL
  6
CONTINUOUS
 62
     5
 10
94.939795224036061
 20
168.89492539710449
 30
0.0
 11
94.939795224036061
 21
168.39987432119699
 31
0.0
  0
LINE
  8
DETAIL
  6
CONTINUOUS
 62
     5
 10
128.65827406084551
 20
168.39987432119699
 30
0.0
 11
128.43825136044231
 21
168.89492539710449
 31
0.0
  0
LINE
  8
DETAIL
  6
CONTINUOUS
 62
     5
 10
128.43825136044231
 20
168.89492539710449
 30
0.0
 11
128.2732343351399
 21
169.49998782321339
 31
0.0
  0
LINE
  8
DETAIL
  6
CONTINUOUS
 62
     5
 10
128.2732343351399
 20
169.49998782321339
 30
0.0
 11
127.7781832592327
 21
169.88502754891951
 31
0.0
  0
LINE
  8
DETAIL
  6
CONTINUOUS
 62
     5
 10
127.7781832592327
 20
169.88502754891951
 30
0.0
 11
127.17312083312341
 21
170.2150615995244
 31
0.0
  0
LINE
  8
DETAIL
  6
CONTINUOUS
 62
     5
 10
127.17312083312341
 20
170.2150615995244
 30
0.0
 11
126.7880811074174
 21
170.49008997502861
 31
0.0
  0
LINE
  8
DETAIL
  6
CONTINUOUS
 62
     5
 10
126.7880811074174
 20
170.49008997502861
 30
0.0
 11
96.975005202766624
 21
170.49008997502861
 31
0.0
  0
LINE
  8
DETAIL
  6
CONTINUOUS
 62
     5
 10
112.4866055812013
 20
166.41967001756711
 30
0.0
 11
112.4866055812013
 21
163.00931816131549
 31
0.0
  0
LINE
  8
DETAIL
  6
CONTINUOUS
 62
     5
 10
112.4866055812013
 20
166.41967001756711
 30
0.0
 11
85.973870182600422
 21
166.41967001756711
 31
0.0
  0
LINE
  8
DETAIL
  6
CONTINUOUS
 62
     5
 10
85.973870182600422
 20
167.40977216938211
 30
0.0
 11
83.993665878970205
 21
167.40977216938211
 31
0.0
  0
LINE
  8
DETAIL
  6
CONTINUOUS
 62
     5
 10
85.973870182600422
 20
166.41967001756711
 30
0.0
 11
85.973870182600422
 21
168.39987432119699
 31
0.0
  0
LINE
  8
DETAIL
  6
CONTINUOUS
 62
     5
 10
100.2753457088165
 20
165.48457354085289
 30
0.0
 11
100.44036273411891
 21
165.48457354085289
 31
0.0
  0
LINE
  8
DETAIL
  6
CONTINUOUS
 62
     5
 10
100.44036273411891
 20
165.48457354085289
 30
0.0
 11
100.9904194851274
 21
165.48457354085289
 31
0.0
  0
LINE
  8
DETAIL
  6
CONTINUOUS
 62
     5
 10
100.9904194851274
 20
165.48457354085289
 30
0.0
 11
100.9904194851274
 21
165.7045962412561
 31
0.0
  0
LINE
  8
DETAIL
  6
CONTINUOUS
 62
     5
 10
100.9904194851274
 20
165.7045962412561
 30
0.0
 11
101.15543651042979
 21
165.92461894165959
 31
0.0
  0
LINE
  8
DETAIL
  6
CONTINUOUS
 62
     5
 10
101.15543651042979
 20
165.92461894165959
 30
0.0
 11
101.15543651042979
 21
166.41967001756711
 31
0.0
  0
LINE
  8
DETAIL
  6
CONTINUOUS
 62
     5
 10
100.2753457088165
 20
165.48457354085289
 30
0.0
 11
83.993665878970205
 21
165.48457354085289
 31
0.0
  0
LINE
  8
DETAIL
  6
CONTINUOUS
 62
     5
 10
169.47248498566299
 20
168.39987432119699
 30
0.0
 11
169.47248498566299
 21
127.4206463710772
 31
0.0
  0
LINE
  8
DETAIL
  6
CONTINUOUS
 62
     5
 10
169.47248498566299
 20
168.39987432119699
 30
0.0
 11
85.973870182600422
 21
168.39987432119699
 31
0.0
  0
LINE
  8
DETAIL
  6
CONTINUOUS
 62
     5
 10
83.993665878970205
 20
165.48457354085289
 30
0.0
 11
83.993665878970205
 21
167.40977216938211
 31
0.0
  0
LINE
  8
DETAIL
  6
CONTINUOUS
 62
     5
 10
169.47248498566299
 20
127.4206463710772
 30
0.0
 11
154.95098675904359
 21
127.4206463710772
 31
0.0
  0
LINE
  8
DETAIL
  6
CONTINUOUS
 62
     5
 10
143.94985173887699
 20
147.7177404832841
 30
0.0
 11
143.94985173887699
 21
127.4206463710772
 31
0.0
  0
LINE
  8
DETAIL
  6
CONTINUOUS
 62
     5
 10
154.95098675904359
 20
147.7177404832841
 30
0.0
 11
154.95098675904359
 21
127.4206463710772
 31
0.0
  0
LINE
  8
DETAIL
  6
CONTINUOUS
 62
     5
 10
154.95098675904359
 20
147.7177404832841
 30
0.0
 11
154.455935683136
 21
149.4779220865108
 31
0.0
  0
LINE
  8
DETAIL
  6
CONTINUOUS
 62
     5
 10
154.455935683136
 20
149.4779220865108
 30
0.0
 11
153.4658335313211
 21
151.18309801463681
 31
0.0
  0
LINE
  8
DETAIL
  6
CONTINUOUS
 62
     5
 10
153.4658335313211
 20
151.18309801463681
 30
0.0
 11
152.14569732890101
 21
152.39322286685501
 31
0.0
  0
LINE
  8
DETAIL
  6
CONTINUOUS
 62
     5
 10
152.14569732890101
 20
152.39322286685501
 30
0.0
 11
150.27550437547279
 21
152.9982852929642
 31
0.0
  0
LINE
  8
DETAIL
  6
CONTINUOUS
 62
     5
 10
150.27550437547279
 20
152.9982852929642
 30
0.0
 11
148.46031709714501
 21
152.9982852929642
 31
0.0
  0
LINE
  8
DETAIL
  6
CONTINUOUS
 62
     5
 10
148.46031709714501
 20
152.9982852929642
 30
0.0
 11
146.75514116901971
 21
152.39322286685501
 31
0.0
  0
LINE
  8
DETAIL
  6
CONTINUOUS
 62
     5
 10
146.75514116901971
 20
152.39322286685501
 30
0.0
 11
145.2699879412971
 21
151.18309801463681
 31
0.0
  0
LINE
  8
DETAIL
  6
CONTINUOUS
 62
     5
 10
145.2699879412971
 20
151.18309801463681
 30
0.0
 11
144.27988578948231
 21
149.4779220865108
 31
0.0
  0
LINE
  8
DETAIL
  6
CONTINUOUS
 62
     5
 10
144.27988578948231
 20
149.4779220865108
 30
0.0
 11
143.94985173887699
 21
147.7177404832841
 31
0.0
  0
LINE
  8
DETAIL
  6
CONTINUOUS
 62
     5
 10
163.47686639967239
 20
163.3943578870213
 30
0.0
 11
166.17214447961311
 21
168.39987432119699
 31
0.0
  0
LINE
  8
DETAIL
  6
CONTINUOUS
 62
     5
 10
163.47686639967239
 20
163.3943578870213
 30
0.0
 11
160.45155426912649
 21
168.39987432119699
 31
0.0
  0
LINE
  8
DETAIL
  6
CONTINUOUS
 62
     5
 10
163.47686639967239
 20
163.3943578870213
 30
0.0
 11
163.47686639967239
 21
168.39987432119699
 31
0.0
  0
LINE
  8
DETAIL
  6
CONTINUOUS
 62
     5
 10
135.47897777334899
 20
163.3943578870213
 30
0.0
 11
132.45366564280309
 21
168.39987432119699
 31
0.0
  0
LINE
  8
DETAIL
  6
CONTINUOUS
 62
     5
 10
135.47897777334899
 20
163.3943578870213
 30
0.0
 11
138.28426720349131
 21
168.39987432119699
 31
0.0
  0
LINE
  8
DETAIL
  6
CONTINUOUS
 62
     5
 10
135.47897777334899
 20
163.3943578870213
 30
0.0
 11
135.47897777334899
 21
168.39987432119699
 31
0.0
  0
LINE
  8
DETAIL
  6
CONTINUOUS
 62
     5
 10
143.94985173887699
 20
127.4206463710772
 30
0.0
 11
111.44149775428561
 21
127.4206463710772
 31
0.0
  0
LINE
  8
DETAIL
  6
CONTINUOUS
 62
     5
 10
112.4866055812013
 20
163.00931816131549
 30
0.0
 11
111.44149775428561
 21
163.00931816131549
 31
0.0
  0
LINE
  8
DETAIL
  6
CONTINUOUS
 62
     5
 10
-95.324834949741671
 20
168.39987432119699
 30
0.0
 11
-95.324834949741671
 21
168.89492539710449
 31
0.0
  0
LINE
  8
DETAIL
  6
CONTINUOUS
 62
     5
 10
-95.324834949741671
 20
168.89492539710449
 30
0.0
 11
-95.544857650145332
 21
169.49998782321339
 31
0.0
  0
LINE
  8
DETAIL
  6
CONTINUOUS
 62
     5
 10
-95.544857650145332
 20
169.49998782321339
 30
0.0
 11
-96.039908726052545
 21
169.88502754891951
 31
0.0
  0
LINE
  8
DETAIL
  6
CONTINUOUS
 62
     5
 10
-96.039908726052545
 20
169.88502754891951
 30
0.0
 11
-96.534959801960213
 21
170.2150615995244
 31
0.0
  0
LINE
  8
DETAIL
  6
CONTINUOUS
 62
     5
 10
-96.534959801960213
 20
170.2150615995244
 30
0.0
 11
-97.195027903170285
 21
170.49008997502861
 31
0.0
  0
LINE
  8
DETAIL
  6
CONTINUOUS
 62
     5
 10
-127.008103807821
 20
170.49008997502861
 30
0.0
 11
-127.5031548837283
 21
170.2150615995244
 31
0.0
  0
LINE
  8
DETAIL
  6
CONTINUOUS
 62
     5
 10
-127.5031548837283
 20
170.2150615995244
 30
0.0
 11
-127.9982059596359
 21
169.88502754891951
 31
0.0
  0
LINE
  8
DETAIL
  6
CONTINUOUS
 62
     5
 10
-127.9982059596359
 20
169.88502754891951
 30
0.0
 11
-128.49325703554311
 21
169.49998782321339
 31
0.0
  0
LINE
  8
DETAIL
  6
CONTINUOUS
 62
     5
 10
-128.49325703554311
 20
169.49998782321339
 30
0.0
 11
-128.8232910861484
 21
168.89492539710449
 31
0.0
  0
LINE
  8
DETAIL
  6
CONTINUOUS
 62
     5
 10
-128.8232910861484
 20
168.89492539710449
 30
0.0
 11
-129.04331378655161
 21
168.39987432119699
 31
0.0
  0
LINE
  8
DETAIL
  6
CONTINUOUS
 62
     5
 10
-127.008103807821
 20
170.49008997502861
 30
0.0
 11
-97.195027903170285
 21
170.49008997502861
 31
0.0
  0
LINE
  8
DETAIL
  6
CONTINUOUS
 62
     5
 10
-112.8166396318065
 20
166.41967001756711
 30
0.0
 11
-112.8166396318065
 21
163.00931816131549
 31
0.0
  0
LINE
  8
DETAIL
  6
CONTINUOUS
 62
     5
 10
-112.8166396318065
 20
166.41967001756711
 30
0.0
 11
-86.30390423320523
 21
166.41967001756711
 31
0.0
  0
LINE
  8
DETAIL
  6
CONTINUOUS
 62
     5
 10
-86.30390423320523
 20
167.40977216938211
 30
0.0
 11
-83.993665878970205
 21
167.40977216938211
 31
0.0
  0
LINE
  8
DETAIL
  6
CONTINUOUS
 62
     5
 10
-86.30390423320523
 20
166.41967001756711
 30
0.0
 11
-86.30390423320523
 21
168.39987432119699
 31
0.0
  0
LINE
  8
DETAIL
  6
CONTINUOUS
 62
     5
 10
-101.5404762361359
 20
166.41967001756711
 30
0.0
 11
-101.5404762361359
 21
165.92461894165959
 31
0.0
  0
LINE
  8
DETAIL
  6
CONTINUOUS
 62
     5
 10
-101.5404762361359
 20
165.92461894165959
 30
0.0
 11
-101.3204535357322
 21
165.7045962412561
 31
0.0
  0
LINE
  8
DETAIL
  6
CONTINUOUS
 62
     5
 10
-101.3204535357322
 20
165.7045962412561
 30
0.0
 11
-101.04542516022821
 21
165.48457354085289
 31
0.0
  0
LINE
  8
DETAIL
  6
CONTINUOUS
 62
     5
 10
-101.04542516022821
 20
165.48457354085289
 30
0.0
 11
-100.7153911096234
 21
165.48457354085289
 31
0.0
  0
LINE
  8
DETAIL
  6
CONTINUOUS
 62
     5
 10
-100.7153911096234
 20
165.48457354085289
 30
0.0
 11
-100.49536840921969
 21
165.48457354085289
 31
0.0
  0
LINE
  8
DETAIL
  6
CONTINUOUS
 62
     5
 10
-100.49536840921969
 20
165.48457354085289
 30
0.0
 11
-83.993665878970205
 21
165.48457354085289
 31
0.0
  0
LINE
  8
DETAIL
  6
CONTINUOUS
 62
     5
 10
-169.52749066076419
 20
168.39987432119699
 30
0.0
 11
-169.52749066076419
 21
127.4206463710772
 31
0.0
  0
LINE
  8
DETAIL
  6
CONTINUOUS
 62
     5
 10
-169.52749066076419
 20
168.39987432119699
 30
0.0
 11
-86.30390423320523
 21
168.39987432119699
 31
0.0
  0
LINE
  8
DETAIL
  6
CONTINUOUS
 62
     5
 10
-83.993665878970205
 20
165.48457354085289
 30
0.0
 11
-83.993665878970205
 21
167.40977216938211
 31
0.0
  0
LINE
  8
DETAIL
  6
CONTINUOUS
 62
     5
 10
-169.52749066076419
 20
127.4206463710772
 30
0.0
 11
-155.00599243414439
 21
127.4206463710772
 31
0.0
  0
LINE
  8
DETAIL
  6
CONTINUOUS
 62
     5
 10
-144.00485741397819
 20
147.7177404832841
 30
0.0
 11
-144.00485741397819
 21
127.4206463710772
 31
0.0
  0
LINE
  8
DETAIL
  6
CONTINUOUS
 62
     5
 10
-155.00599243414439
 20
147.7177404832841
 30
0.0
 11
-155.00599243414439
 21
127.4206463710772
 31
0.0
  0
LINE
  8
DETAIL
  6
CONTINUOUS
 62
     5
 10
-144.00485741397819
 20
147.7177404832841
 30
0.0
 11
-144.49990848988551
 21
149.4779220865108
 31
0.0
  0
LINE
  8
DETAIL
  6
CONTINUOUS
 62
     5
 10
-144.49990848988551
 20
149.4779220865108
 30
0.0
 11
-145.49001064170079
 21
151.18309801463681
 31
0.0
  0
LINE
  8
DETAIL
  6
CONTINUOUS
 62
     5
 10
-145.49001064170079
 20
151.18309801463681
 30
0.0
 11
-146.70013549391891
 21
152.39322286685501
 31
0.0
  0
LINE
  8
DETAIL
  6
CONTINUOUS
 62
     5
 10
-146.70013549391891
 20
152.39322286685501
 30
0.0
 11
-148.79035114775019
 21
152.9982852929642
 31
0.0
  0
LINE
  8
DETAIL
  6
CONTINUOUS
 62
     5
 10
-148.79035114775019
 20
152.9982852929642
 30
0.0
 11
-150.495527075876
 21
152.9982852929642
 31
0.0
  0
LINE
  8
DETAIL
  6
CONTINUOUS
 62
     5
 10
-150.495527075876
 20
152.9982852929642
 30
0.0
 11
-152.20070300400181
 21
152.39322286685501
 31
0.0
  0
LINE
  8
DETAIL
  6
CONTINUOUS
 62
     5
 10
-152.20070300400181
 20
152.39322286685501
 30
0.0
 11
-153.7958675819259
 21
151.18309801463681
 31
0.0
  0
LINE
  8
DETAIL
  6
CONTINUOUS
 62
     5
 10
-153.7958675819259
 20
151.18309801463681
 30
0.0
 11
-154.73096405864001
 21
149.4779220865108
 31
0.0
  0
LINE
  8
DETAIL
  6
CONTINUOUS
 62
     5
 10
-154.73096405864001
 20
149.4779220865108
 30
0.0
 11
-155.00599243414439
 21
147.7177404832841
 31
0.0
  0
LINE
  8
DETAIL
  6
CONTINUOUS
 62
     5
 10
-163.53187207477319
 20
163.3943578870213
 30
0.0
 11
-166.50217853021829
 21
168.39987432119699
 31
0.0
  0
LINE
  8
DETAIL
  6
CONTINUOUS
 62
     5
 10
-163.53187207477319
 20
163.3943578870213
 30
0.0
 11
-160.72658264463101
 21
168.39987432119699
 31
0.0
  0
LINE
  8
DETAIL
  6
CONTINUOUS
 62
     5
 10
-163.53187207477319
 20
163.3943578870213
 30
0.0
 11
-163.53187207477319
 21
168.39987432119699
 31
0.0
  0
LINE
  8
DETAIL
  6
CONTINUOUS
 62
     5
 10
-135.53398344844979
 20
163.3943578870213
 30
0.0
 11
-132.83870536850921
 21
168.39987432119699
 31
0.0
  0
LINE
  8
DETAIL
  6
CONTINUOUS
 62
     5
 10
-135.53398344844979
 20
163.3943578870213
 30
0.0
 11
-138.50428990389489
 21
168.39987432119699
 31
0.0
  0
LINE
  8
DETAIL
  6
CONTINUOUS
 62
     5
 10
-135.53398344844979
 20
163.3943578870213
 30
0.0
 11
-135.53398344844979
 21
168.39987432119699
 31
0.0
  0
LINE
  8
DETAIL
  6
CONTINUOUS
 62
     5
 10
-144.00485741397819
 20
127.4206463710772
 30
0.0
 11
-111.49650342938639
 21
127.4206463710772
 31
0.0
  0
LINE
  8
DETAIL
  6
CONTINUOUS
 62
     5
 10
-112.8166396318065
 20
163.00931816131549
 30
0.0
 11
-111.49650342938639
 21
163.00931816131549
 31
0.0
  0
LINE
  8
DETAIL
  6
CONTINUOUS
 62
     5
 10
-96.314937101556552
 20
-173.79043048107829
 30
0.0
 11
-94.004698747321527
 21
-174.2854815569857
 31
0.0
  0
LINE
  8
DETAIL
  6
CONTINUOUS
 62
     5
 10
-94.004698747321527
 20
-174.2854815569857
 30
0.0
 11
-92.024494443691765
 21
-174.0654588565825
 31
0.0
  0
LINE
  8
DETAIL
  6
CONTINUOUS
 62
     5
 10
-92.024494443691765
 20
-174.0654588565825
 30
0.0
 11
-90.044290140062003
 21
-173.29537940517079
 31
0.0
  0
LINE
  8
DETAIL
  6
CONTINUOUS
 62
     5
 10
-90.044290140062003
 20
-173.29537940517079
 30
0.0
 11
-88.504131237238198
 21
-171.9752432027509
 31
0.0
  0
LINE
  8
DETAIL
  6
CONTINUOUS
 62
     5
 10
88.284108536834992
 20
-171.9752432027509
 30
0.0
 11
89.989284464960747
 21
-173.29537940517079
 31
0.0
  0
LINE
  8
DETAIL
  6
CONTINUOUS
 62
     5
 10
89.989284464960747
 20
-173.29537940517079
 30
0.0
 11
91.749466068187758
 21
-174.0654588565825
 31
0.0
  0
LINE
  8
DETAIL
  6
CONTINUOUS
 62
     5
 10
91.749466068187758
 20
-174.0654588565825
 30
0.0
 11
93.94969307222118
 21
-174.2854815569857
 31
0.0
  0
LINE
  8
DETAIL
  6
CONTINUOUS
 62
     5
 10
93.94969307222118
 20
-174.2854815569857
 30
0.0
 11
95.984903050951743
 21
-173.79043048107829
 31
0.0
  0
LINE
  8
DETAIL
  6
CONTINUOUS
 62
     5
 10
95.984903050951743
 20
169.88502754891951
 30
0.0
 11
93.94969307222118
 21
170.49008997502861
 31
0.0
  0
LINE
  8
DETAIL
  6
CONTINUOUS
 62
     5
 10
93.94969307222118
 20
170.49008997502861
 30
0.0
 11
91.749466068187758
 21
170.2150615995244
 31
0.0
  0
LINE
  8
DETAIL
  6
CONTINUOUS
 62
     5
 10
91.749466068187758
 20
170.2150615995244
 30
0.0
 11
89.989284464960747
 21
169.49998782321339
 31
0.0
  0
LINE
  8
DETAIL
  6
CONTINUOUS
 62
     5
 10
89.989284464960747
 20
169.49998782321339
 30
0.0
 11
88.284108536834992
 21
168.39987432119699
 31
0.0
  0
LINE
  8
DETAIL
  6
CONTINUOUS
 62
     5
 10
-88.504131237238198
 20
168.39987432119699
 30
0.0
 11
-90.044290140062003
 21
169.49998782321339
 31
0.0
  0
LINE
  8
DETAIL
  6
CONTINUOUS
 62
     5
 10
-90.044290140062003
 20
169.49998782321339
 30
0.0
 11
-92.024494443691765
 21
170.2150615995244
 31
0.0
  0
LINE
  8
DETAIL
  6
CONTINUOUS
 62
     5
 10
-92.024494443691765
 20
170.2150615995244
 30
0.0
 11
-94.004698747321527
 21
170.49008997502861
 31
0.0
  0
LINE
  8
DETAIL
  6
CONTINUOUS
 62
     5
 10
-94.004698747321527
 20
170.49008997502861
 30
0.0
 11
-96.314937101556552
 21
169.88502754891951
 31
0.0
  0
LINE
  8
OUTLINE
  6
CONTINUOUS
 62
     3
 10
-110.5064012775711
 20
-107.5635976596767
 30
0.0
 11
-110.5064012775711
 21
-109.4887962882059
 31
0.0
  0
LINE
  8
OUTLINE
  6
CONTINUOUS
 62
     3
 10
-110.5064012775711
 20
88.421622724587323
 30
0.0
 11
-110.5064012775711
 21
86.386412745856759
 31
0.0
  0
LINE
  8
OUTLINE
  6
CONTINUOUS
 62
     3
 10
110.4513956024707
 20
165.48457354085289
 30
0.0
 11
-110.5064012775711
 21
165.48457354085289
 31
0.0
  0
LINE
  8
OUTLINE
  6
CONTINUOUS
 62
     3
 10
110.4513956024707
 20
165.48457354085289
 30
0.0
 11
110.4513956024707
 21
163.3943578870213
 31
0.0
  0
LINE
  8
OUTLINE
  6
CONTINUOUS
 62
     3
 10
-110.5064012775711
 20
165.48457354085289
 30
0.0
 11
-110.5064012775711
 21
163.3943578870213
 31
0.0
  0
LINE
  8
OUTLINE
  6
CONTINUOUS
 62
     3
 10
111.44149775428561
 20
163.3943578870213
 30
0.0
 11
111.44149775428561
 21
-166.96972676857521
 31
0.0
  0
LINE
  8
OUTLINE
  6
CONTINUOUS
 62
     3
 10
111.44149775428561
 20
163.3943578870213
 30
0.0
 11
107.4810891470256
 21
163.3943578870213
 31
0.0
  0
LINE
  8
OUTLINE
  6
CONTINUOUS
 62
     3
 10
102.750601088354
 20
165.48457354085289
 30
0.0
 11
110.4513956024707
 21
165.48457354085289
 31
0.0
  0
LINE
  8
OUTLINE
  6
CONTINUOUS
 62
     3
 10
-107.81112319763039
 20
88.421622724587323
 30
0.0
 11
-111.49650342938639
 21
88.421622724587323
 31
0.0
  0
LINE
  8
OUTLINE
  6
CONTINUOUS
 62
     3
 10
-107.81112319763039
 20
163.3943578870213
 30
0.0
 11
-111.49650342938639
 21
163.3943578870213
 31
0.0
  0
LINE
  8
OUTLINE
  6
CONTINUOUS
 62
     3
 10
-102.8056067634548
 20
165.48457354085289
 30
0.0
 11
-110.5064012775711
 21
165.48457354085289
 31
0.0
  0
LINE
  8
OUTLINE
  6
CONTINUOUS
 62
     3
 10
-111.49650342938639
 20
88.421622724587323
 30
0.0
 11
-111.49650342938639
 21
163.3943578870213
 31
0.0
  0
LINE
  8
OUTLINE
  6
CONTINUOUS
 62
     3
 10
-110.5064012775711
 20
165.20954516534869
 30
0.0
 11
-110.5064012775711
 21
165.48457354085289
 31
0.0
  0
LINE
  8
OUTLINE
  6
CONTINUOUS
 62
     3
 10
-111.49650342938639
 20
-109.4887962882059
 30
0.0
 11
-111.49650342938639
 21
-166.96972676857521
 31
0.0
  0
LINE
  8
OUTLINE
  6
CONTINUOUS
 62
     3
 10
-111.49650342938639
 20
-109.4887962882059
 30
0.0
 11
-107.81112319763039
 21
-109.4887962882059
 31
0.0
  0
LINE
  8
OUTLINE
  6
CONTINUOUS
 62
     3
 10
-112.5416112563021
 20
-107.5635976596767
 30
0.0
 11
-112.5416112563021
 21
86.386412745856759
 31
0.0
  0
LINE
  8
OUTLINE
  6
CONTINUOUS
 62
     3
 10
-112.5416112563021
 20
86.386412745856759
 30
0.0
 11
-108.5261969739413
 21
86.386412745856759
 31
0.0
  0
LINE
  8
OUTLINE
  6
CONTINUOUS
 62
     3
 10
-108.5261969739413
 20
-107.5635976596767
 30
0.0
 11
-112.5416112563021
 21
-107.5635976596767
 31
0.0
  0
LINE
  8
OUTLINE
  6
CONTINUOUS
 62
     3
 10
-80.033257271710681
 20
169.4999878232135
 30
0.0
 11
-80.033257271710681
 21
169.22495944770949
 31
0.0
  0
LINE
  8
OUTLINE
  6
CONTINUOUS
 62
     3
 10
-81.023359423525562
 20
165.7045962412561
 30
0.0
 11
-80.693325372920754
 21
165.7045962412561
 31
0.0
  0
LINE
  8
OUTLINE
  6
CONTINUOUS
 62
     3
 10
-80.693325372920754
 20
165.7045962412561
 30
0.0
 11
-80.528308347617894
 21
165.92461894165959
 31
0.0
  0
LINE
  8
OUTLINE
  6
CONTINUOUS
 62
     3
 10
-80.528308347617894
 20
165.92461894165959
 30
0.0
 11
-80.308285647214689
 21
165.92461894165959
 31
0.0
  0
LINE
  8
OUTLINE
  6
CONTINUOUS
 62
     3
 10
-80.308285647214689
 20
165.92461894165959
 30
0.0
 11
-80.308285647214689
 21
166.419670017567
 31
0.0
  0
LINE
  8
OUTLINE
  6
CONTINUOUS
 62
     3
 10
-80.308285647214689
 20
166.419670017567
 30
0.0
 11
-80.033257271710681
 21
166.69469839307101
 31
0.0
  0
LINE
  8
OUTLINE
  6
CONTINUOUS
 62
     3
 10
80.968353748424306
 20
165.7045962412561
 30
0.0
 11
89.989284464960747
 21
165.7045962412561
 31
0.0
  0
LINE
  8
OUTLINE
  6
CONTINUOUS
 62
     3
 10
89.989284464960747
 20
165.7045962412561
 30
0.0
 11
89.989284464960747
 21
165.48457354085289
 31
0.0
  0
LINE
  8
OUTLINE
  6
CONTINUOUS
 62
     3
 10
-90.044290140062003
 20
165.7045962412561
 30
0.0
 11
0.0
 21
165.7045962412561
 31
0.0
  0
LINE
  8
OUTLINE
  6
CONTINUOUS
 62
     3
 10
-90.044290140062003
 20
165.7045962412561
 30
0.0
 11
-90.044290140062003
 21
165.48457354085289
 31
0.0
  0
LINE
  8
OUTLINE
  6
CONTINUOUS
 62
     3
 10
-80.033257271710681
 20
169.22495944770949
 30
0.0
 11
-71.012326555174241
 21
231.21635528634681
 31
0.0
  0
LINE
  8
OUTLINE
  6
CONTINUOUS
 62
     3
 10
70.957320880072984
 20
231.38137231164939
 30
0.0
 11
79.978251596609425
 21
169.22495944770949
 31
0.0
  0
LINE
  8
OUTLINE
  6
CONTINUOUS
 62
     3
 10
-71.012326555174241
 20
233.9116333662877
 30
0.0
 11
-71.012326555174241
 21
231.38137231164939
 31
0.0
  0
LINE
  8
OUTLINE
  6
CONTINUOUS
 62
     3
 10
-69.747196027854898
 20
235.50679794421211
 30
0.0
 11
-70.297252778863367
 21
235.17676389360699
 31
0.0
  0
LINE
  8
OUTLINE
  6
CONTINUOUS
 62
     3
 10
-70.297252778863367
 20
235.17676389360699
 30
0.0
 11
-70.517275479266573
 21
235.17676389360699
 31
0.0
  0
LINE
  8
OUTLINE
  6
CONTINUOUS
 62
     3
 10
-70.517275479266573
 20
235.17676389360699
 30
0.0
 11
-70.737298179669779
 21
234.68171281769961
 31
0.0
  0
LINE
  8
OUTLINE
  6
CONTINUOUS
 62
     3
 10
-70.737298179669779
 20
234.68171281769961
 30
0.0
 11
-71.012326555174241
 21
234.51669579239689
 31
0.0
  0
LINE
  8
OUTLINE
  6
CONTINUOUS
 62
     3
 10
-71.012326555174241
 20
234.51669579239689
 30
0.0
 11
-71.012326555174241
 21
233.9116333662877
 31
0.0
  0
LINE
  8
OUTLINE
  6
CONTINUOUS
 62
     3
 10
-71.012326555174241
 20
231.21635528634681
 30
0.0
 11
-71.012326555174241
 21
231.38137231164939
 31
0.0
  0
LINE
  8
OUTLINE
  6
CONTINUOUS
 62
     3
 10
-69.747196027854898
 20
235.50679794421211
 30
0.0
 11
69.967218728258104
 21
235.50679794421211
 31
0.0
  0
LINE
  8
OUTLINE
  6
CONTINUOUS
 62
     3
 10
70.957320880072984
 20
234.51669579239689
 30
0.0
 11
70.957320880072984
 21
231.38137231164939
 31
0.0
  0
LINE
  8
OUTLINE
  6
CONTINUOUS
 62
     3
 10
70.957320880072984
 20
234.51669579239689
 30
0.0
 11
70.79230385477058
 21
234.68171281769961
 31
0.0
  0
LINE
  8
OUTLINE
  6
CONTINUOUS
 62
     3
 10
70.79230385477058
 20
234.68171281769961
 30
0.0
 11
70.79230385477058
 21
234.90173551810281
 31
0.0
  0
LINE
  8
OUTLINE
  6
CONTINUOUS
 62
     3
 10
70.79230385477058
 20
234.90173551810281
 30
0.0
 11
70.462269804165771
 21
235.17676389360699
 31
0.0
  0
LINE
  8
OUTLINE
  6
CONTINUOUS
 62
     3
 10
70.462269804165771
 20
235.17676389360699
 30
0.0
 11
70.242247103762566
 21
235.17676389360699
 31
0.0
  0
LINE
  8
OUTLINE
  6
CONTINUOUS
 62
     3
 10
70.242247103762566
 20
235.17676389360699
 30
0.0
 11
69.967218728258104
 21
235.50679794421211
 31
0.0
  0
LINE
  8
OUTLINE
  6
CONTINUOUS
 62
     3
 10
79.978251596609425
 20
169.22495944770949
 30
0.0
 11
79.978251596609425
 21
166.69469839307101
 31
0.0
  0
LINE
  8
OUTLINE
  6
CONTINUOUS
 62
     3
 10
79.978251596609425
 20
169.22495944770949
 30
0.0
 11
79.978251596609425
 21
169.4999878232135
 31
0.0
  0
LINE
  8
OUTLINE
  6
CONTINUOUS
 62
     3
 10
79.978251596609425
 20
166.69469839307101
 30
0.0
 11
79.978251596609425
 21
166.419670017567
 31
0.0
  0
LINE
  8
OUTLINE
  6
CONTINUOUS
 62
     3
 10
79.978251596609425
 20
166.419670017567
 30
0.0
 11
79.978251596609425
 21
165.92461894165959
 31
0.0
  0
LINE
  8
OUTLINE
  6
CONTINUOUS
 62
     3
 10
79.978251596609425
 20
165.92461894165959
 30
0.0
 11
80.253279972113887
 21
165.92461894165959
 31
0.0
  0
LINE
  8
OUTLINE
  6
CONTINUOUS
 62
     3
 10
80.253279972113887
 20
165.92461894165959
 30
0.0
 11
80.473302672517093
 21
165.7045962412561
 31
0.0
  0
LINE
  8
OUTLINE
  6
CONTINUOUS
 62
     3
 10
80.473302672517093
 20
165.7045962412561
 30
0.0
 11
80.968353748424306
 21
165.7045962412561
 31
0.0
  0
LINE
  8
OUTLINE
  6
CONTINUOUS
 62
     3
 10
80.473302672517093
 20
165.48457354085289
 30
0.0
 11
80.968353748424306
 21
165.48457354085289
 31
0.0
  0
LINE
  8
OUTLINE
  6
CONTINUOUS
 62
     3
 10
-80.033257271710681
 20
169.22495944770949
 30
0.0
 11
-80.033257271710681
 21
166.69469839307101
 31
0.0
  0
LINE
  8
OUTLINE
  6
CONTINUOUS
 62
     3
 10
-80.033257271710681
 20
169.4999878232135
 30
0.0
 11
-80.033257271710681
 21
169.22495944770949
 31
0.0
  0
LINE
  8
OUTLINE
  6
CONTINUOUS
 62
     3
 10
-80.033257271710681
 20
-170.49008997502841
 30
0.0
 11
-80.308285647214689
 21
-170.05004457422189
 31
0.0
  0
LINE
  8
OUTLINE
  6
CONTINUOUS
 62
     3
 10
-80.308285647214689
 20
-170.05004457422189
 30
0.0
 11
-80.308285647214689
 21
-169.77501619871771
 31
0.0
  0
LINE
  8
OUTLINE
  6
CONTINUOUS
 62
     3
 10
-80.308285647214689
 20
-169.77501619871771
 30
0.0
 11
-80.528308347617894
 21
-169.4999878232135
 31
0.0
  0
LINE
  8
OUTLINE
  6
CONTINUOUS
 62
     3
 10
-80.528308347617894
 20
-169.4999878232135
 30
0.0
 11
-80.693325372920754
 21
-169.4999878232135
 31
0.0
  0
LINE
  8
OUTLINE
  6
CONTINUOUS
 62
     3
 10
-80.693325372920754
 20
-169.4999878232135
 30
0.0
 11
-81.023359423525562
 21
-169.4999878232135
 31
0.0
  0
LINE
  8
OUTLINE
  6
CONTINUOUS
 62
     3
 10
80.968353748424306
 20
-169.4999878232135
 30
0.0
 11
89.989284464960747
 21
-169.4999878232135
 31
0.0
  0
LINE
  8
OUTLINE
  6
CONTINUOUS
 62
     3
 10
-90.044290140062003
 20
-169.4999878232135
 30
0.0
 11
0.0
 21
-169.4999878232135
 31
0.0
  0
LINE
  8
OUTLINE
  6
CONTINUOUS
 62
     3
 10
-80.033257271710681
 20
-172.96534535456581
 30
0.0
 11
-71.012326555174241
 21
-235.06675254340519
 31
0.0
  0
LINE
  8
OUTLINE
  6
CONTINUOUS
 62
     3
 10
70.957320880072984
 20
-235.28677524380839
 30
0.0
 11
79.978251596609425
 21
-172.96534535456581
 31
0.0
  0
LINE
  8
OUTLINE
  6
CONTINUOUS
 62
     3
 10
-71.012326555174241
 20
-237.76203062334599
 30
0.0
 11
-71.012326555174241
 21
-235.28677524380839
 31
0.0
  0
LINE
  8
OUTLINE
  6
CONTINUOUS
 62
     3
 10
-71.012326555174241
 20
-236.77192847153091
 30
0.0
 11
-71.012326555174241
 21
-236.55190577112771
 31
0.0
  0
LINE
  8
OUTLINE
  6
CONTINUOUS
 62
     3
 10
-71.012326555174241
 20
-237.76203062334599
 30
0.0
 11
-71.012326555174241
 21
-238.25708169925349
 31
0.0
  0
LINE
  8
OUTLINE
  6
CONTINUOUS
 62
     3
 10
-71.012326555174241
 20
-238.25708169925349
 30
0.0
 11
-70.737298179670233
 21
-238.5871157498585
 31
0.0
  0
LINE
  8
OUTLINE
  6
CONTINUOUS
 62
     3
 10
-70.737298179670233
 20
-238.5871157498585
 30
0.0
 11
-70.517275479266573
 21
-238.75213277516119
 31
0.0
  0
LINE
  8
OUTLINE
  6
CONTINUOUS
 62
     3
 10
-70.517275479266573
 20
-238.75213277516119
 30
0.0
 11
-70.297252778863367
 21
-239.082166825766
 31
0.0
  0
LINE
  8
OUTLINE
  6
CONTINUOUS
 62
     3
 10
-70.297252778863367
 20
-239.082166825766
 30
0.0
 11
-69.747196027855352
 21
-239.082166825766
 31
0.0
  0
LINE
  8
OUTLINE
  6
CONTINUOUS
 62
     3
 10
-71.012326555174241
 20
-235.28677524380839
 30
0.0
 11
-71.012326555174241
 21
-235.06675254340519
 31
0.0
  0
LINE
  8
OUTLINE
  6
CONTINUOUS
 62
     3
 10
70.957320880072984
 20
-236.55190577112771
 30
0.0
 11
70.957320880072984
 21
-236.77192847153091
 31
0.0
  0
LINE
  8
OUTLINE
  6
CONTINUOUS
 62
     3
 10
-69.747196027855352
 20
-239.082166825766
 30
0.0
 11
69.967218728258104
 21
-239.082166825766
 31
0.0
  0
LINE
  8
OUTLINE
  6
CONTINUOUS
 62
     3
 10
70.957320880072984
 20
-238.25708169925349
 30
0.0
 11
70.957320880072984
 21
-235.28677524380839
 31
0.0
  0
LINE
  8
OUTLINE
  6
CONTINUOUS
 62
     3
 10
69.692190352754096
 20
-239.082166825766
 30
0.0
 11
69.967218728258104
 21
-239.082166825766
 31
0.0
  0
LINE
  8
OUTLINE
  6
CONTINUOUS
 62
     3
 10
69.967218728258104
 20
-239.082166825766
 30
0.0
 11
70.242247103762566
 21
-239.082166825766
 31
0.0
  0
LINE
  8
OUTLINE
  6
CONTINUOUS
 62
     3
 10
70.242247103762566
 20
-239.082166825766
 30
0.0
 11
70.462269804165771
 21
-239.082166825766
 31
0.0
  0
LINE
  8
OUTLINE
  6
CONTINUOUS
 62
     3
 10
70.462269804165771
 20
-239.082166825766
 30
0.0
 11
70.79230385477058
 21
-238.75213277516119
 31
0.0
  0
LINE
  8
OUTLINE
  6
CONTINUOUS
 62
     3
 10
70.79230385477058
 20
-238.75213277516119
 30
0.0
 11
70.79230385477058
 21
-238.5871157498585
 31
0.0
  0
LINE
  8
OUTLINE
  6
CONTINUOUS
 62
     3
 10
70.79230385477058
 20
-238.5871157498585
 30
0.0
 11
70.957320880072984
 21
-238.25708169925349
 31
0.0
  0
LINE
  8
OUTLINE
  6
CONTINUOUS
 62
     3
 10
79.978251596609425
 20
-172.96534535456581
 30
0.0
 11
79.978251596609425
 21
-170.49008997502841
 31
0.0
  0
LINE
  8
OUTLINE
  6
CONTINUOUS
 62
     3
 10
80.968353748424306
 20
-169.4999878232135
 30
0.0
 11
80.473302672517093
 21
-169.4999878232135
 31
0.0
  0
LINE
  8
OUTLINE
  6
CONTINUOUS
 62
     3
 10
80.473302672517093
 20
-169.4999878232135
 30
0.0
 11
80.253279972113887
 21
-169.4999878232135
 31
0.0
  0
LINE
  8
OUTLINE
  6
CONTINUOUS
 62
     3
 10
80.253279972113887
 20
-169.4999878232135
 30
0.0
 11
79.978251596609425
 21
-169.77501619871771
 31
0.0
  0
LINE
  8
OUTLINE
  6
CONTINUOUS
 62
     3
 10
79.978251596609425
 20
-169.77501619871771
 30
0.0
 11
79.978251596609425
 21
-170.05004457422189
 31
0.0
  0
LINE
  8
OUTLINE
  6
CONTINUOUS
 62
     3
 10
79.978251596609425
 20
-170.05004457422189
 30
0.0
 11
79.978251596609425
 21
-170.49008997502841
 31
0.0
  0
LINE
  8
OUTLINE
  6
CONTINUOUS
 62
     3
 10
-80.033257271710681
 20
-172.96534535456581
 30
0.0
 11
-80.033257271710681
 21
-170.49008997502841
 31
0.0
  0
LINE
  8
OUTLINE
  6
CONTINUOUS
 62
     3
 10
-80.033257271710681
 20
-172.96534535456581
 30
0.0
 11
-80.033257271710681
 21
-173.29537940517079
 31
0.0
  0
LINE
  8
OUTLINE
  6
CONTINUOUS
 62
     3
 10
112.4866055812013
 20
-170.05004457422189
 30
0.0
 11
112.4866055812013
 21
-166.5846870428696
 31
0.0
  0
LINE
  8
OUTLINE
  6
CONTINUOUS
 62
     3
 10
112.4866055812013
 20
-170.05004457422189
 30
0.0
 11
85.973870182600422
 21
-170.05004457422189
 31
0.0
  0
LINE
  8
OUTLINE
  6
CONTINUOUS
 62
     3
 10
85.973870182600422
 20
-171.0951524011376
 30
0.0
 11
83.993665878970205
 21
-171.0951524011376
 31
0.0
  0
LINE
  8
OUTLINE
  6
CONTINUOUS
 62
     3
 10
85.973870182600422
 20
-170.05004457422189
 30
0.0
 11
85.973870182600422
 21
-171.9752432027509
 31
0.0
  0
LINE
  8
OUTLINE
  6
CONTINUOUS
 62
     3
 10
83.993665878970205
 20
-169.05994242240709
 30
0.0
 11
83.993665878970205
 21
-171.0951524011376
 31
0.0
  0
LINE
  8
OUTLINE
  6
CONTINUOUS
 62
     3
 10
112.4866055812013
 20
-166.5846870428696
 30
0.0
 11
111.44149775428561
 21
-166.5846870428696
 31
0.0
  0
LINE
  8
OUTLINE
  6
CONTINUOUS
 62
     3
 10
-112.8166396318065
 20
-170.05004457422189
 30
0.0
 11
-112.8166396318065
 21
-166.5846870428696
 31
0.0
  0
LINE
  8
OUTLINE
  6
CONTINUOUS
 62
     3
 10
-112.8166396318065
 20
-170.05004457422189
 30
0.0
 11
-86.30390423320523
 21
-170.05004457422189
 31
0.0
  0
LINE
  8
OUTLINE
  6
CONTINUOUS
 62
     3
 10
-86.30390423320523
 20
-171.0951524011376
 30
0.0
 11
-83.993665878970205
 21
-171.0951524011376
 31
0.0
  0
LINE
  8
OUTLINE
  6
CONTINUOUS
 62
     3
 10
-86.30390423320523
 20
-170.05004457422189
 30
0.0
 11
-86.30390423320523
 21
-171.9752432027509
 31
0.0
  0
LINE
  8
OUTLINE
  6
CONTINUOUS
 62
     3
 10
-83.993665878970205
 20
-169.05994242240709
 30
0.0
 11
-83.993665878970205
 21
-171.0951524011376
 31
0.0
  0
LINE
  8
OUTLINE
  6
CONTINUOUS
 62
     3
 10
-112.8166396318065
 20
-166.5846870428696
 30
0.0
 11
-111.49650342938639
 21
-166.5846870428696
 31
0.0
  0
LINE
  8
OUTLINE
  6
CONTINUOUS
 62
     3
 10
100.2753457088165
 20
165.48457354085289
 30
0.0
 11
100.44036273411891
 21
165.48457354085289
 31
0.0
  0
LINE
  8
OUTLINE
  6
CONTINUOUS
 62
     3
 10
100.44036273411891
 20
165.48457354085289
 30
0.0
 11
100.9904194851274
 21
165.48457354085289
 31
0.0
  0
LINE
  8
OUTLINE
  6
CONTINUOUS
 62
     3
 10
100.2753457088165
 20
165.48457354085289
 30
0.0
 11
83.993665878970205
 21
165.48457354085289
 31
0.0
  0
LINE
  8
OUTLINE
  6
CONTINUOUS
 62
     3
 10
-101.04542516022821
 20
165.48457354085289
 30
0.0
 11
-100.7153911096234
 21
165.48457354085289
 31
0.0
  0
LINE
  8
OUTLINE
  6
CONTINUOUS
 62
     3
 10
-100.7153911096234
 20
165.48457354085289
 30
0.0
 11
-100.49536840921969
 21
165.48457354085289
 31
0.0
  0
LINE
  8
OUTLINE
  6
CONTINUOUS
 62
     3
 10
-100.49536840921969
 20
165.48457354085289
 30
0.0
 11
-83.993665878970205
 21
165.48457354085289
 31
0.0
  0
ENDSEC
  0
EOF
