  0
SECTION
  2
HEADER
  9
$ACADVER
  1
AC1009
  9
$DWGCODEPAGE
  3
dos932
  9
$INSBASE
 10
0.0
 20
0.0
 30
0.0
  9
$EXTMIN
 10
-324.48118426194742
 20
-277.49632599006509
 30
-0.0030516297567118
  9
$EXTMAX
 10
877.36817545649501
 20
572.2961505785297
 30
0.0007631257219032
  9
$LIMMIN
 10
-2970.0
 20
-2100.0
  9
$LIMMAX
 10
2970.0
 20
2100.0
  9
$ORTHOMODE
 70
     1
  9
$REGENMODE
 70
     1
  9
$FILLMODE
 70
     1
  9
$QTEXTMODE
 70
     0
  9
$MIRRTEXT
 70
     0
  9
$LTSCALE
 40
20.0
  9
$ATTMODE
 70
     1
  9
$TEXTSIZE
 40
64.0
  9
$TRACEWID
 40
0.05
  9
$TEXTSTYLE
  7
STANDARD
  9
$CLAYER
  8
SIZE
  9
$CELTYPE
  6
CONTINUOUS
  9
$CECOLOR
 62
     7
  9
$DIMSCALE
 40
1.0
  9
$DIMASZ
 40
12.0
  9
$DIMEXO
 40
20.0
  9
$DIMDLI
 40
200.0
  9
$DIMRND
 40
0.0
  9
$DIMDLE
 40
0.0
  9
$DIMEXE
 40
20.0
  9
$DIMTP
 40
0.0
  9
$DIMTM
 40
0.0
  9
$DIMTXT
 40
64.0
  9
$DIMCEN
 40
0.09
  9
$DIMTSZ
 40
0.0
  9
$DIMTOL
 70
     0
  9
$DIMLIM
 70
     0
  9
$DIMTIH
 70
     0
  9
$DIMTOH
 70
     0
  9
$DIMSE1
 70
     0
  9
$DIMSE2
 70
     0
  9
$DIMTAD
 70
     1
  9
$DIMZIN
 70
     8
  9
$DIMBLK
  1

  9
$DIMASO
 70
     1
  9
$DIMSHO
 70
     0
  9
$DIMPOST
  1

  9
$DIMAPOST
  1

  9
$DIMALT
 70
     0
  9
$DIMALTD
 70
     2
  9
$DIMALTF
 40
25.399999999999999
  9
$DIMLFAC
 40
1.0
  9
$DIMTOFL
 70
     1
  9
$DIMTVP
 40
0.0
  9
$DIMTIX
 70
     1
  9
$DIMSOXD
 70
     0
  9
$DIMSAH
 70
     0
  9
$DIMBLK1
  1

  9
$DIMBLK2
  1

  9
$DIMSTYLE
  2
STANDARD
  9
$DIMCLRD
 70
     7
  9
$DIMCLRE
 70
     7
  9
$DIMCLRT
 70
     7
  9
$DIMTFAC
 40
1.0
  9
$DIMGAP
 40
25.0
  9
$LUNITS
 70
     2
  9
$LUPREC
 70
     4
  9
$SKETCHINC
 40
0.1
  9
$FILLETRAD
 40
3.0
  9
$AUNITS
 70
     1
  9
$AUPREC
 70
     3
  9
$MENU
  1
ACAD
  9
$ELEVATION
 40
0.0
  9
$PELEVATION
 40
0.0
  9
$THICKNESS
 40
0.0
  9
$LIMCHECK
 70
     0
  9
$CHAMFERA
 40
0.0
  9
$CHAMFERB
 40
0.0
  9
$SKPOLY
 70
     0
  9
$TDCREATE
 40
2453019.62301037
  9
$TDUPDATE
 40
2459268.669105116
  9
$TDINDWG
 40
1.7191247801
  9
$TDUSRTIMER
 40
1.7191247801
  9
$USRTIMER
 70
     1
  9
$ANGBASE
 50
0.0
  9
$ANGDIR
 70
     0
  9
$PDMODE
 70
     3
  9
$PDSIZE
 40
-2.0
  9
$PLINEWID
 40
0.0
  9
$SPLFRAME
 70
     0
  9
$SPLINETYPE
 70
     6
  9
$SPLINESEGS
 70
     8
  9
$SURFTAB1
 70
     6
  9
$SURFTAB2
 70
     6
  9
$SURFTYPE
 70
     6
  9
$SURFU
 70
     6
  9
$SURFV
 70
     6
  9
$UCSNAME
  2

  9
$UCSORG
 10
0.0
 20
0.0
 30
0.0
  9
$UCSXDIR
 10
1.0
 20
0.0
 30
0.0
  9
$UCSYDIR
 10
0.0
 20
1.0
 30
0.0
  9
$PUCSNAME
  2

  9
$PUCSORG
 10
0.0
 20
0.0
 30
0.0
  9
$PUCSXDIR
 10
1.0
 20
0.0
 30
0.0
  9
$PUCSYDIR
 10
0.0
 20
1.0
 30
0.0
  9
$USERI1
 70
     0
  9
$USERI2
 70
     0
  9
$USERI3
 70
     0
  9
$USERI4
 70
     0
  9
$USERI5
 70
     0
  9
$USERR1
 40
20.0
  9
$USERR2
 40
0.0
  9
$USERR3
 40
0.0
  9
$USERR4
 40
0.0
  9
$USERR5
 40
0.0
  9
$WORLDVIEW
 70
     1
  9
$SHADEDGE
 70
     3
  9
$SHADEDIF
 70
    70
  9
$TILEMODE
 70
     1
  9
$MAXACTVP
 70
    48
  9
$PINSBASE
 10
0.0
 20
0.0
 30
0.0
  9
$PLIMCHECK
 70
     0
  9
$PEXTMIN
 10
-100000000000000000000.0
 20
-100000000000000000000.0
 30
-100000000000000000000.0
  9
$PEXTMAX
 10
100000000000000000000.0
 20
100000000000000000000.0
 30
100000000000000000000.0
  9
$PLIMMIN
 10
0.0
 20
0.0
  9
$PLIMMAX
 10
12.0
 20
9.0
  9
$UNITMODE
 70
     0
  9
$VISRETAIN
 70
     0
  9
$PLINEGEN
 70
     0
  9
$PSLTSCALE
 70
     0
  9
$TREEDEPTH
 70
  3020
  9
$ATTDIA
 70
     0
  9
$ATTREQ
 70
     1
  9
$BLIPMODE
 70
     1
  9
$COORDS
 70
     1
  9
$DRAGMODE
 70
     2
  9
$OSMODE
 70
     0
  9
$HANDLING
 70
     0
  9
$HANDSEED
  5
10143
  0
ENDSEC
  0
SECTION
  2
TABLES
  0
TABLE
  2
LTYPE
 70
     2
  0
LTYPE
  2
CONTINUOUS
 70
     0
  3
実線
 72
    65
 73
     0
 40
0.0
  0
LTYPE
  2
DASHDOT
 70
     0
  3
____ _ ____ _ ____ _ ____ _ ____ _ ____ _ ____
 72
    65
 73
     4
 40
5.5
 49
4.0
 49
-0.6
 49
0.3
 49
-0.6
  0
ENDTAB
  0
TABLE
  2
LAYER
 70
    12
  0
LAYER
  2
0
 70
     0
 62
     7
  6
CONTINUOUS
  0
LAYER
  2
BASIS
 70
     0
 62
     6
  6
DASHDOT
  0
LAYER
  2
OUTLINE
 70
     0
 62
     3
  6
CONTINUOUS
  0
LAYER
  2
DETAIL
 70
     0
 62
     5
  6
CONTINUOUS
  0
LAYER
  2
SIZE
 70
     0
 62
    30
  6
CONTINUOUS
  0
LAYER
  2
ARRANGE
 70
     0
 62
     1
  6
CONTINUOUS
  0
LAYER
  2
DEFPOINTS
 70
     0
 62
     7
  6
CONTINUOUS
  0
LAYER
  2
ETC
 70
     0
 62
    61
  6
CONTINUOUS
  0
LAYER
  2
FIX
 70
     0
 62
    11
  6
CONTINUOUS
  0
LAYER
  2
NOTE
 70
     0
 62
     4
  6
CONTINUOUS
  0
LAYER
  2
SERVICESPACE
 70
    64
 62
     2
  6
DASHDOT
  0
LAYER
  2
SYMBOLLINE
 70
    64
 62
    15
  6
CONTINUOUS
  0
ENDTAB
  0
TABLE
  2
STYLE
 70
     1
  0
STYLE
  2
STANDARD
 70
     0
 40
64.0
 41
0.9
 50
0.0
 71
     0
 42
64.0
  3
SIMPLEX.shx
  4
BIGFONT.shx
  0
ENDTAB
  0
TABLE
  2
APPID
 70
    19
  0
APPID
  2
ACAD
 70
     0
  0
APPID
  2
AUTOCAD_POSTSCRIPT_FIGURE
 70
     0
  0
APPID
  2
ACAD_EXEMPT_FROM_CAD_STANDARDS
 70
     0
  0
APPID
  2
ACAD_PSEXT
 70
     0
  0
APPID
  2
ACAUTHENVIRON
 70
     0
  0
APPID
  2
GENIUS_GENOENT_13
 70
     0
  0
APPID
  2
GENIUS_GENCFG_13
 70
     0
  0
APPID
  2
GENIUS_GENCFG0_13
 70
     0
  0
APPID
  2
GENIUS_GENCFG1_13
 70
     0
  0
APPID
  2
GENIUS_GENCFG2_13
 70
     0
  0
APPID
  2
GENIUS_GENCFG3_13
 70
     0
  0
APPID
  2
GENIUS_GENCFG4_13
 70
     0
  0
APPID
  2
GENIUS_GEVCFG0_13
 70
     0
  0
APPID
  2
CONTENTBLOCKICON
 70
     0
  0
APPID
  2
CONTENTBLOCKDESCRIPTION
 70
     0
  0
APPID
  2
ACAD_NAV_VCDISPLAY
 70
     0
  0
APPID
  2
ACAD_MLEADERVER
 70
     0
  0
APPID
  2
ACDBDYNAMICBLOCKTRUENAME
 70
     0
  0
APPID
  2
ACDBDYNAMICBLOCKGUID
 70
     0
  0
ENDTAB
  0
TABLE
  2
DIMSTYLE
 70
     1
  0
DIMSTYLE
  2
STANDARD
 70
     0
  3

  4

  5
_ORIGIN
  6

  7

 40
1.0
 41
12.0
 42
20.0
 43
200.0
 44
20.0
 45
0.0
 46
0.0
 47
0.0
 48
0.0
140
64.0
141
0.09
142
0.0
143
25.399999999999999
144
1.0
145
0.0
146
1.0
147
25.0
 71
     0
 72
     0
 73
     0
 74
     0
 75
     0
 76
     0
 77
     1
 78
     8
170
     0
171
     2
172
     1
173
     0
174
     1
175
     0
176
     7
177
     7
178
     7
  0
ENDTAB
  0
TABLE
  2
VIEW
 70
     1
  0
VIEW
  2
ALL
 70
     0
 40
4282.6198079999986
 10
0.0
 20
41.309904000000003
 41
5940.0
 11
0.0
 21
0.0
 31
1.0
 12
0.0
 22
0.0
 32
0.0
 42
50.0
 43
0.0
 44
0.0
 50
0.0
 71
     0
  0
ENDTAB
  0
TABLE
  2
UCS
 70
     0
  0
ENDTAB
  0
TABLE
  2
VPORT
 70
     1
  0
VPORT
  2
*ACTIVE
 70
     0
 10
0.0
 20
0.0
 11
1.0
 21
1.0
 12
276.44349559727368
 22
147.39991229423231
 13
0.0
 23
0.0
 14
1.0
 24
1.0
 15
0.0
 25
0.0
 16
0.0
 26
0.0
 36
1.0
 17
0.0
 27
0.0
 37
0.0
 40
766.59497912477104
 41
1.8851435705368289
 42
50.0
 43
0.0
 44
0.0
 50
0.0
 51
0.0
 71
     0
 72
  1000
 73
     1
 74
     3
 75
     0
 76
     0
 77
     0
 78
     0
  0
ENDTAB
  0
ENDSEC
  0
SECTION
  2
BLOCKS
  0
BLOCK
  8
0
  2
_ORIGIN
 70
     0
 10
0.0
 20
0.0
 30
0.0
  3
_ORIGIN
  1
_ORIGIN
  0
CIRCLE
  8
SIZE
  6
CONTINUOUS
 62
    30
 10
0.0
 20
0.0
 30
0.0
 40
0.5
  0
LINE
  8
SIZE
  6
CONTINUOUS
 62
    30
 10
0.0
 20
0.0
 30
0.0
 11
-1.0
 21
0.0
 31
0.0
  0
ENDBLK
  8
0
  0
ENDSEC
  0
SECTION
  2
ENTITIES
  0
TEXT
  8
ETC
  6
CONTINUOUS
 62
    61
 10
257.37294259826098
 20
508.20213602960331
 30
0.0
 40
64.0
  1
BFS-30SKA2_3
 41
0.9
  0
TEXT
  8
ETC
  6
CONTINUOUS
 62
    61
 10
253.18694859826061
 20
390.24682601477213
 30
0.0
 40
64.0
  1
産業扇
 41
0.9
  0
CIRCLE
  8
ARRANGE
  6
CONTINUOUS
 62
     1
 10
0.0
 20
0.0
 30
0.0
 40
40.0
  0
POINT
  8
ARRANGE
  6
CONTINUOUS
 62
     1
 10
0.0
 20
0.0
 30
0.0
  0
LINE
  8
BASIS
  6
DASHDOT
 62
     6
 10
0.0
 20
-277.23979222918501
 30
0.0
 11
0.0
 21
50.616410813757511
 31
0.0
  0
LINE
  8
BASIS
  6
DASHDOT
 62
     6
 10
-188.18418705763591
 20
-113.31169070771379
 30
0.0
 11
188.18418705763591
 21
-113.31169070771379
 31
0.0
  0
TEXT
  8
ETC
  6
CONTINUOUS
 62
    61
 10
303.88834684681672
 20
282.09805312854678
 30
0.0
 40
40.0
  1
BFS-30SKA2
 41
0.9
  0
LINE
  8
SIZE
  6
CONTINUOUS
 62
    30
 10
-111.54222712163519
 20
17.130613062654898
 30
0.0
 11
-111.54222712163519
 21
195.69783724151509
 31
0.0
  0
LINE
  8
SIZE
  6
CONTINUOUS
 62
    30
 10
111.3922375737351
 20
17.130613062654898
 30
0.0
 11
111.3922375737352
 21
195.69783724151509
 31
0.0
  0
LINE
  8
SIZE
  6
CONTINUOUS
 62
    30
 10
-99.542227121635221
 20
175.69783724151509
 30
0.0
 11
99.392237573735173
 21
175.69783724151509
 31
0.0
  0
CIRCLE
  8
SIZE
  6
CONTINUOUS
 62
    30
 10
-111.54222712163519
 20
175.69783724151509
 30
0.0
 40
6.0
  0
LINE
  8
SIZE
  6
CONTINUOUS
 62
    30
 10
-111.54222712163519
 20
175.69783724151509
 30
0.0
 11
-99.542227121635221
 21
175.69783724151509
 31
0.0
  0
CIRCLE
  8
SIZE
  6
CONTINUOUS
 62
    30
 10
111.3922375737352
 20
175.69783724151509
 30
0.0
 40
6.0
  0
LINE
  8
SIZE
  6
CONTINUOUS
 62
    30
 10
111.3922375737352
 20
175.69783724151509
 30
0.0
 11
99.392237573735201
 21
175.69783724151509
 31
0.0
  0
TEXT
  8
SIZE
  6
CONTINUOUS
 62
    30
 10
-74.132137631092874
 20
200.69783724151509
 30
0.0
 40
64.0
  1
223
 41
0.9
 72
     1
 11
-0.0749947739500385
 21
200.69783724151509
 31
0.0
  0
POINT
  8
DEFPOINTS
  6
CONTINUOUS
 62
    30
 10
-111.54222712163519
 20
-2.869386937345098
 30
0.0
  0
POINT
  8
DEFPOINTS
  6
CONTINUOUS
 62
    30
 10
111.3922375737351
 20
-2.869386937345098
 30
0.0
  0
POINT
  8
DEFPOINTS
  6
CONTINUOUS
 62
    30
 10
111.3922375737352
 20
175.69783724151509
 30
0.0
  0
CIRCLE
  8
FIX
  6
CONTINUOUS
 62
    11
 10
-149.5
 20
-102.8124223547136
 30
0.0
 40
5.0
  0
LINE
  8
NOTE
  6
CONTINUOUS
 62
     4
 10
-149.5
 20
-126.23580402123071
 30
0.0
 11
-149.5
 21
-79.589040688196491
 31
0.0
  0
LINE
  8
NOTE
  6
CONTINUOUS
 62
     4
 10
-177.87302281108381
 20
-102.8124223547136
 30
0.0
 11
-121.1269771889162
 21
-102.8124223547136
 31
0.0
  0
CIRCLE
  8
FIX
  6
CONTINUOUS
 62
    11
 10
149.5
 20
-102.8124223547136
 30
0.0
 40
5.0
  0
LINE
  8
NOTE
  6
CONTINUOUS
 62
     4
 10
149.5
 20
-126.23580402123071
 30
0.0
 11
149.5
 21
-79.589040688196491
 31
0.0
  0
LINE
  8
NOTE
  6
CONTINUOUS
 62
     4
 10
121.1269771889162
 20
-102.8124223547136
 30
0.0
 11
177.87302281108381
 21
-102.8124223547136
 31
0.0
  0
LINE
  8
SIZE
  6
CONTINUOUS
 62
    30
 10
-149.5
 20
-59.589040688196491
 30
0.0
 11
-149.5
 21
348.15371268537359
 31
0.0
  0
LINE
  8
SIZE
  6
CONTINUOUS
 62
    30
 10
149.5
 20
-59.589040688196491
 30
0.0
 11
149.5
 21
348.15371268537359
 31
0.0
  0
LINE
  8
SIZE
  6
CONTINUOUS
 62
    30
 10
-137.5
 20
328.15371268537359
 30
0.0
 11
137.5
 21
328.15371268537359
 31
0.0
  0
CIRCLE
  8
SIZE
  6
CONTINUOUS
 62
    30
 10
-149.5
 20
328.15371268537359
 30
0.0
 40
6.0
  0
LINE
  8
SIZE
  6
CONTINUOUS
 62
    30
 10
-149.5
 20
328.15371268537359
 30
0.0
 11
-137.5
 21
328.15371268537359
 31
0.0
  0
CIRCLE
  8
SIZE
  6
CONTINUOUS
 62
    30
 10
149.5
 20
328.15371268537359
 30
0.0
 40
6.0
  0
LINE
  8
SIZE
  6
CONTINUOUS
 62
    30
 10
149.5
 20
328.15371268537359
 30
0.0
 11
137.5
 21
328.15371268537359
 31
0.0
  0
TEXT
  8
SIZE
  6
CONTINUOUS
 62
    30
 10
-72.685714285714255
 20
353.15371268537359
 30
0.0
 40
64.0
  1
299
 41
0.9
 72
     1
 11
0.0000000000000284
 21
353.15371268537359
 31
0.0
  0
POINT
  8
DEFPOINTS
  6
CONTINUOUS
 62
    30
 10
-149.5
 20
-79.589040688196491
 30
0.0
  0
POINT
  8
DEFPOINTS
  6
CONTINUOUS
 62
    30
 10
149.5
 20
-79.589040688196491
 30
0.0
  0
POINT
  8
DEFPOINTS
  6
CONTINUOUS
 62
    30
 10
149.5
 20
328.15371268537359
 30
0.0
  0
LINE
  8
SIZE
  6
CONTINUOUS
 62
    30
 10
169.33819957910291
 20
-82.81242235471359
 30
0.0
 11
169.33819957910299
 21
487.28820385855317
 31
0.0
  0
LINE
  8
SIZE
  6
CONTINUOUS
 62
    30
 10
-169.38819609506959
 20
-82.81242235471359
 30
0.0
 11
-169.38819609506959
 21
487.28820385855317
 31
0.0
  0
LINE
  8
SIZE
  6
CONTINUOUS
 62
    30
 10
157.33819957910299
 20
467.28820385855317
 30
0.0
 11
-157.38819609506959
 21
467.28820385855317
 31
0.0
  0
CIRCLE
  8
SIZE
  6
CONTINUOUS
 62
    30
 10
169.33819957910299
 20
467.28820385855317
 30
0.0
 40
6.0
  0
LINE
  8
SIZE
  6
CONTINUOUS
 62
    30
 10
169.33819957910299
 20
467.28820385855317
 30
0.0
 11
157.33819957910299
 21
467.28820385855317
 31
0.0
  0
CIRCLE
  8
SIZE
  6
CONTINUOUS
 62
    30
 10
-169.38819609506959
 20
467.28820385855317
 30
0.0
 40
6.0
  0
LINE
  8
SIZE
  6
CONTINUOUS
 62
    30
 10
-169.38819609506959
 20
467.28820385855317
 30
0.0
 11
-157.38819609506959
 21
467.28820385855317
 31
0.0
  0
TEXT
  8
SIZE
  6
CONTINUOUS
 62
    30
 10
-72.710712543697596
 20
492.28820385855312
 30
0.0
 40
64.0
  1
339
 41
0.9
 72
     1
 11
-0.024998257983313
 21
492.28820385855312
 31
0.0
  0
POINT
  8
DEFPOINTS
  6
CONTINUOUS
 62
    30
 10
169.33819957910291
 20
-102.8124223547136
 30
0.0
  0
POINT
  8
DEFPOINTS
  6
CONTINUOUS
 62
    30
 10
-169.38819609506959
 20
-102.8124223547136
 30
0.0
  0
POINT
  8
DEFPOINTS
  6
CONTINUOUS
 62
    30
 10
-169.38819609506959
 20
467.28820385855317
 30
0.0
  0
LINE
  8
SIZE
  6
CONTINUOUS
 62
    30
 10
-120.44300057703509
 20
-0.169575075145076
 30
0.0
 11
-255.1757916487895
 21
-0.1695750751450191
 31
0.0
  0
LINE
  8
SIZE
  6
CONTINUOUS
 62
    30
 10
-120.44300057703509
 20
-226.40380982431569
 30
0.0
 11
-255.1757916487895
 21
-226.4038098243156
 31
0.0
  0
LINE
  8
SIZE
  6
CONTINUOUS
 62
    30
 10
-235.1757916487895
 20
-12.169575075145049
 30
0.0
 11
-235.1757916487895
 21
-214.4038098243156
 31
0.0
  0
CIRCLE
  8
SIZE
  6
CONTINUOUS
 62
    30
 10
-235.1757916487895
 20
-0.1695750751450475
 30
0.0
 40
6.0
  0
LINE
  8
SIZE
  6
CONTINUOUS
 62
    30
 10
-235.1757916487895
 20
-0.1695750751450475
 30
0.0
 11
-235.1757916487895
 21
-12.169575075145049
 31
0.0
  0
CIRCLE
  8
SIZE
  6
CONTINUOUS
 62
    30
 10
-235.1757916487895
 20
-226.4038098243156
 30
0.0
 40
6.0
  0
LINE
  8
SIZE
  6
CONTINUOUS
 62
    30
 10
-235.1757916487895
 20
-226.4038098243156
 30
0.0
 11
-235.1757916487895
 21
-214.4038098243156
 31
0.0
  0
TEXT
  8
SIZE
  6
CONTINUOUS
 62
    30
 10
-260.17579164878958
 20
-185.97240673544471
 30
0.0
 40
64.0
  1
226
 50
90.0
 41
0.9
 72
     1
 11
-260.17579164878958
 21
-113.2866924497304
 31
0.0
  0
POINT
  8
DEFPOINTS
  6
CONTINUOUS
 62
    30
 10
-100.44300057703509
 20
-0.169575075145076
 30
0.0
  0
POINT
  8
DEFPOINTS
  6
CONTINUOUS
 62
    30
 10
-100.44300057703509
 20
-226.40380982431569
 30
0.0
  0
POINT
  8
DEFPOINTS
  6
CONTINUOUS
 62
    30
 10
-235.1757916487895
 20
-226.4038098243156
 30
0.0
  0
TEXT
  8
NOTE
  6
CONTINUOUS
 62
     4
 10
-50.742857142857147
 20
-153.31169070771381
 30
0.0
 40
64.0
  1
RA
 41
0.9
 72
     1
 11
0.0
 21
-153.31169070771381
 31
0.0
  0
TEXT
  8
NOTE
  6
CONTINUOUS
 62
     4
 10
247.70149357132959
 20
149.9592960375567
 30
0.0
 40
64.0
  1
AH
 41
0.9
  0
LINE
  8
NOTE
  6
CONTINUOUS
 62
     4
 10
153.14194283300779
 20
-97.78042953962499
 30
0.0
 11
149.5
 21
-102.8124223547136
 31
0.0
  0
LINE
  8
NOTE
  6
CONTINUOUS
 62
     4
 10
149.5
 20
-102.8124223547136
 30
0.0
 11
150.13800929385889
 21
-96.633616367231085
 31
0.0
  0
LINE
  8
NOTE
  6
CONTINUOUS
 62
     4
 10
149.5
 20
-102.8124223547136
 30
0.0
 11
153.7799521268667
 21
-91.601623552142527
 31
0.0
  0
LINE
  8
NOTE
  6
CONTINUOUS
 62
     4
 10
153.7799521268667
 20
-91.601623552142499
 30
0.0
 11
237.25621007836301
 21
127.05398402140909
 31
0.0
  0
LINE
  8
NOTE
  6
CONTINUOUS
 62
     4
 10
237.25621007836301
 20
127.05398402140909
 30
0.0
 11
372.99906722122012
 21
127.05398402140909
 31
0.0
  0
LINE
  8
DETAIL
  6
CONTINUOUS
 62
     5
 10
-4.6754823835708521
 20
-199.28556089031389
 30
0.0
 11
-4.4554596831671924
 21
-197.8004076625916
 31
0.0
  0
LINE
  8
DETAIL
  6
CONTINUOUS
 62
     5
 10
-4.4554596831671924
 20
-197.8004076625916
 30
0.0
 11
-3.6853802317559712
 21
-196.48027146017171
 31
0.0
  0
LINE
  8
DETAIL
  6
CONTINUOUS
 62
     5
 10
-3.6853802317559712
 20
-196.48027146017171
 30
0.0
 11
-2.4752553795374301
 21
-195.27014660795339
 31
0.0
  0
LINE
  8
DETAIL
  6
CONTINUOUS
 62
     5
 10
-2.4752553795374301
 20
-195.27014660795339
 30
0.0
 11
-1.1551191771172851
 21
-194.77509553204601
 31
0.0
  0
LINE
  8
DETAIL
  6
CONTINUOUS
 62
     5
 10
-1.1551191771172851
 20
-194.77509553204601
 30
0.0
 11
0.3300340506048087
 21
-194.50006715654169
 31
0.0
  0
LINE
  8
DETAIL
  6
CONTINUOUS
 62
     5
 10
0.3300340506048087
 20
-194.50006715654169
 30
0.0
 11
1.815187278327357
 21
-194.99511823244919
 31
0.0
  0
LINE
  8
DETAIL
  6
CONTINUOUS
 62
     5
 10
1.815187278327357
 20
-194.99511823244919
 30
0.0
 11
3.3003405060499058
 21
-195.71019200876029
 31
0.0
  0
LINE
  8
DETAIL
  6
CONTINUOUS
 62
     5
 10
3.3003405060499058
 20
-195.71019200876029
 30
0.0
 11
4.1254256325623828
 21
-196.97532253607909
 31
0.0
  0
LINE
  8
DETAIL
  6
CONTINUOUS
 62
     5
 10
4.1254256325623828
 20
-196.97532253607909
 30
0.0
 11
4.6204767084695959
 21
-198.5154814389025
 31
0.0
  0
LINE
  8
DETAIL
  6
CONTINUOUS
 62
     5
 10
4.6204767084695959
 20
-198.5154814389025
 30
0.0
 11
4.6204767084695959
 21
-200.00063466662499
 31
0.0
  0
LINE
  8
DETAIL
  6
CONTINUOUS
 62
     5
 10
4.6204767084695959
 20
-200.00063466662499
 30
0.0
 11
4.1254256325623828
 21
-201.4857878943474
 31
0.0
  0
LINE
  8
DETAIL
  6
CONTINUOUS
 62
     5
 10
4.1254256325623828
 20
-201.4857878943474
 30
0.0
 11
3.3003405060499058
 21
-202.80592409676731
 31
0.0
  0
LINE
  8
DETAIL
  6
CONTINUOUS
 62
     5
 10
3.3003405060499058
 20
-202.80592409676731
 30
0.0
 11
1.815187278327357
 21
-203.46599219797741
 31
0.0
  0
LINE
  8
DETAIL
  6
CONTINUOUS
 62
     5
 10
1.815187278327357
 20
-203.46599219797741
 30
0.0
 11
0.3300340506048087
 21
-203.9610432738848
 31
0.0
  0
LINE
  8
DETAIL
  6
CONTINUOUS
 62
     5
 10
0.3300340506048087
 20
-203.9610432738848
 30
0.0
 11
-1.1551191771172851
 21
-203.68601489838051
 31
0.0
  0
LINE
  8
DETAIL
  6
CONTINUOUS
 62
     5
 10
-1.1551191771172851
 20
-203.68601489838051
 30
0.0
 11
-2.4752553795374301
 21
-203.19096382247309
 31
0.0
  0
LINE
  8
DETAIL
  6
CONTINUOUS
 62
     5
 10
-2.4752553795374301
 20
-203.19096382247309
 30
0.0
 11
-3.6853802317559712
 21
-202.31087302085979
 31
0.0
  0
LINE
  8
DETAIL
  6
CONTINUOUS
 62
     5
 10
-3.6853802317559712
 20
-202.31087302085979
 30
0.0
 11
-4.4554596831671924
 21
-200.71570844293569
 31
0.0
  0
LINE
  8
DETAIL
  6
CONTINUOUS
 62
     5
 10
-4.4554596831671924
 20
-200.71570844293569
 30
0.0
 11
-4.6754823835708521
 21
-199.28556089031389
 31
0.0
  0
LINE
  8
DETAIL
  6
CONTINUOUS
 62
     5
 10
-1.485153227722549
 20
-197.8004076625916
 30
0.0
 11
1.6501702530249529
 21
-200.71570844293569
 31
0.0
  0
LINE
  8
DETAIL
  6
CONTINUOUS
 62
     5
 10
1.6501702530249529
 20
-197.8004076625916
 30
0.0
 11
-1.485153227722549
 21
-200.71570844293569
 31
0.0
  0
LINE
  8
DETAIL
  6
CONTINUOUS
 62
     5
 10
-90.649352566170819
 20
-113.31169070771379
 30
0.0
 11
-90.374324190666783
 21
-111.7715318048906
 31
0.0
  0
LINE
  8
DETAIL
  6
CONTINUOUS
 62
     5
 10
-90.374324190666783
 20
-111.7715318048906
 30
0.0
 11
-89.659250414355938
 21
-110.5064012775715
 31
0.0
  0
LINE
  8
DETAIL
  6
CONTINUOUS
 62
     5
 10
-89.659250414355938
 20
-110.5064012775715
 30
0.0
 11
-88.39411988703705
 21
-109.296276425353
 31
0.0
  0
LINE
  8
DETAIL
  6
CONTINUOUS
 62
     5
 10
-88.39411988703705
 20
-109.296276425353
 30
0.0
 11
-87.183995034818508
 21
-108.6912139992439
 31
0.0
  0
LINE
  8
DETAIL
  6
CONTINUOUS
 62
     5
 10
-87.183995034818508
 20
-108.6912139992439
 30
0.0
 11
-85.643836131995613
 21
-108.47119129884049
 31
0.0
  0
LINE
  8
DETAIL
  6
CONTINUOUS
 62
     5
 10
-85.643836131995613
 20
-108.47119129884049
 30
0.0
 11
-84.158682904272609
 21
-109.02124804984901
 31
0.0
  0
LINE
  8
DETAIL
  6
CONTINUOUS
 62
     5
 10
-84.158682904272609
 20
-109.02124804984901
 30
0.0
 11
-82.673529676550515
 21
-109.68131615105899
 31
0.0
  0
LINE
  8
DETAIL
  6
CONTINUOUS
 62
     5
 10
-82.673529676550515
 20
-109.68131615105899
 30
0.0
 11
-81.958455900239642
 21
-111.001452353479
 31
0.0
  0
LINE
  8
DETAIL
  6
CONTINUOUS
 62
     5
 10
-81.958455900239642
 20
-111.001452353479
 30
0.0
 11
-81.463404824331974
 21
-112.4866055812015
 31
0.0
  0
LINE
  8
DETAIL
  6
CONTINUOUS
 62
     5
 10
-81.463404824331974
 20
-112.4866055812015
 30
0.0
 11
-81.463404824331974
 21
-113.97175880892379
 31
0.0
  0
LINE
  8
DETAIL
  6
CONTINUOUS
 62
     5
 10
-81.463404824331974
 20
-113.97175880892379
 30
0.0
 11
-81.958455900239642
 21
-115.5119177117469
 31
0.0
  0
LINE
  8
DETAIL
  6
CONTINUOUS
 62
     5
 10
-81.958455900239642
 20
-115.5119177117469
 30
0.0
 11
-82.673529676550515
 21
-116.7770482390663
 31
0.0
  0
LINE
  8
DETAIL
  6
CONTINUOUS
 62
     5
 10
-82.673529676550515
 20
-116.7770482390663
 30
0.0
 11
-84.158682904272609
 21
-117.49212201537721
 31
0.0
  0
LINE
  8
DETAIL
  6
CONTINUOUS
 62
     5
 10
-84.158682904272609
 20
-117.49212201537721
 30
0.0
 11
-85.643836131995613
 21
-117.9871730912846
 31
0.0
  0
LINE
  8
DETAIL
  6
CONTINUOUS
 62
     5
 10
-85.643836131995613
 20
-117.9871730912846
 30
0.0
 11
-87.183995034818508
 21
-117.822156065982
 31
0.0
  0
LINE
  8
DETAIL
  6
CONTINUOUS
 62
     5
 10
-87.183995034818508
 20
-117.822156065982
 30
0.0
 11
-88.39411988703705
 21
-117.2170936398729
 31
0.0
  0
LINE
  8
DETAIL
  6
CONTINUOUS
 62
     5
 10
-88.39411988703705
 20
-117.2170936398729
 30
0.0
 11
-89.659250414355938
 21
-116.171985812957
 31
0.0
  0
LINE
  8
DETAIL
  6
CONTINUOUS
 62
     5
 10
-89.659250414355938
 20
-116.171985812957
 30
0.0
 11
-90.374324190666783
 21
-114.6868325852345
 31
0.0
  0
LINE
  8
DETAIL
  6
CONTINUOUS
 62
     5
 10
-90.374324190666783
 20
-114.6868325852345
 30
0.0
 11
-90.649352566170819
 21
-113.31169070771379
 31
0.0
  0
LINE
  8
DETAIL
  6
CONTINUOUS
 62
     5
 10
-87.45902341032297
 20
-111.7715318048906
 30
0.0
 11
-84.488716954877873
 21
-114.6868325852345
 31
0.0
  0
LINE
  8
DETAIL
  6
CONTINUOUS
 62
     5
 10
-84.488716954877873
 20
-111.7715318048906
 30
0.0
 11
-87.45902341032297
 21
-114.6868325852345
 31
0.0
  0
LINE
  8
DETAIL
  6
CONTINUOUS
 62
     5
 10
-4.6754823835708521
 20
-27.22780917491195
 30
0.0
 11
-4.4554596831671924
 21
-25.79766162229021
 31
0.0
  0
LINE
  8
DETAIL
  6
CONTINUOUS
 62
     5
 10
-4.4554596831671924
 20
-25.79766162229021
 30
0.0
 11
-3.6853802317559712
 21
-24.47752541987029
 31
0.0
  0
LINE
  8
DETAIL
  6
CONTINUOUS
 62
     5
 10
-3.6853802317559712
 20
-24.47752541987029
 30
0.0
 11
-2.4752553795374301
 21
-23.322406242752781
 31
0.0
  0
LINE
  8
DETAIL
  6
CONTINUOUS
 62
     5
 10
-2.4752553795374301
 20
-23.322406242752781
 30
0.0
 11
-1.1551191771172851
 21
-22.82735516684534
 31
0.0
  0
LINE
  8
DETAIL
  6
CONTINUOUS
 62
     5
 10
-1.1551191771172851
 20
-22.82735516684534
 30
0.0
 11
0.3300340506048087
 21
-22.4973211162403
 31
0.0
  0
LINE
  8
DETAIL
  6
CONTINUOUS
 62
     5
 10
0.3300340506048087
 20
-22.4973211162403
 30
0.0
 11
1.815187278327357
 21
-22.992372192147968
 31
0.0
  0
LINE
  8
DETAIL
  6
CONTINUOUS
 62
     5
 10
1.815187278327357
 20
-22.992372192147968
 30
0.0
 11
3.3003405060499058
 21
-23.707445968458611
 31
0.0
  0
LINE
  8
DETAIL
  6
CONTINUOUS
 62
     5
 10
3.3003405060499058
 20
-23.707445968458611
 30
0.0
 11
4.1254256325623828
 21
-25.027582170878532
 31
0.0
  0
LINE
  8
DETAIL
  6
CONTINUOUS
 62
     5
 10
4.1254256325623828
 20
-25.027582170878532
 30
0.0
 11
4.6204767084695959
 21
-26.51273539860108
 31
0.0
  0
LINE
  8
DETAIL
  6
CONTINUOUS
 62
     5
 10
4.6204767084695959
 20
-26.51273539860108
 30
0.0
 11
4.6204767084695959
 21
-27.997888626323629
 31
0.0
  0
LINE
  8
DETAIL
  6
CONTINUOUS
 62
     5
 10
4.6204767084695959
 20
-27.997888626323629
 30
0.0
 11
4.1254256325623828
 21
-29.48304185404595
 31
0.0
  0
LINE
  8
DETAIL
  6
CONTINUOUS
 62
     5
 10
4.1254256325623828
 20
-29.48304185404595
 30
0.0
 11
3.3003405060499058
 21
-30.803178056466091
 31
0.0
  0
LINE
  8
DETAIL
  6
CONTINUOUS
 62
     5
 10
3.3003405060499058
 20
-30.803178056466091
 30
0.0
 11
1.815187278327357
 21
-31.518251832776741
 31
0.0
  0
LINE
  8
DETAIL
  6
CONTINUOUS
 62
     5
 10
1.815187278327357
 20
-31.518251832776741
 30
0.0
 11
0.3300340506048087
 21
-32.013302908684182
 31
0.0
  0
LINE
  8
DETAIL
  6
CONTINUOUS
 62
     5
 10
0.3300340506048087
 20
-32.013302908684182
 30
0.0
 11
-1.1551191771172851
 21
-31.793280208280979
 31
0.0
  0
LINE
  8
DETAIL
  6
CONTINUOUS
 62
     5
 10
-1.1551191771172851
 20
-31.793280208280979
 30
0.0
 11
-2.4752553795374301
 21
-31.188217782171709
 31
0.0
  0
LINE
  8
DETAIL
  6
CONTINUOUS
 62
     5
 10
-2.4752553795374301
 20
-31.188217782171709
 30
0.0
 11
-3.6853802317559712
 21
-30.308126980558431
 31
0.0
  0
LINE
  8
DETAIL
  6
CONTINUOUS
 62
     5
 10
-3.6853802317559712
 20
-30.308126980558431
 30
0.0
 11
-4.4554596831671924
 21
-28.712962402634279
 31
0.0
  0
LINE
  8
DETAIL
  6
CONTINUOUS
 62
     5
 10
-4.4554596831671924
 20
-28.712962402634279
 30
0.0
 11
-4.6754823835708521
 21
-27.22780917491195
 31
0.0
  0
LINE
  8
DETAIL
  6
CONTINUOUS
 62
     5
 10
-1.485153227722549
 20
-25.79766162229021
 30
0.0
 11
1.6501702530249529
 21
-28.712962402634279
 31
0.0
  0
LINE
  8
DETAIL
  6
CONTINUOUS
 62
     5
 10
1.6501702530249529
 20
-25.79766162229021
 30
0.0
 11
-1.485153227722549
 21
-28.712962402634279
 31
0.0
  0
LINE
  8
DETAIL
  6
CONTINUOUS
 62
     5
 10
81.298387799029555
 20
-113.31169070771379
 30
0.0
 11
81.628421849634364
 21
-111.7715318048906
 31
0.0
  0
LINE
  8
DETAIL
  6
CONTINUOUS
 62
     5
 10
81.628421849634364
 20
-111.7715318048906
 30
0.0
 11
82.343495625945252
 21
-110.5064012775715
 31
0.0
  0
LINE
  8
DETAIL
  6
CONTINUOUS
 62
     5
 10
82.343495625945252
 20
-110.5064012775715
 30
0.0
 11
83.498614803062537
 21
-109.296276425353
 31
0.0
  0
LINE
  8
DETAIL
  6
CONTINUOUS
 62
     5
 10
83.498614803062537
 20
-109.296276425353
 30
0.0
 11
84.818751005483136
 21
-108.6912139992439
 31
0.0
  0
LINE
  8
DETAIL
  6
CONTINUOUS
 62
     5
 10
84.818751005483136
 20
-108.6912139992439
 30
0.0
 11
86.303904233205245
 21
-108.47119129884049
 31
0.0
  0
LINE
  8
DETAIL
  6
CONTINUOUS
 62
     5
 10
86.303904233205245
 20
-108.47119129884049
 30
0.0
 11
87.844063136028581
 21
-109.02124804984901
 31
0.0
  0
LINE
  8
DETAIL
  6
CONTINUOUS
 62
     5
 10
87.844063136028581
 20
-109.02124804984901
 30
0.0
 11
89.329216363751144
 21
-109.68131615105899
 31
0.0
  0
LINE
  8
DETAIL
  6
CONTINUOUS
 62
     5
 10
89.329216363751144
 20
-109.68131615105899
 30
0.0
 11
90.09929581516279
 21
-111.001452353479
 31
0.0
  0
LINE
  8
DETAIL
  6
CONTINUOUS
 62
     5
 10
90.09929581516279
 20
-111.001452353479
 30
0.0
 11
90.539341215969202
 21
-112.4866055812015
 31
0.0
  0
LINE
  8
DETAIL
  6
CONTINUOUS
 62
     5
 10
90.539341215969202
 20
-112.4866055812015
 30
0.0
 11
90.539341215969202
 21
-113.97175880892379
 31
0.0
  0
LINE
  8
DETAIL
  6
CONTINUOUS
 62
     5
 10
90.539341215969202
 20
-113.97175880892379
 30
0.0
 11
90.09929581516279
 21
-115.5119177117469
 31
0.0
  0
LINE
  8
DETAIL
  6
CONTINUOUS
 62
     5
 10
90.09929581516279
 20
-115.5119177117469
 30
0.0
 11
89.329216363751144
 21
-116.7770482390663
 31
0.0
  0
LINE
  8
DETAIL
  6
CONTINUOUS
 62
     5
 10
89.329216363751144
 20
-116.7770482390663
 30
0.0
 11
87.844063136028581
 21
-117.49212201537721
 31
0.0
  0
LINE
  8
DETAIL
  6
CONTINUOUS
 62
     5
 10
87.844063136028581
 20
-117.49212201537721
 30
0.0
 11
86.303904233205245
 21
-117.9871730912846
 31
0.0
  0
LINE
  8
DETAIL
  6
CONTINUOUS
 62
     5
 10
86.303904233205245
 20
-117.9871730912846
 30
0.0
 11
84.818751005483136
 21
-117.822156065982
 31
0.0
  0
LINE
  8
DETAIL
  6
CONTINUOUS
 62
     5
 10
84.818751005483136
 20
-117.822156065982
 30
0.0
 11
83.498614803062537
 21
-117.2170936398729
 31
0.0
  0
LINE
  8
DETAIL
  6
CONTINUOUS
 62
     5
 10
83.498614803062537
 20
-117.2170936398729
 30
0.0
 11
82.343495625945252
 21
-116.171985812957
 31
0.0
  0
LINE
  8
DETAIL
  6
CONTINUOUS
 62
     5
 10
82.343495625945252
 20
-116.171985812957
 30
0.0
 11
81.628421849634364
 21
-114.6868325852345
 31
0.0
  0
LINE
  8
DETAIL
  6
CONTINUOUS
 62
     5
 10
81.628421849634364
 20
-114.6868325852345
 30
0.0
 11
81.298387799029555
 21
-113.31169070771379
 31
0.0
  0
LINE
  8
DETAIL
  6
CONTINUOUS
 62
     5
 10
84.543722629978674
 20
-111.7715318048906
 30
0.0
 11
87.624040435625375
 21
-114.6868325852345
 31
0.0
  0
LINE
  8
DETAIL
  6
CONTINUOUS
 62
     5
 10
87.624040435625375
 20
-111.7715318048906
 30
0.0
 11
84.543722629978674
 21
-114.6868325852345
 31
0.0
  0
LINE
  8
DETAIL
  6
CONTINUOUS
 62
     5
 10
110.5064012775715
 20
-1.485153227722549
 30
0.0
 11
110.5064012775715
 21
-0.8250851265124766
 31
0.0
  0
LINE
  8
DETAIL
  6
CONTINUOUS
 62
     5
 10
-110.34138425226909
 20
-1.485153227722549
 30
0.0
 11
-110.34138425226909
 21
-0.8250851265124766
 31
0.0
  0
LINE
  8
DETAIL
  6
CONTINUOUS
 62
     5
 10
100.49536840921969
 20
-226.5133700652259
 30
0.0
 11
-100.38535705901811
 21
-226.5133700652259
 31
0.0
  0
LINE
  8
DETAIL
  6
CONTINUOUS
 62
     5
 10
100.49536840921969
 20
-225.68828493871339
 30
0.0
 11
91.03439229187687
 21
-225.68828493871339
 31
0.0
  0
LINE
  8
DETAIL
  6
CONTINUOUS
 62
     5
 10
59.131100733394312
 20
-225.68828493871339
 30
0.0
 11
41.034233625220622
 21
-225.68828493871339
 31
0.0
  0
LINE
  8
DETAIL
  6
CONTINUOUS
 62
     5
 10
34.103518562516001
 20
-225.68828493871339
 30
0.0
 11
16.00665145434186
 21
-225.68828493871339
 31
0.0
  0
LINE
  8
DETAIL
  6
CONTINUOUS
 62
     5
 10
9.1309420667380436
 20
-225.68828493871339
 30
0.0
 11
-8.9659250414356393
 21
-225.68828493871339
 31
0.0
  0
LINE
  8
DETAIL
  6
CONTINUOUS
 62
     5
 10
-15.896640104140261
 20
-225.68828493871339
 30
0.0
 11
-33.993507212313943
 21
-225.68828493871339
 31
0.0
  0
LINE
  8
DETAIL
  6
CONTINUOUS
 62
     5
 10
-40.869216599918218
 20
-225.68828493871339
 30
0.0
 11
-58.966083708091901
 21
-225.68828493871339
 31
0.0
  0
LINE
  8
DETAIL
  6
CONTINUOUS
 62
     5
 10
-65.896798770796977
 20
-225.68828493871339
 30
0.0
 11
-83.993665878970205
 21
-225.68828493871339
 31
0.0
  0
LINE
  8
DETAIL
  6
CONTINUOUS
 62
     5
 10
-90.869375266574025
 20
-225.68828493871339
 30
0.0
 11
-100.38535705901811
 21
-225.68828493871339
 31
0.0
  0
LINE
  8
DETAIL
  6
CONTINUOUS
 62
     5
 10
110.5064012775715
 20
-0.8250851265124766
 30
0.0
 11
100.49536840921969
 21
-0.8250851265124766
 31
0.0
  0
LINE
  8
DETAIL
  6
CONTINUOUS
 62
     5
 10
110.5064012775715
 20
-2.8052894301424658
 30
0.0
 11
110.5064012775715
 21
-2.200227004033422
 31
0.0
  0
LINE
  8
DETAIL
  6
CONTINUOUS
 62
     5
 10
-110.34138425226909
 20
-2.8052894301424658
 30
0.0
 11
-110.34138425226909
 21
-2.200227004033422
 31
0.0
  0
LINE
  8
DETAIL
  6
CONTINUOUS
 62
     5
 10
-100.38535705901811
 20
-0.8250851265124766
 30
0.0
 11
-110.34138425226909
 21
-0.8250851265124766
 31
0.0
  0
LINE
  8
DETAIL
  6
CONTINUOUS
 62
     5
 10
-100.38535705901811
 20
-226.5133700652259
 30
0.0
 11
-100.38535705901811
 21
-225.68828493871339
 31
0.0
  0
LINE
  8
DETAIL
  6
CONTINUOUS
 62
     5
 10
100.49536840921969
 20
-225.68828493871339
 30
0.0
 11
100.49536840921969
 21
-226.5133700652259
 31
0.0
  0
LINE
  8
DETAIL
  6
CONTINUOUS
 62
     5
 10
-100.38535705901811
 20
0.0
 30
0.0
 11
-100.38535705901811
 21
-1.2101248522183139
 31
0.0
  0
LINE
  8
DETAIL
  6
CONTINUOUS
 62
     5
 10
100.49536840921969
 20
0.0
 30
0.0
 11
100.49536840921969
 21
-1.2101248522183139
 31
0.0
  0
LINE
  8
DETAIL
  6
CONTINUOUS
 62
     5
 10
-110.34138425226909
 20
-225.68828493871339
 30
0.0
 11
110.5064012775715
 21
-225.68828493871339
 31
0.0
  0
LINE
  8
DETAIL
  6
CONTINUOUS
 62
     5
 10
-100.38535705901811
 20
0.0
 30
0.0
 11
100.49536840921969
 21
0.0
 31
0.0
  0
LINE
  8
DETAIL
  6
CONTINUOUS
 62
     5
 10
-107.4810891470256
 20
-1.2101248522183139
 30
0.0
 11
-100.38535705901811
 21
-1.2101248522183139
 31
0.0
  0
LINE
  8
DETAIL
  6
CONTINUOUS
 62
     5
 10
100.49536840921969
 20
-1.2101248522183139
 30
0.0
 11
107.5911004972272
 21
-1.2101248522183139
 31
0.0
  0
LINE
  8
DETAIL
  6
CONTINUOUS
 62
     5
 10
-107.4810891470256
 20
-1.2101248522183139
 30
0.0
 11
-108.96624237474821
 21
-2.8052894301424658
 31
0.0
  0
LINE
  8
DETAIL
  6
CONTINUOUS
 62
     5
 10
109.1312594000506
 20
-2.8052894301424658
 30
0.0
 11
107.5911004972272
 21
-1.2101248522183139
 31
0.0
  0
LINE
  8
DETAIL
  6
CONTINUOUS
 62
     5
 10
110.5064012775715
 20
-223.70808063508341
 30
0.0
 11
110.5064012775715
 21
-225.68828493871339
 31
0.0
  0
LINE
  8
DETAIL
  6
CONTINUOUS
 62
     5
 10
-110.34138425226909
 20
-223.70808063508341
 30
0.0
 11
-110.34138425226909
 21
-225.68828493871339
 31
0.0
  0
LINE
  8
DETAIL
  6
CONTINUOUS
 62
     5
 10
-107.86612887273169
 20
-1.485153227722549
 30
0.0
 11
-110.34138425226909
 21
-1.485153227722549
 31
0.0
  0
LINE
  8
DETAIL
  6
CONTINUOUS
 62
     5
 10
-108.36117994863891
 20
-2.200227004033422
 30
0.0
 11
-110.34138425226909
 21
-2.200227004033422
 31
0.0
  0
LINE
  8
DETAIL
  6
CONTINUOUS
 62
     5
 10
-102.47557271285
 20
-151.9806803035988
 30
0.0
 11
-102.47557271285
 21
-218.7025642009078
 31
0.0
  0
LINE
  8
DETAIL
  6
CONTINUOUS
 62
     5
 10
-111.44149775428509
 20
-151.9806803035988
 30
0.0
 11
-111.44149775428509
 21
-223.70808063508341
 31
0.0
  0
LINE
  8
DETAIL
  6
CONTINUOUS
 62
     5
 10
-102.6405897381524
 20
-226.18333601462089
 30
0.0
 11
-102.6405897381524
 21
-225.68828493871339
 31
0.0
  0
LINE
  8
DETAIL
  6
CONTINUOUS
 62
     5
 10
-102.6405897381524
 20
-0.3300340506050361
 30
0.0
 11
-102.6405897381524
 21
-0.8250851265124766
 31
0.0
  0
LINE
  8
DETAIL
  6
CONTINUOUS
 62
     5
 10
-102.6405897381524
 20
-226.18333601462089
 30
0.0
 11
-110.34138425226909
 21
-226.18333601462089
 31
0.0
  0
LINE
  8
DETAIL
  6
CONTINUOUS
 62
     5
 10
-102.6405897381524
 20
-0.8250851265124766
 30
0.0
 11
-110.34138425226909
 21
-0.8250851265124766
 31
0.0
  0
LINE
  8
DETAIL
  6
CONTINUOUS
 62
     5
 10
-102.6405897381524
 20
-0.3300340506050361
 30
0.0
 11
-110.34138425226909
 21
-0.3300340506050361
 31
0.0
  0
LINE
  8
DETAIL
  6
CONTINUOUS
 62
     5
 10
-102.6405897381524
 20
-225.68828493871339
 30
0.0
 11
-110.34138425226909
 21
-225.68828493871339
 31
0.0
  0
LINE
  8
DETAIL
  6
CONTINUOUS
 62
     5
 10
-110.34138425226909
 20
-226.18333601462089
 30
0.0
 11
-110.89144100327709
 21
-226.18333601462089
 31
0.0
  0
LINE
  8
DETAIL
  6
CONTINUOUS
 62
     5
 10
-110.89144100327709
 20
-226.18333601462089
 30
0.0
 11
-111.1664693787816
 21
-225.96331331421769
 31
0.0
  0
LINE
  8
DETAIL
  6
CONTINUOUS
 62
     5
 10
-111.1664693787816
 20
-225.96331331421769
 30
0.0
 11
-111.44149775428509
 21
-225.68828493871339
 31
0.0
  0
LINE
  8
DETAIL
  6
CONTINUOUS
 62
     5
 10
-111.44149775428509
 20
-225.68828493871339
 30
0.0
 11
-111.44149775428509
 21
-225.46826223831019
 31
0.0
  0
LINE
  8
DETAIL
  6
CONTINUOUS
 62
     5
 10
-111.44149775428509
 20
-225.46826223831019
 30
0.0
 11
-111.44149775428509
 21
-225.30324521300781
 31
0.0
  0
LINE
  8
DETAIL
  6
CONTINUOUS
 62
     5
 10
-111.44149775428509
 20
-225.30324521300781
 30
0.0
 11
-111.1664693787816
 21
-224.80819413710009
 31
0.0
  0
LINE
  8
DETAIL
  6
CONTINUOUS
 62
     5
 10
-111.1664693787816
 20
-224.80819413710009
 30
0.0
 11
-111.1664693787816
 21
-224.47816008649531
 31
0.0
  0
LINE
  8
DETAIL
  6
CONTINUOUS
 62
     5
 10
-111.1664693787816
 20
-224.47816008649531
 30
0.0
 11
-110.6714183028739
 21
-224.47816008649531
 31
0.0
  0
LINE
  8
DETAIL
  6
CONTINUOUS
 62
     5
 10
-110.6714183028739
 20
-224.47816008649531
 30
0.0
 11
-110.34138425226909
 21
-224.31314306119251
 31
0.0
  0
LINE
  8
DETAIL
  6
CONTINUOUS
 62
     5
 10
-110.34138425226909
 20
-1.485153227722549
 30
0.0
 11
-110.34138425226909
 21
-0.8250851265124766
 31
0.0
  0
LINE
  8
DETAIL
  6
CONTINUOUS
 62
     5
 10
-110.34138425226909
 20
-2.200227004033422
 30
0.0
 11
-110.6714183028739
 21
-1.980204303629989
 31
0.0
  0
LINE
  8
DETAIL
  6
CONTINUOUS
 62
     5
 10
-110.6714183028739
 20
-1.980204303629989
 30
0.0
 11
-111.1664693787816
 21
-1.980204303629989
 31
0.0
  0
LINE
  8
DETAIL
  6
CONTINUOUS
 62
     5
 10
-111.1664693787816
 20
-1.980204303629989
 30
0.0
 11
-111.1664693787816
 21
-1.8151872783275851
 31
0.0
  0
LINE
  8
DETAIL
  6
CONTINUOUS
 62
     5
 10
-111.1664693787816
 20
-1.8151872783275851
 30
0.0
 11
-111.44149775428509
 21
-1.485153227722549
 31
0.0
  0
LINE
  8
DETAIL
  6
CONTINUOUS
 62
     5
 10
-111.44149775428509
 20
-1.485153227722549
 30
0.0
 11
-111.44149775428509
 21
-0.9901021518151083
 31
0.0
  0
LINE
  8
DETAIL
  6
CONTINUOUS
 62
     5
 10
-111.44149775428509
 20
-0.9901021518151083
 30
0.0
 11
-111.44149775428509
 21
-0.8250851265124766
 31
0.0
  0
LINE
  8
DETAIL
  6
CONTINUOUS
 62
     5
 10
-111.44149775428509
 20
-0.8250851265124766
 30
0.0
 11
-111.1664693787816
 21
-0.4950510759074405
 31
0.0
  0
LINE
  8
DETAIL
  6
CONTINUOUS
 62
     5
 10
-111.1664693787816
 20
-0.4950510759074405
 30
0.0
 11
-110.89144100327709
 21
-0.3300340506050361
 31
0.0
  0
LINE
  8
DETAIL
  6
CONTINUOUS
 62
     5
 10
-110.89144100327709
 20
-0.3300340506050361
 30
0.0
 11
-110.34138425226909
 21
-0.3300340506050361
 31
0.0
  0
LINE
  8
DETAIL
  6
CONTINUOUS
 62
     5
 10
-110.89144100327709
 20
-225.30324521300781
 30
0.0
 11
-110.6714183028739
 21
-224.97321116240281
 31
0.0
  0
LINE
  8
DETAIL
  6
CONTINUOUS
 62
     5
 10
-110.6714183028739
 20
-224.97321116240281
 30
0.0
 11
-110.34138425226909
 21
-224.97321116240281
 31
0.0
  0
LINE
  8
DETAIL
  6
CONTINUOUS
 62
     5
 10
-110.34138425226909
 20
-224.97321116240281
 30
0.0
 11
-110.17636722696621
 21
-224.97321116240281
 31
0.0
  0
LINE
  8
DETAIL
  6
CONTINUOUS
 62
     5
 10
-110.17636722696621
 20
-224.97321116240281
 30
0.0
 11
-110.17636722696621
 21
-225.30324521300781
 31
0.0
  0
LINE
  8
DETAIL
  6
CONTINUOUS
 62
     5
 10
-110.17636722696621
 20
-225.30324521300781
 30
0.0
 11
-109.956344526563
 21
-225.30324521300781
 31
0.0
  0
LINE
  8
DETAIL
  6
CONTINUOUS
 62
     5
 10
-109.956344526563
 20
-225.30324521300781
 30
0.0
 11
-109.956344526563
 21
-225.46826223831019
 31
0.0
  0
LINE
  8
DETAIL
  6
CONTINUOUS
 62
     5
 10
-109.956344526563
 20
-225.46826223831019
 30
0.0
 11
-110.17636722696621
 21
-225.46826223831019
 31
0.0
  0
LINE
  8
DETAIL
  6
CONTINUOUS
 62
     5
 10
-110.17636722696621
 20
-225.46826223831019
 30
0.0
 11
-110.17636722696621
 21
-225.68828493871339
 31
0.0
  0
LINE
  8
DETAIL
  6
CONTINUOUS
 62
     5
 10
-110.17636722696621
 20
-225.68828493871339
 30
0.0
 11
-110.34138425226909
 21
-225.68828493871339
 31
0.0
  0
LINE
  8
DETAIL
  6
CONTINUOUS
 62
     5
 10
-110.34138425226909
 20
-225.68828493871339
 30
0.0
 11
-110.6714183028739
 21
-225.68828493871339
 31
0.0
  0
LINE
  8
DETAIL
  6
CONTINUOUS
 62
     5
 10
-110.6714183028739
 20
-225.68828493871339
 30
0.0
 11
-110.6714183028739
 21
-225.46826223831019
 31
0.0
  0
LINE
  8
DETAIL
  6
CONTINUOUS
 62
     5
 10
-110.6714183028739
 20
-225.46826223831019
 30
0.0
 11
-110.89144100327709
 21
-225.46826223831019
 31
0.0
  0
LINE
  8
DETAIL
  6
CONTINUOUS
 62
     5
 10
-110.89144100327709
 20
-225.46826223831019
 30
0.0
 11
-110.89144100327709
 21
-225.30324521300781
 31
0.0
  0
LINE
  8
DETAIL
  6
CONTINUOUS
 62
     5
 10
-107.4810891470256
 20
-2.8052894301424658
 30
0.0
 11
-105.8859245691015
 21
-3.025312130545899
 31
0.0
  0
LINE
  8
DETAIL
  6
CONTINUOUS
 62
     5
 10
-105.8859245691015
 20
-3.025312130545899
 30
0.0
 11
-104.6757997168834
 21
-3.6853802317557438
 31
0.0
  0
LINE
  8
DETAIL
  6
CONTINUOUS
 62
     5
 10
-104.6757997168834
 20
-3.6853802317557438
 30
0.0
 11
-103.3556635144632
 21
-4.7304880586716536
 31
0.0
  0
LINE
  8
DETAIL
  6
CONTINUOUS
 62
     5
 10
-103.3556635144632
 20
-4.7304880586716536
 30
0.0
 11
-102.6405897381524
 21
-6.215641286393975
 31
0.0
  0
LINE
  8
DETAIL
  6
CONTINUOUS
 62
     5
 10
-102.6405897381524
 20
-6.215641286393975
 30
0.0
 11
-102.47557271285
 21
-7.810805864318354
 31
0.0
  0
LINE
  8
DETAIL
  6
CONTINUOUS
 62
     5
 10
-102.47557271285
 20
-218.7025642009078
 30
0.0
 11
-102.6405897381524
 21
-220.2977287788319
 31
0.0
  0
LINE
  8
DETAIL
  6
CONTINUOUS
 62
     5
 10
-102.6405897381524
 20
-220.2977287788319
 30
0.0
 11
-103.3556635144632
 21
-221.7828820065541
 31
0.0
  0
LINE
  8
DETAIL
  6
CONTINUOUS
 62
     5
 10
-103.3556635144632
 20
-221.7828820065541
 30
0.0
 11
-104.6757997168834
 21
-222.77298415836941
 31
0.0
  0
LINE
  8
DETAIL
  6
CONTINUOUS
 62
     5
 10
-104.6757997168834
 20
-222.77298415836941
 30
0.0
 11
-105.8859245691015
 21
-223.48805793468
 31
0.0
  0
LINE
  8
DETAIL
  6
CONTINUOUS
 62
     5
 10
-105.8859245691015
 20
-223.48805793468
 30
0.0
 11
-107.4810891470256
 21
-223.70808063508341
 31
0.0
  0
LINE
  8
DETAIL
  6
CONTINUOUS
 62
     5
 10
-111.44149775428509
 20
-223.70808063508341
 30
0.0
 11
-107.4810891470256
 21
-223.70808063508341
 31
0.0
  0
LINE
  8
DETAIL
  6
CONTINUOUS
 62
     5
 10
-111.44149775428509
 20
-2.8052894301424658
 30
0.0
 11
-111.44149775428509
 21
-102.805606763455
 31
0.0
  0
LINE
  8
DETAIL
  6
CONTINUOUS
 62
     5
 10
-102.47557271285
 20
-7.810805864318354
 30
0.0
 11
-102.47557271285
 21
-106.8210210458155
 31
0.0
  0
LINE
  8
DETAIL
  6
CONTINUOUS
 62
     5
 10
-107.4810891470256
 20
-2.8052894301424658
 30
0.0
 11
-111.44149775428509
 21
-2.8052894301424658
 31
0.0
  0
LINE
  8
DETAIL
  6
CONTINUOUS
 62
     5
 10
102.6405897381524
 20
-210.0116675349764
 30
0.0
 11
102.6405897381524
 21
-151.9806803035988
 31
0.0
  0
LINE
  8
DETAIL
  6
CONTINUOUS
 62
     5
 10
111.606514779588
 20
-218.7025642009078
 30
0.0
 11
111.606514779588
 21
-151.9806803035988
 31
0.0
  0
LINE
  8
DETAIL
  6
CONTINUOUS
 62
     5
 10
102.6405897381524
 20
-106.8210210458155
 30
0.0
 11
102.6405897381524
 21
-7.4807718137133179
 31
0.0
  0
LINE
  8
DETAIL
  6
CONTINUOUS
 62
     5
 10
111.606514779588
 20
-102.805606763455
 30
0.0
 11
111.606514779588
 21
-2.8052894301424658
 31
0.0
  0
LINE
  8
DETAIL
  6
CONTINUOUS
 62
     5
 10
102.8056067634548
 20
-225.68828493871339
 30
0.0
 11
102.8056067634548
 21
-226.18333601462089
 31
0.0
  0
LINE
  8
DETAIL
  6
CONTINUOUS
 62
     5
 10
110.5064012775715
 20
-225.68828493871339
 30
0.0
 11
102.8056067634548
 21
-225.68828493871339
 31
0.0
  0
LINE
  8
DETAIL
  6
CONTINUOUS
 62
     5
 10
110.5064012775715
 20
-224.97321116240281
 30
0.0
 11
110.5064012775715
 21
-225.68828493871339
 31
0.0
  0
LINE
  8
DETAIL
  6
CONTINUOUS
 62
     5
 10
110.5064012775715
 20
-224.31314306119251
 30
0.0
 11
110.83643532817629
 21
-224.47816008649531
 31
0.0
  0
LINE
  8
DETAIL
  6
CONTINUOUS
 62
     5
 10
110.83643532817629
 20
-224.47816008649531
 30
0.0
 11
111.0014523534787
 21
-224.47816008649531
 31
0.0
  0
LINE
  8
DETAIL
  6
CONTINUOUS
 62
     5
 10
111.0014523534787
 20
-224.47816008649531
 30
0.0
 11
111.331486404084
 21
-224.80819413710009
 31
0.0
  0
LINE
  8
DETAIL
  6
CONTINUOUS
 62
     5
 10
111.331486404084
 20
-224.80819413710009
 30
0.0
 11
111.606514779588
 21
-224.97321116240281
 31
0.0
  0
LINE
  8
DETAIL
  6
CONTINUOUS
 62
     5
 10
111.606514779588
 20
-224.97321116240281
 30
0.0
 11
111.606514779588
 21
-225.46826223831019
 31
0.0
  0
LINE
  8
DETAIL
  6
CONTINUOUS
 62
     5
 10
111.606514779588
 20
-225.46826223831019
 30
0.0
 11
111.606514779588
 21
-225.68828493871339
 31
0.0
  0
LINE
  8
DETAIL
  6
CONTINUOUS
 62
     5
 10
111.606514779588
 20
-225.68828493871339
 30
0.0
 11
111.331486404084
 21
-225.96331331421769
 31
0.0
  0
LINE
  8
DETAIL
  6
CONTINUOUS
 62
     5
 10
111.331486404084
 20
-225.96331331421769
 30
0.0
 11
111.0014523534787
 21
-226.18333601462089
 31
0.0
  0
LINE
  8
DETAIL
  6
CONTINUOUS
 62
     5
 10
111.0014523534787
 20
-226.18333601462089
 30
0.0
 11
110.83643532817629
 21
-226.18333601462089
 31
0.0
  0
LINE
  8
DETAIL
  6
CONTINUOUS
 62
     5
 10
110.83643532817629
 20
-226.18333601462089
 30
0.0
 11
110.5064012775715
 21
-226.18333601462089
 31
0.0
  0
LINE
  8
DETAIL
  6
CONTINUOUS
 62
     5
 10
110.5064012775715
 20
-226.18333601462089
 30
0.0
 11
102.8056067634548
 21
-226.18333601462089
 31
0.0
  0
LINE
  8
DETAIL
  6
CONTINUOUS
 62
     5
 10
102.8056067634548
 20
-0.8250851265124766
 30
0.0
 11
102.8056067634548
 21
-0.3300340506050361
 31
0.0
  0
LINE
  8
DETAIL
  6
CONTINUOUS
 62
     5
 10
110.5064012775715
 20
-1.485153227722549
 30
0.0
 11
108.0311458980341
 21
-1.485153227722549
 31
0.0
  0
LINE
  8
DETAIL
  6
CONTINUOUS
 62
     5
 10
110.5064012775715
 20
-2.200227004033422
 30
0.0
 11
108.5261969739413
 21
-2.200227004033422
 31
0.0
  0
LINE
  8
DETAIL
  6
CONTINUOUS
 62
     5
 10
110.5064012775715
 20
-0.8250851265124766
 30
0.0
 11
102.8056067634548
 21
-0.8250851265124766
 31
0.0
  0
LINE
  8
DETAIL
  6
CONTINUOUS
 62
     5
 10
110.5064012775715
 20
-0.3300340506050361
 30
0.0
 11
102.8056067634548
 21
-0.3300340506050361
 31
0.0
  0
LINE
  8
DETAIL
  6
CONTINUOUS
 62
     5
 10
110.5064012775715
 20
-0.8250851265124766
 30
0.0
 11
111.0014523534787
 21
-1.2101248522183139
 31
0.0
  0
LINE
  8
DETAIL
  6
CONTINUOUS
 62
     5
 10
111.0014523534787
 20
-1.2101248522183139
 30
0.0
 11
110.5064012775715
 21
-1.485153227722549
 31
0.0
  0
LINE
  8
DETAIL
  6
CONTINUOUS
 62
     5
 10
111.606514779588
 20
-1.2101248522183139
 30
0.0
 11
111.606514779588
 21
-1.485153227722549
 31
0.0
  0
LINE
  8
DETAIL
  6
CONTINUOUS
 62
     5
 10
111.606514779588
 20
-1.485153227722549
 30
0.0
 11
111.331486404084
 21
-1.8151872783275851
 31
0.0
  0
LINE
  8
DETAIL
  6
CONTINUOUS
 62
     5
 10
111.331486404084
 20
-1.8151872783275851
 30
0.0
 11
111.0014523534787
 21
-1.980204303629989
 31
0.0
  0
LINE
  8
DETAIL
  6
CONTINUOUS
 62
     5
 10
111.0014523534787
 20
-1.980204303629989
 30
0.0
 11
110.83643532817629
 21
-1.980204303629989
 31
0.0
  0
LINE
  8
DETAIL
  6
CONTINUOUS
 62
     5
 10
110.83643532817629
 20
-1.980204303629989
 30
0.0
 11
110.5064012775715
 21
-2.200227004033422
 31
0.0
  0
LINE
  8
DETAIL
  6
CONTINUOUS
 62
     5
 10
110.5064012775715
 20
-0.3300340506050361
 30
0.0
 11
110.83643532817629
 21
-0.3300340506050361
 31
0.0
  0
LINE
  8
DETAIL
  6
CONTINUOUS
 62
     5
 10
110.83643532817629
 20
-0.3300340506050361
 30
0.0
 11
111.0014523534787
 21
-0.3300340506050361
 31
0.0
  0
LINE
  8
DETAIL
  6
CONTINUOUS
 62
     5
 10
111.0014523534787
 20
-0.3300340506050361
 30
0.0
 11
111.331486404084
 21
-0.4950510759074405
 31
0.0
  0
LINE
  8
DETAIL
  6
CONTINUOUS
 62
     5
 10
111.331486404084
 20
-0.4950510759074405
 30
0.0
 11
111.606514779588
 21
-0.8250851265124766
 31
0.0
  0
LINE
  8
DETAIL
  6
CONTINUOUS
 62
     5
 10
111.606514779588
 20
-0.8250851265124766
 30
0.0
 11
111.606514779588
 21
-1.2101248522183139
 31
0.0
  0
LINE
  8
DETAIL
  6
CONTINUOUS
 62
     5
 10
102.6405897381524
 20
-218.97759257641201
 30
0.0
 11
102.6405897381524
 21
-210.0116675349764
 31
0.0
  0
LINE
  8
DETAIL
  6
CONTINUOUS
 62
     5
 10
111.606514779588
 20
-2.8052894301424658
 30
0.0
 11
107.5911004972272
 21
-2.8052894301424658
 31
0.0
  0
LINE
  8
DETAIL
  6
CONTINUOUS
 62
     5
 10
102.6405897381524
 20
-7.810805864318354
 30
0.0
 11
102.8056067634548
 21
-6.215641286393975
 31
0.0
  0
LINE
  8
DETAIL
  6
CONTINUOUS
 62
     5
 10
102.8056067634548
 20
-6.215641286393975
 30
0.0
 11
103.52068053976561
 21
-4.7304880586716536
 31
0.0
  0
LINE
  8
DETAIL
  6
CONTINUOUS
 62
     5
 10
103.52068053976561
 20
-4.7304880586716536
 30
0.0
 11
104.84081674218579
 21
-3.6853802317557438
 31
0.0
  0
LINE
  8
DETAIL
  6
CONTINUOUS
 62
     5
 10
104.84081674218579
 20
-3.6853802317557438
 30
0.0
 11
105.99593591930309
 21
-3.025312130545899
 31
0.0
  0
LINE
  8
DETAIL
  6
CONTINUOUS
 62
     5
 10
105.99593591930309
 20
-3.025312130545899
 30
0.0
 11
107.5911004972272
 21
-2.8052894301424658
 31
0.0
  0
LINE
  8
DETAIL
  6
CONTINUOUS
 62
     5
 10
111.606514779588
 20
-223.70808063508341
 30
0.0
 11
107.5911004972272
 21
-223.70808063508341
 31
0.0
  0
LINE
  8
DETAIL
  6
CONTINUOUS
 62
     5
 10
107.5911004972272
 20
-223.70808063508341
 30
0.0
 11
105.99593591930309
 21
-223.48805793468
 31
0.0
  0
LINE
  8
DETAIL
  6
CONTINUOUS
 62
     5
 10
105.99593591930309
 20
-223.48805793468
 30
0.0
 11
104.84081674218579
 21
-222.77298415836941
 31
0.0
  0
LINE
  8
DETAIL
  6
CONTINUOUS
 62
     5
 10
104.84081674218579
 20
-222.77298415836941
 30
0.0
 11
103.52068053976561
 21
-221.7828820065541
 31
0.0
  0
LINE
  8
DETAIL
  6
CONTINUOUS
 62
     5
 10
103.52068053976561
 20
-221.7828820065541
 30
0.0
 11
102.8056067634548
 21
-220.2977287788319
 31
0.0
  0
LINE
  8
DETAIL
  6
CONTINUOUS
 62
     5
 10
102.8056067634548
 20
-220.2977287788319
 30
0.0
 11
102.6405897381524
 21
-218.7025642009078
 31
0.0
  0
LINE
  8
DETAIL
  6
CONTINUOUS
 62
     5
 10
111.606514779588
 20
-223.70808063508341
 30
0.0
 11
111.606514779588
 21
-218.7025642009078
 31
0.0
  0
LINE
  8
DETAIL
  6
CONTINUOUS
 62
     5
 10
111.0014523534787
 20
-224.31314306119251
 30
0.0
 11
110.5064012775715
 21
-224.31314306119251
 31
0.0
  0
LINE
  8
DETAIL
  6
CONTINUOUS
 62
     5
 10
112.3215885558989
 20
-222.9930068587725
 30
0.0
 11
111.606514779588
 21
-222.9930068587725
 31
0.0
  0
LINE
  8
DETAIL
  6
CONTINUOUS
 62
     5
 10
111.0014523534787
 20
-2.200227004033422
 30
0.0
 11
110.5064012775715
 21
-2.200227004033422
 31
0.0
  0
LINE
  8
DETAIL
  6
CONTINUOUS
 62
     5
 10
112.3215885558989
 20
-3.520363206453339
 30
0.0
 11
111.606514779588
 21
-3.520363206453339
 31
0.0
  0
LINE
  8
DETAIL
  6
CONTINUOUS
 62
     5
 10
111.331486404084
 20
0.0
 30
0.0
 11
103.52068053976561
 21
0.9901021518148809
 31
0.0
  0
LINE
  8
DETAIL
  6
CONTINUOUS
 62
     5
 10
111.331486404084
 20
0.0
 30
0.0
 11
111.606514779588
 21
0.0
 31
0.0
  0
LINE
  8
DETAIL
  6
CONTINUOUS
 62
     5
 10
111.606514779588
 20
0.0
 30
0.0
 11
111.9915545052941
 21
-0.3300340506050361
 31
0.0
  0
LINE
  8
DETAIL
  6
CONTINUOUS
 62
     5
 10
111.9915545052941
 20
-0.3300340506050361
 30
0.0
 11
112.3215885558989
 21
-0.8250851265124766
 31
0.0
  0
LINE
  8
DETAIL
  6
CONTINUOUS
 62
     5
 10
112.3215885558989
 20
-0.8250851265124766
 30
0.0
 11
112.3215885558989
 21
-0.9901021518151083
 31
0.0
  0
LINE
  8
DETAIL
  6
CONTINUOUS
 62
     5
 10
112.3215885558989
 20
-0.9901021518151083
 30
0.0
 11
112.3215885558989
 21
-1.485153227722549
 31
0.0
  0
LINE
  8
DETAIL
  6
CONTINUOUS
 62
     5
 10
112.3215885558989
 20
-1.485153227722549
 30
0.0
 11
111.9915545052941
 21
-1.8151872783275851
 31
0.0
  0
LINE
  8
DETAIL
  6
CONTINUOUS
 62
     5
 10
111.9915545052941
 20
-1.8151872783275851
 30
0.0
 11
111.8265374799912
 21
-1.980204303629989
 31
0.0
  0
LINE
  8
DETAIL
  6
CONTINUOUS
 62
     5
 10
111.8265374799912
 20
-1.980204303629989
 30
0.0
 11
111.606514779588
 21
-2.200227004033422
 31
0.0
  0
LINE
  8
DETAIL
  6
CONTINUOUS
 62
     5
 10
111.606514779588
 20
-2.200227004033422
 30
0.0
 11
111.0014523534787
 21
-2.200227004033422
 31
0.0
  0
LINE
  8
DETAIL
  6
CONTINUOUS
 62
     5
 10
103.52068053976561
 20
0.2750283755042346
 30
0.0
 11
103.52068053976561
 21
0.9901021518148809
 31
0.0
  0
LINE
  8
DETAIL
  6
CONTINUOUS
 62
     5
 10
103.52068053976561
 20
-226.78839844073011
 30
0.0
 11
103.52068053976561
 21
-227.50347221704081
 31
0.0
  0
LINE
  8
DETAIL
  6
CONTINUOUS
 62
     5
 10
111.331486404084
 20
-226.5133700652259
 30
0.0
 11
103.52068053976561
 21
-227.50347221704081
 31
0.0
  0
LINE
  8
DETAIL
  6
CONTINUOUS
 62
     5
 10
106.3259699699079
 20
-226.18333601462089
 30
0.0
 11
103.52068053976561
 21
-226.78839844073011
 31
0.0
  0
LINE
  8
DETAIL
  6
CONTINUOUS
 62
     5
 10
112.3215885558989
 20
-182.01377890865271
 30
0.0
 11
112.3215885558989
 21
-222.9930068587725
 31
0.0
  0
LINE
  8
DETAIL
  6
CONTINUOUS
 62
     5
 10
112.3215885558989
 20
-83.003563727155338
 30
0.0
 11
112.3215885558989
 21
-3.520363206453339
 31
0.0
  0
LINE
  8
DETAIL
  6
CONTINUOUS
 62
     5
 10
106.3259699699079
 20
-0.3300340506050361
 30
0.0
 11
103.52068053976561
 21
0.2750283755042346
 31
0.0
  0
LINE
  8
DETAIL
  6
CONTINUOUS
 62
     5
 10
111.0014523534787
 20
-224.31314306119251
 30
0.0
 11
111.606514779588
 21
-224.31314306119251
 31
0.0
  0
LINE
  8
DETAIL
  6
CONTINUOUS
 62
     5
 10
111.606514779588
 20
-224.31314306119251
 30
0.0
 11
111.8265374799912
 21
-224.47816008649531
 31
0.0
  0
LINE
  8
DETAIL
  6
CONTINUOUS
 62
     5
 10
111.8265374799912
 20
-224.47816008649531
 30
0.0
 11
111.9915545052941
 21
-224.80819413710009
 31
0.0
  0
LINE
  8
DETAIL
  6
CONTINUOUS
 62
     5
 10
111.9915545052941
 20
-224.80819413710009
 30
0.0
 11
112.3215885558989
 21
-224.97321116240281
 31
0.0
  0
LINE
  8
DETAIL
  6
CONTINUOUS
 62
     5
 10
112.3215885558989
 20
-224.97321116240281
 30
0.0
 11
112.3215885558989
 21
-225.46826223831019
 31
0.0
  0
LINE
  8
DETAIL
  6
CONTINUOUS
 62
     5
 10
112.3215885558989
 20
-225.46826223831019
 30
0.0
 11
112.3215885558989
 21
-225.96331331421769
 31
0.0
  0
LINE
  8
DETAIL
  6
CONTINUOUS
 62
     5
 10
112.3215885558989
 20
-225.96331331421769
 30
0.0
 11
111.9915545052941
 21
-226.18333601462089
 31
0.0
  0
LINE
  8
DETAIL
  6
CONTINUOUS
 62
     5
 10
111.9915545052941
 20
-226.18333601462089
 30
0.0
 11
111.606514779588
 21
-226.5133700652259
 31
0.0
  0
LINE
  8
DETAIL
  6
CONTINUOUS
 62
     5
 10
111.606514779588
 20
-226.5133700652259
 30
0.0
 11
111.331486404084
 21
-226.5133700652259
 31
0.0
  0
LINE
  8
DETAIL
  6
CONTINUOUS
 62
     5
 10
38.338955545279987
 20
-194.00501608063431
 30
0.0
 11
36.63377961715377
 21
-195.4901693083566
 31
0.0
  0
LINE
  8
DETAIL
  6
CONTINUOUS
 62
     5
 10
82.343495625945252
 20
-149.67044194936349
 30
0.0
 11
80.803336723122342
 21
-151.48562922769131
 31
0.0
  0
LINE
  8
DETAIL
  6
CONTINUOUS
 62
     5
 10
-36.468762591851373
 20
-31.023200756869301
 30
0.0
 11
-38.173938519977582
 21
-32.783382360095857
 31
0.0
  0
LINE
  8
DETAIL
  6
CONTINUOUS
 62
     5
 10
-80.693325372920299
 20
-74.972735162433992
 30
0.0
 11
-82.178478600642848
 21
-76.787922440761363
 31
0.0
  0
LINE
  8
DETAIL
  6
CONTINUOUS
 62
     5
 10
36.63377961715377
 20
-195.4901693083566
 30
0.0
 11
28.32792267692821
 21
-198.6804984642051
 31
0.0
  0
LINE
  8
DETAIL
  6
CONTINUOUS
 62
     5
 10
28.32792267692821
 20
-198.6804984642051
 30
0.0
 11
20.02206573670264
 21
-200.9907368184399
 31
0.0
  0
LINE
  8
DETAIL
  6
CONTINUOUS
 62
     5
 10
20.02206573670264
 20
-200.9907368184399
 30
0.0
 11
11.33116907077147
 21
-202.4758900461625
 31
0.0
  0
LINE
  8
DETAIL
  6
CONTINUOUS
 62
     5
 10
11.33116907077147
 20
-202.4758900461625
 30
0.0
 11
2.5302610546382311
 21
-203.19096382247309
 31
0.0
  0
LINE
  8
DETAIL
  6
CONTINUOUS
 62
     5
 10
-36.468762591851373
 20
-31.023200756869301
 30
0.0
 11
-28.38292835202947
 21
-27.777865925920199
 31
0.0
  0
LINE
  8
DETAIL
  6
CONTINUOUS
 62
     5
 10
-28.38292835202947
 20
-27.777865925920199
 30
0.0
 11
-19.967060061601838
 21
-25.522633246785968
 31
0.0
  0
LINE
  8
DETAIL
  6
CONTINUOUS
 62
     5
 10
-19.967060061601838
 20
-25.522633246785968
 30
0.0
 11
-11.16615204546906
 21
-23.982474343962849
 31
0.0
  0
LINE
  8
DETAIL
  6
CONTINUOUS
 62
     5
 10
-11.16615204546906
 20
-23.982474343962849
 30
0.0
 11
-2.4752553795374301
 21
-23.322406242752781
 31
0.0
  0
LINE
  8
DETAIL
  6
CONTINUOUS
 62
     5
 10
-79.97825159660988
 20
-113.31169070771379
 30
0.0
 11
-79.483200520702212
 21
-103.52068053976591
 31
0.0
  0
LINE
  8
DETAIL
  6
CONTINUOUS
 62
     5
 10
-79.483200520702212
 20
-103.52068053976591
 30
0.0
 11
-77.447990541971194
 21
-93.674664696716931
 31
0.0
  0
LINE
  8
DETAIL
  6
CONTINUOUS
 62
     5
 10
-77.447990541971194
 20
-93.674664696716931
 30
0.0
 11
-74.477684086526551
 21
-84.323699929575469
 31
0.0
  0
LINE
  8
DETAIL
  6
CONTINUOUS
 62
     5
 10
-74.477684086526551
 20
-84.323699929575469
 30
0.0
 11
-70.352258453964168
 21
-75.522791913442219
 31
0.0
  0
LINE
  8
DETAIL
  6
CONTINUOUS
 62
     5
 10
-70.352258453964168
 20
-75.522791913442219
 30
0.0
 11
-65.181724994485648
 21
-66.996912272813219
 31
0.0
  0
LINE
  8
DETAIL
  6
CONTINUOUS
 62
     5
 10
-65.181724994485648
 20
-66.996912272813219
 30
0.0
 11
-59.186106408495107
 21
-59.296117758696937
 31
0.0
  0
LINE
  8
DETAIL
  6
CONTINUOUS
 62
     5
 10
-59.186106408495107
 20
-59.296117758696937
 30
0.0
 11
-51.980362970286023
 21
-52.475414046193691
 31
0.0
  0
LINE
  8
DETAIL
  6
CONTINUOUS
 62
     5
 10
-51.980362970286023
 20
-52.475414046193691
 30
0.0
 11
-44.169557105968117
 21
-46.47979546020315
 31
0.0
  0
LINE
  8
DETAIL
  6
CONTINUOUS
 62
     5
 10
-44.169557105968117
 20
-46.47979546020315
 30
0.0
 11
-35.698683140440153
 21
-41.804313076632297
 31
0.0
  0
LINE
  8
DETAIL
  6
CONTINUOUS
 62
     5
 10
-35.698683140440153
 20
-41.804313076632297
 30
0.0
 11
-26.457729723500051
 21
-37.788898794271518
 31
0.0
  0
LINE
  8
DETAIL
  6
CONTINUOUS
 62
     5
 10
-26.457729723500051
 20
-37.788898794271518
 30
0.0
 11
-17.1617706314596
 21
-34.983609364129052
 31
0.0
  0
LINE
  8
DETAIL
  6
CONTINUOUS
 62
     5
 10
-17.1617706314596
 20
-34.983609364129052
 30
0.0
 11
-7.4807718137130914
 21
-33.49845613640673
 31
0.0
  0
LINE
  8
DETAIL
  6
CONTINUOUS
 62
     5
 10
-7.4807718137130914
 20
-33.49845613640673
 30
0.0
 11
2.5302610546382311
 21
-33.278433436003517
 31
0.0
  0
LINE
  8
DETAIL
  6
CONTINUOUS
 62
     5
 10
2.5302610546382311
 20
-33.278433436003517
 30
0.0
 11
12.321271222586351
 21
-34.323541262919207
 31
0.0
  0
LINE
  8
DETAIL
  6
CONTINUOUS
 62
     5
 10
12.321271222586351
 20
-34.323541262919207
 30
0.0
 11
22.112281390534449
 21
-36.193734216347593
 31
0.0
  0
LINE
  8
DETAIL
  6
CONTINUOUS
 62
     5
 10
22.112281390534449
 20
-36.193734216347593
 30
0.0
 11
31.298229132373312
 21
-39.494074722397499
 31
0.0
  0
LINE
  8
DETAIL
  6
CONTINUOUS
 62
     5
 10
31.298229132373312
 20
-39.494074722397499
 30
0.0
 11
40.099137148506102
 21
-44.00454008066572
 31
0.0
  0
LINE
  8
DETAIL
  6
CONTINUOUS
 62
     5
 10
40.099137148506102
 20
-44.00454008066572
 30
0.0
 11
48.2949827385305
 21
-49.505107590748821
 31
0.0
  0
LINE
  8
DETAIL
  6
CONTINUOUS
 62
     5
 10
48.2949827385305
 20
-49.505107590748821
 30
0.0
 11
55.830760227344399
 21
-55.775754552243598
 31
0.0
  0
LINE
  8
DETAIL
  6
CONTINUOUS
 62
     5
 10
55.830760227344399
 20
-55.775754552243598
 30
0.0
 11
62.321429889242147
 21
-62.981497990452681
 31
0.0
  0
LINE
  8
DETAIL
  6
CONTINUOUS
 62
     5
 10
62.321429889242147
 20
-62.981497990452681
 30
0.0
 11
68.042020099729143
 21
-71.177343580476659
 31
0.0
  0
LINE
  8
DETAIL
  6
CONTINUOUS
 62
     5
 10
68.042020099729143
 20
-71.177343580476659
 30
0.0
 11
72.827513833501598
 21
-79.703223221105404
 31
0.0
  0
LINE
  8
DETAIL
  6
CONTINUOUS
 62
     5
 10
72.827513833501598
 20
-79.703223221105404
 30
0.0
 11
76.292871364853923
 21
-88.999182313146093
 31
0.0
  0
LINE
  8
DETAIL
  6
CONTINUOUS
 62
     5
 10
76.292871364853923
 20
-88.999182313146093
 30
0.0
 11
78.493098368887331
 21
-98.51516410558996
 31
0.0
  0
LINE
  8
DETAIL
  6
CONTINUOUS
 62
     5
 10
78.493098368887331
 20
-98.51516410558996
 30
0.0
 11
79.813234571307021
 21
-108.3061742735381
 31
0.0
  0
LINE
  8
DETAIL
  6
CONTINUOUS
 62
     5
 10
79.813234571307021
 20
-108.3061742735381
 30
0.0
 11
79.813234571307021
 21
-118.3172071418894
 31
0.0
  0
LINE
  8
DETAIL
  6
CONTINUOUS
 62
     5
 10
79.813234571307021
 20
-118.3172071418894
 30
0.0
 11
78.493098368887331
 21
-127.9982059596359
 31
0.0
  0
LINE
  8
DETAIL
  6
CONTINUOUS
 62
     5
 10
78.493098368887331
 20
-127.9982059596359
 30
0.0
 11
76.292871364853923
 21
-137.51418775207981
 31
0.0
  0
LINE
  8
DETAIL
  6
CONTINUOUS
 62
     5
 10
76.292871364853923
 20
-137.51418775207981
 30
0.0
 11
72.827513833501598
 21
-146.81014684412051
 31
0.0
  0
LINE
  8
DETAIL
  6
CONTINUOUS
 62
     5
 10
72.827513833501598
 20
-146.81014684412051
 30
0.0
 11
68.042020099729143
 21
-155.50104351005189
 31
0.0
  0
LINE
  8
DETAIL
  6
CONTINUOUS
 62
     5
 10
68.042020099729143
 20
-155.50104351005189
 30
0.0
 11
62.321429889242147
 21
-163.47686639967239
 31
0.0
  0
LINE
  8
DETAIL
  6
CONTINUOUS
 62
     5
 10
62.321429889242147
 20
-163.47686639967239
 30
0.0
 11
55.830760227344399
 21
-170.6826098378815
 31
0.0
  0
LINE
  8
DETAIL
  6
CONTINUOUS
 62
     5
 10
55.830760227344399
 20
-170.6826098378815
 30
0.0
 11
48.2949827385305
 21
-177.00826247447731
 31
0.0
  0
LINE
  8
DETAIL
  6
CONTINUOUS
 62
     5
 10
48.2949827385305
 20
-177.00826247447731
 30
0.0
 11
40.099137148506102
 21
-182.50882998456041
 31
0.0
  0
LINE
  8
DETAIL
  6
CONTINUOUS
 62
     5
 10
40.099137148506102
 20
-182.50882998456041
 30
0.0
 11
31.298229132373312
 21
-186.9642896677278
 31
0.0
  0
LINE
  8
DETAIL
  6
CONTINUOUS
 62
     5
 10
31.298229132373312
 20
-186.9642896677278
 30
0.0
 11
22.112281390534449
 21
-190.2646301737777
 31
0.0
  0
LINE
  8
DETAIL
  6
CONTINUOUS
 62
     5
 10
22.112281390534449
 20
-190.2646301737777
 30
0.0
 11
12.321271222586351
 21
-192.2998401525083
 31
0.0
  0
LINE
  8
DETAIL
  6
CONTINUOUS
 62
     5
 10
12.321271222586351
 20
-192.2998401525083
 30
0.0
 11
2.5302610546382311
 21
-193.1799309541218
 31
0.0
  0
LINE
  8
DETAIL
  6
CONTINUOUS
 62
     5
 10
2.5302610546382311
 20
-193.1799309541218
 30
0.0
 11
-7.4807718137130914
 21
-193.0149139288194
 31
0.0
  0
LINE
  8
DETAIL
  6
CONTINUOUS
 62
     5
 10
-7.4807718137130914
 20
-193.0149139288194
 30
0.0
 11
-17.1617706314596
 21
-191.47475502599579
 31
0.0
  0
LINE
  8
DETAIL
  6
CONTINUOUS
 62
     5
 10
-17.1617706314596
 20
-191.47475502599579
 30
0.0
 11
-26.457729723500051
 21
-188.66946559585341
 31
0.0
  0
LINE
  8
DETAIL
  6
CONTINUOUS
 62
     5
 10
-26.457729723500051
 20
-188.66946559585341
 30
0.0
 11
-35.698683140440153
 21
-184.98408536409781
 31
0.0
  0
LINE
  8
DETAIL
  6
CONTINUOUS
 62
     5
 10
-35.698683140440153
 20
-184.98408536409781
 30
0.0
 11
-44.169557105968117
 21
-179.9785689299222
 31
0.0
  0
LINE
  8
DETAIL
  6
CONTINUOUS
 62
     5
 10
-44.169557105968117
 20
-179.9785689299222
 30
0.0
 11
-51.980362970286023
 21
-173.98295034393141
 31
0.0
  0
LINE
  8
DETAIL
  6
CONTINUOUS
 62
     5
 10
-51.980362970286023
 20
-173.98295034393141
 30
0.0
 11
-59.186106408495107
 21
-167.27225798162979
 31
0.0
  0
LINE
  8
DETAIL
  6
CONTINUOUS
 62
     5
 10
-59.186106408495107
 20
-167.27225798162979
 30
0.0
 11
-65.181724994485648
 21
-159.51645779241269
 31
0.0
  0
LINE
  8
DETAIL
  6
CONTINUOUS
 62
     5
 10
-65.181724994485648
 20
-159.51645779241269
 30
0.0
 11
-70.352258453964168
 21
-150.99057815178389
 31
0.0
  0
LINE
  8
DETAIL
  6
CONTINUOUS
 62
     5
 10
-70.352258453964168
 20
-150.99057815178389
 30
0.0
 11
-74.477684086526551
 21
-142.18967013565069
 31
0.0
  0
LINE
  8
DETAIL
  6
CONTINUOUS
 62
     5
 10
-74.477684086526551
 20
-142.18967013565069
 30
0.0
 11
-77.447990541971194
 21
-132.78369969340841
 31
0.0
  0
LINE
  8
DETAIL
  6
CONTINUOUS
 62
     5
 10
-77.447990541971194
 20
-132.78369969340841
 30
0.0
 11
-79.483200520702212
 21
-122.99268952546031
 31
0.0
  0
LINE
  8
DETAIL
  6
CONTINUOUS
 62
     5
 10
-79.483200520702212
 20
-122.99268952546031
 30
0.0
 11
-79.97825159660988
 21
-113.31169070771379
 31
0.0
  0
LINE
  8
DETAIL
  6
CONTINUOUS
 62
     5
 10
80.803336723122342
 20
-151.48562922769131
 30
0.0
 11
38.338955545279987
 21
-194.00501608063431
 31
0.0
  0
LINE
  8
DETAIL
  6
CONTINUOUS
 62
     5
 10
-38.173938519977582
 20
-32.783382360095857
 30
0.0
 11
-80.693325372920299
 21
-74.972735162433992
 31
0.0
  0
LINE
  8
DETAIL
  6
CONTINUOUS
 62
     5
 10
-70.847309529871382
 20
-113.31169070771379
 30
0.0
 11
-70.187241428661764
 21
-103.52068053976591
 31
0.0
  0
LINE
  8
DETAIL
  6
CONTINUOUS
 62
     5
 10
-70.187241428661764
 20
-103.52068053976591
 30
0.0
 11
-68.152031449930746
 21
-93.674664696716931
 31
0.0
  0
LINE
  8
DETAIL
  6
CONTINUOUS
 62
     5
 10
-68.152031449930746
 20
-93.674664696716931
 30
0.0
 11
-64.961702294082443
 21
-84.488716954877873
 31
0.0
  0
LINE
  8
DETAIL
  6
CONTINUOUS
 62
     5
 10
-64.961702294082443
 20
-84.488716954877873
 30
0.0
 11
-60.176208560309988
 21
-75.797820288946454
 31
0.0
  0
LINE
  8
DETAIL
  6
CONTINUOUS
 62
     5
 10
-60.176208560309988
 20
-75.797820288946454
 30
0.0
 11
-54.455618349823908
 21
-67.82199739932571
 31
0.0
  0
LINE
  8
DETAIL
  6
CONTINUOUS
 62
     5
 10
-54.455618349823908
 20
-67.82199739932571
 30
0.0
 11
-47.46989761201803
 21
-60.506242610915251
 31
0.0
  0
LINE
  8
DETAIL
  6
CONTINUOUS
 62
     5
 10
-47.46989761201803
 20
-60.506242610915251
 30
0.0
 11
-39.659091747699676
 21
-54.510624024924482
 31
0.0
  0
LINE
  8
DETAIL
  6
CONTINUOUS
 62
     5
 10
-39.659091747699676
 20
-54.510624024924482
 30
0.0
 11
-31.188217782171709
 21
-49.505107590748821
 31
0.0
  0
LINE
  8
DETAIL
  6
CONTINUOUS
 62
     5
 10
-31.188217782171709
 20
-49.505107590748821
 30
0.0
 11
-21.947264365232058
 21
-45.819727358993077
 31
0.0
  0
LINE
  8
DETAIL
  6
CONTINUOUS
 62
     5
 10
-21.947264365232058
 20
-45.819727358993077
 30
0.0
 11
-12.156254197283941
 21
-43.289466304354853
 31
0.0
  0
LINE
  8
DETAIL
  6
CONTINUOUS
 62
     5
 10
-12.156254197283941
 20
-43.289466304354853
 30
0.0
 11
-2.4752553795374301
 21
-42.189352802338142
 31
0.0
  0
LINE
  8
DETAIL
  6
CONTINUOUS
 62
     5
 10
-2.4752553795374301
 20
-42.189352802338142
 30
0.0
 11
7.535777488813892
 21
-42.794415228447178
 31
0.0
  0
LINE
  8
DETAIL
  6
CONTINUOUS
 62
     5
 10
7.535777488813892
 20
-42.794415228447178
 30
0.0
 11
17.326787656762011
 21
-44.49959115657316
 31
0.0
  0
LINE
  8
DETAIL
  6
CONTINUOUS
 62
     5
 10
17.326787656762011
 20
-44.49959115657316
 30
0.0
 11
26.622746748802459
 21
-47.524903287118832
 31
0.0
  0
LINE
  8
DETAIL
  6
CONTINUOUS
 62
     5
 10
26.622746748802459
 20
-47.524903287118832
 30
0.0
 11
35.533666115137748
 21
-51.815345944983619
 31
0.0
  0
LINE
  8
DETAIL
  6
CONTINUOUS
 62
     5
 10
35.533666115137748
 20
-51.815345944983619
 30
0.0
 11
43.839523055363323
 21
-57.205902104865118
 31
0.0
  0
LINE
  8
DETAIL
  6
CONTINUOUS
 62
     5
 10
43.839523055363323
 20
-57.205902104865118
 30
0.0
 11
51.045266493571937
 21
-64.026605817368349
 31
0.0
  0
LINE
  8
DETAIL
  6
CONTINUOUS
 62
     5
 10
51.045266493571937
 20
-64.026605817368349
 30
0.0
 11
57.645947505671757
 21
-71.507377631081681
 31
0.0
  0
LINE
  8
DETAIL
  6
CONTINUOUS
 62
     5
 10
57.645947505671757
 20
-71.507377631081681
 30
0.0
 11
62.816480965149822
 21
-79.978251596609653
 31
0.0
  0
LINE
  8
DETAIL
  6
CONTINUOUS
 62
     5
 10
62.816480965149822
 20
-79.978251596609653
 30
0.0
 11
66.831895247510602
 21
-88.999182313146093
 31
0.0
  0
LINE
  8
DETAIL
  6
CONTINUOUS
 62
     5
 10
66.831895247510602
 20
-88.999182313146093
 30
0.0
 11
69.527173327451692
 21
-98.51516410558996
 31
0.0
  0
LINE
  8
DETAIL
  6
CONTINUOUS
 62
     5
 10
69.527173327451692
 20
-98.51516410558996
 30
0.0
 11
70.79230385477058
 21
-108.3061742735381
 31
0.0
  0
LINE
  8
DETAIL
  6
CONTINUOUS
 62
     5
 10
70.79230385477058
 20
-108.3061742735381
 30
0.0
 11
70.79230385477058
 21
-118.3172071418894
 31
0.0
  0
LINE
  8
DETAIL
  6
CONTINUOUS
 62
     5
 10
70.79230385477058
 20
-118.3172071418894
 30
0.0
 11
69.527173327451692
 21
-127.9982059596359
 31
0.0
  0
LINE
  8
DETAIL
  6
CONTINUOUS
 62
     5
 10
69.527173327451692
 20
-127.9982059596359
 30
0.0
 11
66.831895247510602
 21
-137.51418775207981
 31
0.0
  0
LINE
  8
DETAIL
  6
CONTINUOUS
 62
     5
 10
66.831895247510602
 20
-137.51418775207981
 30
0.0
 11
62.816480965149822
 21
-146.48011279351539
 31
0.0
  0
LINE
  8
DETAIL
  6
CONTINUOUS
 62
     5
 10
62.816480965149822
 20
-146.48011279351539
 30
0.0
 11
57.645947505671757
 21
-155.00599243414439
 31
0.0
  0
LINE
  8
DETAIL
  6
CONTINUOUS
 62
     5
 10
57.645947505671757
 20
-155.00599243414439
 30
0.0
 11
51.045266493571937
 21
-162.48676424785751
 31
0.0
  0
LINE
  8
DETAIL
  6
CONTINUOUS
 62
     5
 10
51.045266493571937
 20
-162.48676424785751
 30
0.0
 11
43.839523055363323
 21
-169.30746796036081
 31
0.0
  0
LINE
  8
DETAIL
  6
CONTINUOUS
 62
     5
 10
43.839523055363323
 20
-169.30746796036081
 30
0.0
 11
35.533666115137748
 21
-174.80803547044411
 31
0.0
  0
LINE
  8
DETAIL
  6
CONTINUOUS
 62
     5
 10
35.533666115137748
 20
-174.80803547044411
 30
0.0
 11
26.622746748802459
 21
-178.9884667781071
 31
0.0
  0
LINE
  8
DETAIL
  6
CONTINUOUS
 62
     5
 10
26.622746748802459
 20
-178.9884667781071
 30
0.0
 11
17.326787656762011
 21
-182.288807284157
 31
0.0
  0
LINE
  8
DETAIL
  6
CONTINUOUS
 62
     5
 10
17.326787656762011
 20
-182.288807284157
 30
0.0
 11
7.535777488813892
 21
-183.99398321228301
 31
0.0
  0
LINE
  8
DETAIL
  6
CONTINUOUS
 62
     5
 10
7.535777488813892
 20
-183.99398321228301
 30
0.0
 11
-2.4752553795374301
 21
-184.26901158778699
 31
0.0
  0
LINE
  8
DETAIL
  6
CONTINUOUS
 62
     5
 10
-2.4752553795374301
 20
-184.26901158778699
 30
0.0
 11
-12.156254197283941
 21
-183.16889808577051
 31
0.0
  0
LINE
  8
DETAIL
  6
CONTINUOUS
 62
     5
 10
-12.156254197283941
 20
-183.16889808577051
 30
0.0
 11
-21.947264365232058
 21
-180.69364270623279
 31
0.0
  0
LINE
  8
DETAIL
  6
CONTINUOUS
 62
     5
 10
-21.947264365232058
 20
-180.69364270623279
 30
0.0
 11
-31.188217782171709
 21
-177.00826247447731
 31
0.0
  0
LINE
  8
DETAIL
  6
CONTINUOUS
 62
     5
 10
-31.188217782171709
 20
-177.00826247447731
 30
0.0
 11
-39.659091747699676
 21
-172.27777441580571
 31
0.0
  0
LINE
  8
DETAIL
  6
CONTINUOUS
 62
     5
 10
-39.659091747699676
 20
-172.27777441580571
 30
0.0
 11
-47.46989761201803
 21
-166.0071274543109
 31
0.0
  0
LINE
  8
DETAIL
  6
CONTINUOUS
 62
     5
 10
-47.46989761201803
 20
-166.0071274543109
 30
0.0
 11
-54.455618349823908
 21
-158.9664010414042
 31
0.0
  0
LINE
  8
DETAIL
  6
CONTINUOUS
 62
     5
 10
-54.455618349823908
 20
-158.9664010414042
 30
0.0
 11
-60.176208560309988
 21
-150.99057815178389
 31
0.0
  0
LINE
  8
DETAIL
  6
CONTINUOUS
 62
     5
 10
-60.176208560309988
 20
-150.99057815178389
 30
0.0
 11
-64.961702294082443
 21
-142.18967013565069
 31
0.0
  0
LINE
  8
DETAIL
  6
CONTINUOUS
 62
     5
 10
-64.961702294082443
 20
-142.18967013565069
 30
0.0
 11
-68.152031449930746
 21
-132.78369969340841
 31
0.0
  0
LINE
  8
DETAIL
  6
CONTINUOUS
 62
     5
 10
-68.152031449930746
 20
-132.78369969340841
 30
0.0
 11
-70.187241428661764
 21
-123.2677179009645
 31
0.0
  0
LINE
  8
DETAIL
  6
CONTINUOUS
 62
     5
 10
-70.187241428661764
 20
-123.2677179009645
 30
0.0
 11
-70.847309529871382
 21
-113.31169070771379
 31
0.0
  0
LINE
  8
DETAIL
  6
CONTINUOUS
 62
     5
 10
-89.989284464961202
 20
-110.78142965307551
 30
0.0
 11
-89.164199338448725
 21
-101.9805216369425
 31
0.0
  0
LINE
  8
DETAIL
  6
CONTINUOUS
 62
     5
 10
-89.164199338448725
 20
-101.9805216369425
 30
0.0
 11
-87.679046110726176
 21
-93.28962497101088
 31
0.0
  0
LINE
  8
DETAIL
  6
CONTINUOUS
 62
     5
 10
-87.679046110726176
 20
-93.28962497101088
 30
0.0
 11
-85.368807756491151
 21
-84.983768030785313
 31
0.0
  0
LINE
  8
DETAIL
  6
CONTINUOUS
 62
     5
 10
-85.368807756491151
 20
-84.983768030785313
 30
0.0
 11
-82.178478600642848
 21
-76.787922440761363
 31
0.0
  0
LINE
  8
DETAIL
  6
CONTINUOUS
 62
     5
 10
-2.4752553795374301
 20
-203.19096382247309
 30
0.0
 11
-12.156254197283941
 21
-202.4758900461625
 31
0.0
  0
LINE
  8
DETAIL
  6
CONTINUOUS
 62
     5
 10
-12.156254197283941
 20
-202.4758900461625
 30
0.0
 11
-21.452213289324391
 21
-200.71570844293569
 31
0.0
  0
LINE
  8
DETAIL
  6
CONTINUOUS
 62
     5
 10
-21.452213289324391
 20
-200.71570844293569
 30
0.0
 11
-30.693166706264041
 21
-197.8004076625916
 31
0.0
  0
LINE
  8
DETAIL
  6
CONTINUOUS
 62
     5
 10
-30.693166706264041
 20
-197.8004076625916
 30
0.0
 11
-39.659091747699676
 21
-194.00501608063431
 31
0.0
  0
LINE
  8
DETAIL
  6
CONTINUOUS
 62
     5
 10
-39.659091747699676
 20
-194.00501608063431
 30
0.0
 11
-47.854937337723641
 21
-189.4945507223658
 31
0.0
  0
LINE
  8
DETAIL
  6
CONTINUOUS
 62
     5
 10
-47.854937337723641
 20
-189.4945507223658
 30
0.0
 11
-55.8857659024452
 21
-183.66394916167789
 31
0.0
  0
LINE
  8
DETAIL
  6
CONTINUOUS
 62
     5
 10
-55.8857659024452
 20
-183.66394916167789
 30
0.0
 11
-62.871486640251078
 21
-177.50331355038469
 31
0.0
  0
LINE
  8
DETAIL
  6
CONTINUOUS
 62
     5
 10
-62.871486640251078
 20
-177.50331355038469
 30
0.0
 11
-69.472167652350436
 21
-170.29757011217569
 31
0.0
  0
LINE
  8
DETAIL
  6
CONTINUOUS
 62
     5
 10
-69.472167652350436
 20
-170.29757011217569
 30
0.0
 11
-75.192757862837425
 21
-162.48676424785751
 31
0.0
  0
LINE
  8
DETAIL
  6
CONTINUOUS
 62
     5
 10
-75.192757862837425
 20
-162.48676424785751
 30
0.0
 11
-79.97825159660988
 21
-154.2909186578336
 31
0.0
  0
LINE
  8
DETAIL
  6
CONTINUOUS
 62
     5
 10
-79.97825159660988
 20
-154.2909186578336
 30
0.0
 11
-83.993665878970205
 21
-145.49001064170059
 31
0.0
  0
LINE
  8
DETAIL
  6
CONTINUOUS
 62
     5
 10
84.103677229171808
 20
-145.49001064170059
 30
0.0
 11
82.343495625945252
 21
-149.67044194936349
 31
0.0
  0
LINE
  8
DETAIL
  6
CONTINUOUS
 62
     5
 10
-87.45902341032297
 20
-134.7088983219376
 30
0.0
 11
-89.164199338448725
 21
-125.46794490499769
 31
0.0
  0
LINE
  8
DETAIL
  6
CONTINUOUS
 62
     5
 10
-89.164199338448725
 20
-125.46794490499769
 30
0.0
 11
-89.989284464961202
 21
-115.7869460872512
 31
0.0
  0
LINE
  8
DETAIL
  6
CONTINUOUS
 62
     5
 10
90.09929581516279
 20
-115.7869460872512
 30
0.0
 11
89.329216363751144
 21
-125.46794490499769
 31
0.0
  0
LINE
  8
DETAIL
  6
CONTINUOUS
 62
     5
 10
89.329216363751144
 20
-125.46794490499769
 30
0.0
 11
87.294006385020566
 21
-134.7088983219376
 31
0.0
  0
LINE
  8
DETAIL
  6
CONTINUOUS
 62
     5
 10
2.5302610546382311
 20
-23.322406242752781
 30
0.0
 11
12.321271222586351
 21
-23.982474343962849
 31
0.0
  0
LINE
  8
DETAIL
  6
CONTINUOUS
 62
     5
 10
12.321271222586351
 20
-23.982474343962849
 30
0.0
 11
21.837253015030459
 21
-26.017684322693409
 31
0.0
  0
LINE
  8
DETAIL
  6
CONTINUOUS
 62
     5
 10
21.837253015030459
 20
-26.017684322693409
 30
0.0
 11
31.023200756869301
 21
-28.712962402634279
 31
0.0
  0
LINE
  8
DETAIL
  6
CONTINUOUS
 62
     5
 10
31.023200756869301
 20
-28.712962402634279
 30
0.0
 11
40.099137148506102
 21
-32.783382360095857
 31
0.0
  0
LINE
  8
DETAIL
  6
CONTINUOUS
 62
     5
 10
40.099137148506102
 20
-32.783382360095857
 30
0.0
 11
48.515005438933713
 21
-37.51387041876751
 31
0.0
  0
LINE
  8
DETAIL
  6
CONTINUOUS
 62
     5
 10
48.515005438933713
 20
-37.51387041876751
 30
0.0
 11
56.600839678756067
 21
-43.289466304354853
 31
0.0
  0
LINE
  8
DETAIL
  6
CONTINUOUS
 62
     5
 10
56.600839678756067
 20
-43.289466304354853
 30
0.0
 11
63.531554741460702
 21
-49.725130291152027
 31
0.0
  0
LINE
  8
DETAIL
  6
CONTINUOUS
 62
     5
 10
63.531554741460702
 20
-49.725130291152027
 30
0.0
 11
70.132235753560494
 21
-56.820862379159507
 31
0.0
  0
LINE
  8
DETAIL
  6
CONTINUOUS
 62
     5
 10
70.132235753560494
 20
-56.820862379159507
 30
0.0
 11
75.797820288946241
 21
-64.686673918578435
 31
0.0
  0
LINE
  8
DETAIL
  6
CONTINUOUS
 62
     5
 10
75.797820288946241
 20
-64.686673918578435
 30
0.0
 11
80.528308347617894
 21
-73.322564909409053
 31
0.0
  0
LINE
  8
DETAIL
  6
CONTINUOUS
 62
     5
 10
80.528308347617894
 20
-73.322564909409053
 30
0.0
 11
84.543722629978674
 21
-82.178478600642848
 31
0.0
  0
LINE
  8
DETAIL
  6
CONTINUOUS
 62
     5
 10
84.543722629978674
 20
-82.178478600642848
 30
0.0
 11
87.294006385020566
 21
-91.474437692683523
 31
0.0
  0
LINE
  8
DETAIL
  6
CONTINUOUS
 62
     5
 10
87.294006385020566
 20
-91.474437692683523
 30
0.0
 11
89.329216363751144
 21
-100.9904194851274
 31
0.0
  0
LINE
  8
DETAIL
  6
CONTINUOUS
 62
     5
 10
89.329216363751144
 20
-100.9904194851274
 30
0.0
 11
90.09929581516279
 21
-110.78142965307551
 31
0.0
  0
LINE
  8
DETAIL
  6
CONTINUOUS
 62
     5
 10
123.8177746519727
 20
-83.003563727155338
 30
0.0
 11
126.7880811074178
 21
-83.49861480306275
 31
0.0
  0
LINE
  8
DETAIL
  6
CONTINUOUS
 62
     5
 10
126.7880811074178
 20
-83.49861480306275
 30
0.0
 11
129.5383648624593
 21
-84.983768030785313
 31
0.0
  0
LINE
  8
DETAIL
  6
CONTINUOUS
 62
     5
 10
129.5383648624593
 20
-84.983768030785313
 30
0.0
 11
131.79359754159299
 21
-87.183995034818722
 31
0.0
  0
LINE
  8
DETAIL
  6
CONTINUOUS
 62
     5
 10
131.79359754159299
 20
-87.183995034818722
 30
0.0
 11
133.33375644441639
 21
-89.989284464960974
 31
0.0
  0
LINE
  8
DETAIL
  6
CONTINUOUS
 62
     5
 10
133.33375644441639
 20
-89.989284464960974
 30
0.0
 11
133.82880752032409
 21
-93.014596595506873
 31
0.0
  0
LINE
  8
DETAIL
  6
CONTINUOUS
 62
     5
 10
133.82880752032409
 20
-172.00274604030139
 30
0.0
 11
133.33375644441639
 21
-175.30308654635161
 31
0.0
  0
LINE
  8
DETAIL
  6
CONTINUOUS
 62
     5
 10
133.33375644441639
 20
-175.30308654635161
 30
0.0
 11
131.79359754159299
 21
-177.99836462629219
 31
0.0
  0
LINE
  8
DETAIL
  6
CONTINUOUS
 62
     5
 10
131.79359754159299
 20
-177.99836462629219
 30
0.0
 11
129.5383648624593
 21
-180.30860298052701
 31
0.0
  0
LINE
  8
DETAIL
  6
CONTINUOUS
 62
     5
 10
129.5383648624593
 20
-180.30860298052701
 30
0.0
 11
126.7880811074178
 21
-181.4637221576445
 31
0.0
  0
LINE
  8
DETAIL
  6
CONTINUOUS
 62
     5
 10
126.7880811074178
 20
-181.4637221576445
 30
0.0
 11
123.8177746519727
 21
-182.01377890865271
 31
0.0
  0
LINE
  8
DETAIL
  6
CONTINUOUS
 62
     5
 10
123.8177746519727
 20
-182.01377890865271
 30
0.0
 11
111.606514779588
 21
-182.01377890865271
 31
0.0
  0
LINE
  8
DETAIL
  6
CONTINUOUS
 62
     5
 10
111.606514779588
 20
-83.003563727155338
 30
0.0
 11
123.8177746519727
 21
-83.003563727155338
 31
0.0
  0
LINE
  8
DETAIL
  6
CONTINUOUS
 62
     5
 10
133.82880752032409
 20
-172.00274604030139
 30
0.0
 11
133.82880752032409
 21
-155.50104351005189
 31
0.0
  0
LINE
  8
DETAIL
  6
CONTINUOUS
 62
     5
 10
133.82880752032409
 20
-155.50104351005189
 30
0.0
 11
133.82880752032409
 21
-151.9806803035988
 31
0.0
  0
LINE
  8
DETAIL
  6
CONTINUOUS
 62
     5
 10
133.82880752032409
 20
-102.805606763455
 30
0.0
 11
133.82880752032409
 21
-93.014596595506873
 31
0.0
  0
LINE
  8
DETAIL
  6
CONTINUOUS
 62
     5
 10
106.60099834541229
 20
-104.67579971688311
 30
0.0
 11
106.60099834541229
 21
-106.8210210458155
 31
0.0
  0
LINE
  8
DETAIL
  6
CONTINUOUS
 62
     5
 10
104.5107826915805
 20
-106.8210210458155
 30
0.0
 11
104.84081674218579
 21
-106.2159586197065
 31
0.0
  0
LINE
  8
DETAIL
  6
CONTINUOUS
 62
     5
 10
104.84081674218579
 20
-106.2159586197065
 30
0.0
 11
105.1158451176898
 21
-105.7759132188999
 31
0.0
  0
LINE
  8
DETAIL
  6
CONTINUOUS
 62
     5
 10
105.1158451176898
 20
-105.7759132188999
 30
0.0
 11
105.5008848433954
 21
-105.2808621429924
 31
0.0
  0
LINE
  8
DETAIL
  6
CONTINUOUS
 62
     5
 10
105.5008848433954
 20
-105.2808621429924
 30
0.0
 11
105.99593591930309
 21
-105.0058337674882
 31
0.0
  0
LINE
  8
DETAIL
  6
CONTINUOUS
 62
     5
 10
105.99593591930309
 20
-105.0058337674882
 30
0.0
 11
106.60099834541229
 21
-104.67579971688311
 31
0.0
  0
LINE
  8
DETAIL
  6
CONTINUOUS
 62
     5
 10
102.6405897381524
 20
-106.8210210458155
 30
0.0
 11
102.8056067634548
 21
-105.7759132188999
 31
0.0
  0
LINE
  8
DETAIL
  6
CONTINUOUS
 62
     5
 10
102.8056067634548
 20
-105.7759132188999
 30
0.0
 11
103.300657839362
 21
-104.5107826915807
 31
0.0
  0
LINE
  8
DETAIL
  6
CONTINUOUS
 62
     5
 10
103.300657839362
 20
-104.5107826915807
 30
0.0
 11
104.2907599911773
 21
-103.6856975650683
 31
0.0
  0
LINE
  8
DETAIL
  6
CONTINUOUS
 62
     5
 10
104.2907599911773
 20
-103.6856975650683
 30
0.0
 11
105.33586781809301
 21
-102.97062378875739
 31
0.0
  0
LINE
  8
DETAIL
  6
CONTINUOUS
 62
     5
 10
105.33586781809301
 20
-102.97062378875739
 30
0.0
 11
106.60099834541229
 21
-102.805606763455
 31
0.0
  0
LINE
  8
DETAIL
  6
CONTINUOUS
 62
     5
 10
143.5098063380706
 20
-150.00047599996859
 30
0.0
 11
142.024653110348
 21
-150.99057815178389
 31
0.0
  0
LINE
  8
DETAIL
  6
CONTINUOUS
 62
     5
 10
142.024653110348
 20
-150.99057815178389
 30
0.0
 11
140.3194771822223
 21
-151.8156632782964
 31
0.0
  0
LINE
  8
DETAIL
  6
CONTINUOUS
 62
     5
 10
140.3194771822223
 20
-151.8156632782964
 30
0.0
 11
138.50428990389489
 21
-151.9806803035988
 31
0.0
  0
LINE
  8
DETAIL
  6
CONTINUOUS
 62
     5
 10
169.52749066076379
 20
-121.0124852218303
 30
0.0
 11
169.30746796036061
 21
-122.7726668250571
 31
0.0
  0
LINE
  8
DETAIL
  6
CONTINUOUS
 62
     5
 10
169.30746796036061
 20
-122.7726668250571
 30
0.0
 11
168.53738850894891
 21
-124.4778427531826
 31
0.0
  0
LINE
  8
DETAIL
  6
CONTINUOUS
 62
     5
 10
168.53738850894891
 20
-124.4778427531826
 30
0.0
 11
167.6022920322348
 21
-126.01800165600621
 31
0.0
  0
LINE
  8
DETAIL
  6
CONTINUOUS
 62
     5
 10
167.6022920322348
 20
-126.01800165600621
 30
0.0
 11
143.5098063380706
 21
-150.00047599996859
 31
0.0
  0
LINE
  8
DETAIL
  6
CONTINUOUS
 62
     5
 10
112.59661693140291
 20
-106.8210210458155
 30
0.0
 11
112.59661693140291
 21
-102.805606763455
 31
0.0
  0
LINE
  8
DETAIL
  6
CONTINUOUS
 62
     5
 10
93.014596595506646
 20
-138.50428990389469
 30
0.0
 11
87.01897800951609
 21
-138.50428990389469
 31
0.0
  0
LINE
  8
DETAIL
  6
CONTINUOUS
 62
     5
 10
99.505266257404841
 20
-144.9949595657931
 30
0.0
 11
99.505266257404841
 21
-150.99057815178389
 31
0.0
  0
LINE
  8
DETAIL
  6
CONTINUOUS
 62
     5
 10
93.014596595506646
 20
-138.50428990389469
 30
0.0
 11
95.104812249338451
 21
-138.99934097980241
 31
0.0
  0
LINE
  8
DETAIL
  6
CONTINUOUS
 62
     5
 10
95.104812249338451
 20
-138.99934097980241
 30
0.0
 11
96.80998817746422
 21
-139.714414756113
 31
0.0
  0
LINE
  8
DETAIL
  6
CONTINUOUS
 62
     5
 10
96.80998817746422
 20
-139.714414756113
 30
0.0
 11
98.295141405186769
 21
-141.19956798383581
 31
0.0
  0
LINE
  8
DETAIL
  6
CONTINUOUS
 62
     5
 10
98.295141405186769
 20
-141.19956798383581
 30
0.0
 11
99.120226531699231
 21
-143.01475526216311
 31
0.0
  0
LINE
  8
DETAIL
  6
CONTINUOUS
 62
     5
 10
99.120226531699231
 20
-143.01475526216311
 30
0.0
 11
99.505266257404841
 21
-144.9949595657931
 31
0.0
  0
LINE
  8
DETAIL
  6
CONTINUOUS
 62
     5
 10
169.52749066076379
 20
-102.805606763455
 30
0.0
 11
169.52749066076379
 21
-121.0124852218303
 31
0.0
  0
LINE
  8
DETAIL
  6
CONTINUOUS
 62
     5
 10
169.52749066076379
 20
-102.805606763455
 30
0.0
 11
106.60099834541229
 21
-102.805606763455
 31
0.0
  0
LINE
  8
DETAIL
  6
CONTINUOUS
 62
     5
 10
138.50428990389489
 20
-151.9806803035988
 30
0.0
 11
91.03439229187687
 21
-151.9806803035988
 31
0.0
  0
LINE
  8
DETAIL
  6
CONTINUOUS
 62
     5
 10
91.03439229187687
 20
-151.9806803035988
 30
0.0
 11
88.834165287843462
 21
-151.48562922769131
 31
0.0
  0
LINE
  8
DETAIL
  6
CONTINUOUS
 62
     5
 10
88.834165287843462
 20
-151.48562922769131
 30
0.0
 11
86.798955309112912
 21
-150.495527075876
 31
0.0
  0
LINE
  8
DETAIL
  6
CONTINUOUS
 62
     5
 10
86.798955309112912
 20
-150.495527075876
 30
0.0
 11
85.313802081390349
 21
-148.68033979754861
 31
0.0
  0
LINE
  8
DETAIL
  6
CONTINUOUS
 62
     5
 10
85.313802081390349
 20
-148.68033979754861
 30
0.0
 11
84.323699929575469
 21
-146.81014684412051
 31
0.0
  0
LINE
  8
DETAIL
  6
CONTINUOUS
 62
     5
 10
84.323699929575469
 20
-146.81014684412051
 30
0.0
 11
84.103677229171808
 21
-144.49990848988551
 31
0.0
  0
LINE
  8
DETAIL
  6
CONTINUOUS
 62
     5
 10
84.103677229171808
 20
-144.49990848988551
 30
0.0
 11
84.543722629978674
 21
-142.18967013565069
 31
0.0
  0
LINE
  8
DETAIL
  6
CONTINUOUS
 62
     5
 10
123.8177746519727
 20
-125.46794490499769
 30
0.0
 11
125.522950580098
 21
-125.7979789556025
 31
0.0
  0
LINE
  8
DETAIL
  6
CONTINUOUS
 62
     5
 10
125.522950580098
 20
-125.7979789556025
 30
0.0
 11
127.008103807821
 21
-126.7880811074176
 31
0.0
  0
LINE
  8
DETAIL
  6
CONTINUOUS
 62
     5
 10
127.008103807821
 20
-126.7880811074176
 30
0.0
 11
127.9982059596359
 21
-127.9982059596359
 31
0.0
  0
LINE
  8
DETAIL
  6
CONTINUOUS
 62
     5
 10
127.9982059596359
 20
-127.9982059596359
 30
0.0
 11
128.8232910861484
 21
-129.4833591873585
 31
0.0
  0
LINE
  8
DETAIL
  6
CONTINUOUS
 62
     5
 10
128.8232910861484
 20
-129.4833591873585
 30
0.0
 11
128.8232910861484
 21
-131.188535115484
 31
0.0
  0
LINE
  8
DETAIL
  6
CONTINUOUS
 62
     5
 10
128.8232910861484
 20
-131.188535115484
 30
0.0
 11
127.9982059596359
 21
-133.00372239381181
 31
0.0
  0
LINE
  8
DETAIL
  6
CONTINUOUS
 62
     5
 10
127.9982059596359
 20
-133.00372239381181
 30
0.0
 11
127.008103807821
 21
-134.2688529211307
 31
0.0
  0
LINE
  8
DETAIL
  6
CONTINUOUS
 62
     5
 10
127.008103807821
 20
-134.2688529211307
 30
0.0
 11
125.522950580098
 21
-135.31396074804661
 31
0.0
  0
LINE
  8
DETAIL
  6
CONTINUOUS
 62
     5
 10
125.522950580098
 20
-135.31396074804661
 30
0.0
 11
123.8177746519727
 21
-135.47897777334919
 31
0.0
  0
LINE
  8
DETAIL
  6
CONTINUOUS
 62
     5
 10
100.1103286835141
 20
-135.47897777334919
 30
0.0
 11
123.8177746519727
 21
-135.47897777334919
 31
0.0
  0
LINE
  8
DETAIL
  6
CONTINUOUS
 62
     5
 10
100.1103286835141
 20
-135.47897777334919
 30
0.0
 11
98.51516410558996
 21
-135.31396074804661
 31
0.0
  0
LINE
  8
DETAIL
  6
CONTINUOUS
 62
     5
 10
98.51516410558996
 20
-135.31396074804661
 30
0.0
 11
97.305039253371874
 21
-134.48887562153411
 31
0.0
  0
LINE
  8
DETAIL
  6
CONTINUOUS
 62
     5
 10
97.305039253371874
 20
-134.48887562153411
 30
0.0
 11
96.039908726052545
 21
-133.49877346971931
 31
0.0
  0
LINE
  8
DETAIL
  6
CONTINUOUS
 62
     5
 10
96.039908726052545
 20
-133.49877346971931
 30
0.0
 11
95.324834949741685
 21
-132.0136202419969
 31
0.0
  0
LINE
  8
DETAIL
  6
CONTINUOUS
 62
     5
 10
95.324834949741685
 20
-132.0136202419969
 30
0.0
 11
95.104812249338451
 21
-130.47346133917341
 31
0.0
  0
LINE
  8
DETAIL
  6
CONTINUOUS
 62
     5
 10
95.104812249338451
 20
-130.47346133917341
 30
0.0
 11
95.324834949741685
 21
-128.988308111451
 31
0.0
  0
LINE
  8
DETAIL
  6
CONTINUOUS
 62
     5
 10
95.324834949741685
 20
-128.988308111451
 30
0.0
 11
96.039908726052545
 21
-127.5031548837285
 31
0.0
  0
LINE
  8
DETAIL
  6
CONTINUOUS
 62
     5
 10
96.039908726052545
 20
-127.5031548837285
 30
0.0
 11
97.305039253371874
 21
-126.5130527319136
 31
0.0
  0
LINE
  8
DETAIL
  6
CONTINUOUS
 62
     5
 10
97.305039253371874
 20
-126.5130527319136
 30
0.0
 11
98.51516410558996
 21
-125.7979789556025
 31
0.0
  0
LINE
  8
DETAIL
  6
CONTINUOUS
 62
     5
 10
98.51516410558996
 20
-125.7979789556025
 30
0.0
 11
100.1103286835141
 21
-125.46794490499769
 31
0.0
  0
LINE
  8
DETAIL
  6
CONTINUOUS
 62
     5
 10
123.8177746519727
 20
-125.46794490499769
 30
0.0
 11
100.1103286835141
 21
-125.46794490499769
 31
0.0
  0
LINE
  8
DETAIL
  6
CONTINUOUS
 62
     5
 10
166.33716150491551
 20
-102.805606763455
 30
0.0
 11
163.53187207477319
 21
-107.81112319763059
 31
0.0
  0
LINE
  8
DETAIL
  6
CONTINUOUS
 62
     5
 10
160.5065599442278
 20
-102.805606763455
 30
0.0
 11
163.53187207477319
 21
-107.81112319763059
 31
0.0
  0
LINE
  8
DETAIL
  6
CONTINUOUS
 62
     5
 10
163.53187207477319
 20
-107.81112319763059
 30
0.0
 11
163.53187207477319
 21
-102.805606763455
 31
0.0
  0
LINE
  8
DETAIL
  6
CONTINUOUS
 62
     5
 10
132.61868266810549
 20
-102.805606763455
 30
0.0
 11
135.53398344844979
 21
-107.81112319763059
 31
0.0
  0
LINE
  8
DETAIL
  6
CONTINUOUS
 62
     5
 10
138.33927287859211
 20
-102.805606763455
 30
0.0
 11
135.53398344844979
 21
-107.81112319763059
 31
0.0
  0
LINE
  8
DETAIL
  6
CONTINUOUS
 62
     5
 10
135.53398344844979
 20
-107.81112319763059
 30
0.0
 11
135.53398344844979
 21
-102.805606763455
 31
0.0
  0
LINE
  8
DETAIL
  6
CONTINUOUS
 62
     5
 10
112.59661693140291
 20
-106.8210210458155
 30
0.0
 11
98.790192481093982
 21
-106.8210210458155
 31
0.0
  0
LINE
  8
DETAIL
  6
CONTINUOUS
 62
     5
 10
91.804471743288573
 20
-113.31169070771379
 30
0.0
 11
92.299522819195772
 21
-111.2214750538822
 31
0.0
  0
LINE
  8
DETAIL
  6
CONTINUOUS
 62
     5
 10
92.299522819195772
 20
-111.2214750538822
 30
0.0
 11
93.344630646111426
 21
-109.5162991257566
 31
0.0
  0
LINE
  8
DETAIL
  6
CONTINUOUS
 62
     5
 10
93.344630646111426
 20
-109.5162991257566
 30
0.0
 11
94.829783873834003
 21
-107.9761402229331
 31
0.0
  0
LINE
  8
DETAIL
  6
CONTINUOUS
 62
     5
 10
94.829783873834003
 20
-107.9761402229331
 30
0.0
 11
96.644971152161787
 21
-107.20606077152139
 31
0.0
  0
LINE
  8
DETAIL
  6
CONTINUOUS
 62
     5
 10
96.644971152161787
 20
-107.20606077152139
 30
0.0
 11
98.790192481093982
 21
-106.8210210458155
 31
0.0
  0
LINE
  8
DETAIL
  6
CONTINUOUS
 62
     5
 10
112.59661693140291
 20
-104.67579971688311
 30
0.0
 11
106.60099834541229
 21
-104.67579971688311
 31
0.0
  0
LINE
  8
DETAIL
  6
CONTINUOUS
 62
     5
 10
91.804471743288573
 20
-113.31169070771379
 30
0.0
 11
90.539341215969202
 21
-123.2677179009645
 31
0.0
  0
LINE
  8
DETAIL
  6
CONTINUOUS
 62
     5
 10
90.539341215969202
 20
-123.2677179009645
 30
0.0
 11
88.009080161330985
 21
-132.78369969340841
 31
0.0
  0
LINE
  8
DETAIL
  6
CONTINUOUS
 62
     5
 10
88.009080161330985
 20
-132.78369969340841
 30
0.0
 11
84.543722629978674
 21
-142.18967013565069
 31
0.0
  0
LINE
  8
DETAIL
  6
CONTINUOUS
 62
     5
 10
-106.4909869952107
 20
-104.67579971688311
 30
0.0
 11
-106.4909869952107
 21
-106.8210210458155
 31
0.0
  0
LINE
  8
DETAIL
  6
CONTINUOUS
 62
     5
 10
-106.4909869952107
 20
-104.67579971688311
 30
0.0
 11
-105.8859245691015
 21
-105.0058337674882
 31
0.0
  0
LINE
  8
DETAIL
  6
CONTINUOUS
 62
     5
 10
-105.8859245691015
 20
-105.0058337674882
 30
0.0
 11
-105.39087349319379
 21
-105.2808621429924
 31
0.0
  0
LINE
  8
DETAIL
  6
CONTINUOUS
 62
     5
 10
-105.39087349319379
 20
-105.2808621429924
 30
0.0
 11
-104.9508280923874
 21
-105.7759132188999
 31
0.0
  0
LINE
  8
DETAIL
  6
CONTINUOUS
 62
     5
 10
-104.9508280923874
 20
-105.7759132188999
 30
0.0
 11
-104.6757997168834
 21
-106.2159586197065
 31
0.0
  0
LINE
  8
DETAIL
  6
CONTINUOUS
 62
     5
 10
-104.6757997168834
 20
-106.2159586197065
 30
0.0
 11
-104.4557770164797
 21
-106.8210210458155
 31
0.0
  0
LINE
  8
DETAIL
  6
CONTINUOUS
 62
     5
 10
-106.4909869952107
 20
-102.805606763455
 30
0.0
 11
-105.39087349319379
 21
-102.97062378875739
 31
0.0
  0
LINE
  8
DETAIL
  6
CONTINUOUS
 62
     5
 10
-105.39087349319379
 20
-102.97062378875739
 30
0.0
 11
-104.18074864097569
 21
-103.6856975650683
 31
0.0
  0
LINE
  8
DETAIL
  6
CONTINUOUS
 62
     5
 10
-104.18074864097569
 20
-103.6856975650683
 30
0.0
 11
-103.3556635144632
 21
-104.5107826915807
 31
0.0
  0
LINE
  8
DETAIL
  6
CONTINUOUS
 62
     5
 10
-103.3556635144632
 20
-104.5107826915807
 30
0.0
 11
-102.6405897381524
 21
-105.7759132188999
 31
0.0
  0
LINE
  8
DETAIL
  6
CONTINUOUS
 62
     5
 10
-102.6405897381524
 20
-105.7759132188999
 30
0.0
 11
-102.47557271285
 21
-106.8210210458155
 31
0.0
  0
LINE
  8
DETAIL
  6
CONTINUOUS
 62
     5
 10
-138.33927287859211
 20
-151.9806803035988
 30
0.0
 11
-140.1544601569199
 21
-151.8156632782964
 31
0.0
  0
LINE
  8
DETAIL
  6
CONTINUOUS
 62
     5
 10
-140.1544601569199
 20
-151.8156632782964
 30
0.0
 11
-141.9696474352472
 21
-150.99057815178389
 31
0.0
  0
LINE
  8
DETAIL
  6
CONTINUOUS
 62
     5
 10
-141.9696474352472
 20
-150.99057815178389
 30
0.0
 11
-143.3447893127682
 21
-150.00047599996859
 31
0.0
  0
LINE
  8
DETAIL
  6
CONTINUOUS
 62
     5
 10
-167.4372750069324
 20
-126.01800165600621
 30
0.0
 11
-168.3723714836465
 21
-124.4778427531826
 31
0.0
  0
LINE
  8
DETAIL
  6
CONTINUOUS
 62
     5
 10
-168.3723714836465
 20
-124.4778427531826
 30
0.0
 11
-169.14245093505821
 21
-122.7726668250571
 31
0.0
  0
LINE
  8
DETAIL
  6
CONTINUOUS
 62
     5
 10
-169.14245093505821
 20
-122.7726668250571
 30
0.0
 11
-169.47248498566341
 21
-121.0124852218303
 31
0.0
  0
LINE
  8
DETAIL
  6
CONTINUOUS
 62
     5
 10
-167.4372750069324
 20
-126.01800165600621
 30
0.0
 11
-143.3447893127682
 21
-150.00047599996859
 31
0.0
  0
LINE
  8
DETAIL
  6
CONTINUOUS
 62
     5
 10
-112.4866055812013
 20
-106.8210210458155
 30
0.0
 11
-112.4866055812013
 21
-102.805606763455
 31
0.0
  0
LINE
  8
DETAIL
  6
CONTINUOUS
 62
     5
 10
-92.849579570204241
 20
-138.50428990389469
 30
0.0
 11
-86.963972334415303
 21
-138.50428990389469
 31
0.0
  0
LINE
  8
DETAIL
  6
CONTINUOUS
 62
     5
 10
-99.450260582304054
 20
-144.9949595657931
 30
0.0
 11
-99.450260582304054
 21
-150.99057815178389
 31
0.0
  0
LINE
  8
DETAIL
  6
CONTINUOUS
 62
     5
 10
-99.450260582304054
 20
-144.9949595657931
 30
0.0
 11
-98.955209506396841
 21
-143.01475526216311
 31
0.0
  0
LINE
  8
DETAIL
  6
CONTINUOUS
 62
     5
 10
-98.955209506396841
 20
-143.01475526216311
 30
0.0
 11
-98.185130054984711
 21
-141.19956798383581
 31
0.0
  0
LINE
  8
DETAIL
  6
CONTINUOUS
 62
     5
 10
-98.185130054984711
 20
-141.19956798383581
 30
0.0
 11
-96.644971152161787
 21
-139.714414756113
 31
0.0
  0
LINE
  8
DETAIL
  6
CONTINUOUS
 62
     5
 10
-96.644971152161787
 20
-139.714414756113
 30
0.0
 11
-94.994800899136862
 21
-138.99934097980241
 31
0.0
  0
LINE
  8
DETAIL
  6
CONTINUOUS
 62
     5
 10
-94.994800899136862
 20
-138.99934097980241
 30
0.0
 11
-92.849579570204241
 21
-138.50428990389469
 31
0.0
  0
LINE
  8
DETAIL
  6
CONTINUOUS
 62
     5
 10
-169.47248498566341
 20
-102.805606763455
 30
0.0
 11
-169.47248498566341
 21
-121.0124852218303
 31
0.0
  0
LINE
  8
DETAIL
  6
CONTINUOUS
 62
     5
 10
-169.47248498566341
 20
-102.805606763455
 30
0.0
 11
-106.4909869952107
 21
-102.805606763455
 31
0.0
  0
LINE
  8
DETAIL
  6
CONTINUOUS
 62
     5
 10
-138.33927287859211
 20
-151.9806803035988
 30
0.0
 11
-90.869375266574025
 21
-151.9806803035988
 31
0.0
  0
LINE
  8
DETAIL
  6
CONTINUOUS
 62
     5
 10
-84.488716954877873
 20
-142.18967013565069
 30
0.0
 11
-83.993665878970205
 21
-144.49990848988551
 31
0.0
  0
LINE
  8
DETAIL
  6
CONTINUOUS
 62
     5
 10
-83.993665878970205
 20
-144.49990848988551
 30
0.0
 11
-84.158682904272609
 21
-146.81014684412051
 31
0.0
  0
LINE
  8
DETAIL
  6
CONTINUOUS
 62
     5
 10
-84.158682904272609
 20
-146.81014684412051
 30
0.0
 11
-85.148785056087945
 21
-148.68033979754861
 31
0.0
  0
LINE
  8
DETAIL
  6
CONTINUOUS
 62
     5
 10
-85.148785056087945
 20
-148.68033979754861
 30
0.0
 11
-86.688943958911295
 21
-150.495527075876
 31
0.0
  0
LINE
  8
DETAIL
  6
CONTINUOUS
 62
     5
 10
-86.688943958911295
 20
-150.495527075876
 30
0.0
 11
-88.669148262541057
 21
-151.48562922769131
 31
0.0
  0
LINE
  8
DETAIL
  6
CONTINUOUS
 62
     5
 10
-88.669148262541057
 20
-151.48562922769131
 30
0.0
 11
-90.869375266574025
 21
-151.9806803035988
 31
0.0
  0
LINE
  8
DETAIL
  6
CONTINUOUS
 62
     5
 10
-123.65275762667029
 20
-135.47897777334919
 30
0.0
 11
-125.1379108543924
 21
-135.31396074804661
 31
0.0
  0
LINE
  8
DETAIL
  6
CONTINUOUS
 62
     5
 10
-125.1379108543924
 20
-135.31396074804661
 30
0.0
 11
-126.67806975721579
 21
-134.48887562153411
 31
0.0
  0
LINE
  8
DETAIL
  6
CONTINUOUS
 62
     5
 10
-126.67806975721579
 20
-134.48887562153411
 30
0.0
 11
-127.6681719090311
 21
-133.49877346971931
 31
0.0
  0
LINE
  8
DETAIL
  6
CONTINUOUS
 62
     5
 10
-127.6681719090311
 20
-133.49877346971931
 30
0.0
 11
-128.38324568534151
 21
-132.0136202419969
 31
0.0
  0
LINE
  8
DETAIL
  6
CONTINUOUS
 62
     5
 10
-128.38324568534151
 20
-132.0136202419969
 30
0.0
 11
-128.658274060846
 21
-130.47346133917341
 31
0.0
  0
LINE
  8
DETAIL
  6
CONTINUOUS
 62
     5
 10
-128.658274060846
 20
-130.47346133917341
 30
0.0
 11
-128.38324568534151
 21
-128.988308111451
 31
0.0
  0
LINE
  8
DETAIL
  6
CONTINUOUS
 62
     5
 10
-128.38324568534151
 20
-128.988308111451
 30
0.0
 11
-127.6681719090311
 21
-127.5031548837285
 31
0.0
  0
LINE
  8
DETAIL
  6
CONTINUOUS
 62
     5
 10
-127.6681719090311
 20
-127.5031548837285
 30
0.0
 11
-126.67806975721579
 21
-126.5130527319136
 31
0.0
  0
LINE
  8
DETAIL
  6
CONTINUOUS
 62
     5
 10
-126.67806975721579
 20
-126.5130527319136
 30
0.0
 11
-125.1379108543924
 21
-125.7979789556025
 31
0.0
  0
LINE
  8
DETAIL
  6
CONTINUOUS
 62
     5
 10
-125.1379108543924
 20
-125.7979789556025
 30
0.0
 11
-123.65275762667029
 21
-125.46794490499769
 31
0.0
  0
LINE
  8
DETAIL
  6
CONTINUOUS
 62
     5
 10
-99.945311658211722
 20
-135.47897777334919
 30
0.0
 11
-123.65275762667029
 21
-135.47897777334919
 31
0.0
  0
LINE
  8
DETAIL
  6
CONTINUOUS
 62
     5
 10
-99.945311658211722
 20
-125.46794490499769
 30
0.0
 11
-98.35014708028757
 21
-125.7979789556025
 31
0.0
  0
LINE
  8
DETAIL
  6
CONTINUOUS
 62
     5
 10
-98.35014708028757
 20
-125.7979789556025
 30
0.0
 11
-96.975005202766624
 21
-126.7880811074176
 31
0.0
  0
LINE
  8
DETAIL
  6
CONTINUOUS
 62
     5
 10
-96.975005202766624
 20
-126.7880811074176
 30
0.0
 11
-95.654869000346935
 21
-127.9982059596359
 31
0.0
  0
LINE
  8
DETAIL
  6
CONTINUOUS
 62
     5
 10
-95.654869000346935
 20
-127.9982059596359
 30
0.0
 11
-95.159817924439267
 21
-129.4833591873585
 31
0.0
  0
LINE
  8
DETAIL
  6
CONTINUOUS
 62
     5
 10
-95.159817924439267
 20
-129.4833591873585
 30
0.0
 11
-95.159817924439267
 21
-131.188535115484
 31
0.0
  0
LINE
  8
DETAIL
  6
CONTINUOUS
 62
     5
 10
-95.159817924439267
 20
-131.188535115484
 30
0.0
 11
-95.654869000346935
 21
-133.00372239381181
 31
0.0
  0
LINE
  8
DETAIL
  6
CONTINUOUS
 62
     5
 10
-95.654869000346935
 20
-133.00372239381181
 30
0.0
 11
-96.975005202766624
 21
-134.2688529211307
 31
0.0
  0
LINE
  8
DETAIL
  6
CONTINUOUS
 62
     5
 10
-96.975005202766624
 20
-134.2688529211307
 30
0.0
 11
-98.35014708028757
 21
-135.31396074804661
 31
0.0
  0
LINE
  8
DETAIL
  6
CONTINUOUS
 62
     5
 10
-98.35014708028757
 20
-135.31396074804661
 30
0.0
 11
-99.945311658211722
 21
-135.47897777334919
 31
0.0
  0
LINE
  8
DETAIL
  6
CONTINUOUS
 62
     5
 10
-123.65275762667029
 20
-125.46794490499769
 30
0.0
 11
-99.945311658211722
 21
-125.46794490499769
 31
0.0
  0
LINE
  8
DETAIL
  6
CONTINUOUS
 62
     5
 10
-166.44717285511749
 20
-102.805606763455
 30
0.0
 11
-163.36685504947079
 21
-107.81112319763059
 31
0.0
  0
LINE
  8
DETAIL
  6
CONTINUOUS
 62
     5
 10
-160.67157696953021
 20
-102.805606763455
 30
0.0
 11
-163.36685504947079
 21
-107.81112319763059
 31
0.0
  0
LINE
  8
DETAIL
  6
CONTINUOUS
 62
     5
 10
-163.36685504947079
 20
-107.81112319763059
 30
0.0
 11
-163.36685504947079
 21
-102.805606763455
 31
0.0
  0
LINE
  8
DETAIL
  6
CONTINUOUS
 62
     5
 10
-132.67368834320629
 20
-102.805606763455
 30
0.0
 11
-135.36896642314741
 21
-107.81112319763059
 31
0.0
  0
LINE
  8
DETAIL
  6
CONTINUOUS
 62
     5
 10
-138.33927287859211
 20
-102.805606763455
 30
0.0
 11
-135.36896642314741
 21
-107.81112319763059
 31
0.0
  0
LINE
  8
DETAIL
  6
CONTINUOUS
 62
     5
 10
-135.36896642314741
 20
-107.81112319763059
 30
0.0
 11
-135.36896642314741
 21
-102.805606763455
 31
0.0
  0
LINE
  8
DETAIL
  6
CONTINUOUS
 62
     5
 10
-112.4866055812013
 20
-106.8210210458155
 30
0.0
 11
-98.68018113089235
 21
-106.8210210458155
 31
0.0
  0
LINE
  8
DETAIL
  6
CONTINUOUS
 62
     5
 10
-98.68018113089235
 20
-106.8210210458155
 30
0.0
 11
-96.644971152161787
 21
-107.20606077152139
 31
0.0
  0
LINE
  8
DETAIL
  6
CONTINUOUS
 62
     5
 10
-96.644971152161787
 20
-107.20606077152139
 30
0.0
 11
-94.664766848532054
 21
-107.9761402229331
 31
0.0
  0
LINE
  8
DETAIL
  6
CONTINUOUS
 62
     5
 10
-94.664766848532054
 20
-107.9761402229331
 30
0.0
 11
-93.17961362080905
 21
-109.5162991257566
 31
0.0
  0
LINE
  8
DETAIL
  6
CONTINUOUS
 62
     5
 10
-93.17961362080905
 20
-109.5162991257566
 30
0.0
 11
-92.189511468994169
 21
-111.2214750538822
 31
0.0
  0
LINE
  8
DETAIL
  6
CONTINUOUS
 62
     5
 10
-92.189511468994169
 20
-111.2214750538822
 30
0.0
 11
-91.694460393086501
 21
-113.31169070771379
 31
0.0
  0
LINE
  8
DETAIL
  6
CONTINUOUS
 62
     5
 10
-112.4866055812013
 20
-104.67579971688311
 30
0.0
 11
-106.4909869952107
 21
-104.67579971688311
 31
0.0
  0
LINE
  8
DETAIL
  6
CONTINUOUS
 62
     5
 10
-84.488716954877873
 20
-142.18967013565069
 30
0.0
 11
-87.844063136028581
 21
-132.78369969340841
 31
0.0
  0
LINE
  8
DETAIL
  6
CONTINUOUS
 62
     5
 10
-87.844063136028581
 20
-132.78369969340841
 30
0.0
 11
-90.374324190666783
 21
-123.2677179009645
 31
0.0
  0
LINE
  8
DETAIL
  6
CONTINUOUS
 62
     5
 10
-90.374324190666783
 20
-123.2677179009645
 30
0.0
 11
-91.694460393086501
 21
-113.31169070771379
 31
0.0
  0
LINE
  8
DETAIL
  6
CONTINUOUS
 62
     5
 10
-98.955209506396841
 20
-144.9949595657931
 30
0.0
 11
-98.35014708028757
 21
-143.01475526216311
 31
0.0
  0
LINE
  8
DETAIL
  6
CONTINUOUS
 62
     5
 10
-98.35014708028757
 20
-143.01475526216311
 30
0.0
 11
-97.690078979077498
 21
-141.19956798383581
 31
0.0
  0
LINE
  8
DETAIL
  6
CONTINUOUS
 62
     5
 10
-97.690078979077498
 20
-141.19956798383581
 30
0.0
 11
-96.149920076254148
 21
-139.98944313161721
 31
0.0
  0
LINE
  8
DETAIL
  6
CONTINUOUS
 62
     5
 10
-96.149920076254148
 20
-139.98944313161721
 30
0.0
 11
-94.444744148128393
 21
-139.27436935530659
 31
0.0
  0
LINE
  8
DETAIL
  6
CONTINUOUS
 62
     5
 10
-94.444744148128393
 20
-139.27436935530659
 30
0.0
 11
-92.464539844498631
 21
-138.99934097980241
 31
0.0
  0
LINE
  8
DETAIL
  6
CONTINUOUS
 62
     5
 10
-92.464539844498631
 20
-138.99934097980241
 30
0.0
 11
-90.649352566170819
 21
-139.4943920557098
 31
0.0
  0
LINE
  8
DETAIL
  6
CONTINUOUS
 62
     5
 10
-90.649352566170819
 20
-139.4943920557098
 30
0.0
 11
-88.944176638045519
 21
-140.81452825812971
 31
0.0
  0
LINE
  8
DETAIL
  6
CONTINUOUS
 62
     5
 10
-88.944176638045519
 20
-140.81452825812971
 30
0.0
 11
-87.679046110726176
 21
-142.18967013565069
 31
0.0
  0
LINE
  8
DETAIL
  6
CONTINUOUS
 62
     5
 10
-87.679046110726176
 20
-142.18967013565069
 30
0.0
 11
-87.183995034818508
 21
-144.00485741397799
 31
0.0
  0
LINE
  8
DETAIL
  6
CONTINUOUS
 62
     5
 10
-87.183995034818508
 20
-144.00485741397799
 30
0.0
 11
-87.183995034818508
 21
-145.985061717608
 31
0.0
  0
LINE
  8
DETAIL
  6
CONTINUOUS
 62
     5
 10
-87.183995034818508
 20
-145.985061717608
 30
0.0
 11
-87.679046110726176
 21
-147.80024899593539
 31
0.0
  0
LINE
  8
DETAIL
  6
CONTINUOUS
 62
     5
 10
-87.679046110726176
 20
-147.80024899593539
 30
0.0
 11
-88.944176638045519
 21
-149.28540222365791
 31
0.0
  0
LINE
  8
DETAIL
  6
CONTINUOUS
 62
     5
 10
-88.944176638045519
 20
-149.28540222365791
 30
0.0
 11
-90.649352566170819
 21
-150.27550437547279
 31
0.0
  0
LINE
  8
DETAIL
  6
CONTINUOUS
 62
     5
 10
-90.649352566170819
 20
-150.27550437547279
 30
0.0
 11
-92.464539844498631
 21
-150.7705554513802
 31
0.0
  0
LINE
  8
DETAIL
  6
CONTINUOUS
 62
     5
 10
-92.464539844498631
 20
-150.7705554513802
 30
0.0
 11
-94.444744148128393
 21
-150.7705554513802
 31
0.0
  0
LINE
  8
DETAIL
  6
CONTINUOUS
 62
     5
 10
-94.444744148128393
 20
-150.7705554513802
 30
0.0
 11
-96.149920076254148
 21
-150.00047599996859
 31
0.0
  0
LINE
  8
DETAIL
  6
CONTINUOUS
 62
     5
 10
-96.149920076254148
 20
-150.00047599996859
 30
0.0
 11
-97.690078979077498
 21
-148.51532277224601
 31
0.0
  0
LINE
  8
DETAIL
  6
CONTINUOUS
 62
     5
 10
-97.690078979077498
 20
-148.51532277224601
 30
0.0
 11
-98.35014708028757
 21
-146.97516386942289
 31
0.0
  0
LINE
  8
DETAIL
  6
CONTINUOUS
 62
     5
 10
-98.35014708028757
 20
-146.97516386942289
 30
0.0
 11
-98.955209506396841
 21
-144.9949595657931
 31
0.0
  0
LINE
  8
DETAIL
  6
CONTINUOUS
 62
     5
 10
-94.664766848532054
 20
-143.2897836376674
 30
0.0
 11
-91.144403642078487
 21
-146.81014684412051
 31
0.0
  0
LINE
  8
DETAIL
  6
CONTINUOUS
 62
     5
 10
-91.144403642078487
 20
-143.2897836376674
 30
0.0
 11
-94.664766848532054
 21
-146.81014684412051
 31
0.0
  0
LINE
  8
DETAIL
  6
CONTINUOUS
 62
     5
 10
87.01897800951609
 20
-144.9949595657931
 30
0.0
 11
87.624040435625375
 21
-143.01475526216311
 31
0.0
  0
LINE
  8
DETAIL
  6
CONTINUOUS
 62
     5
 10
87.624040435625375
 20
-143.01475526216311
 30
0.0
 11
88.339114211936263
 21
-141.19956798383581
 31
0.0
  0
LINE
  8
DETAIL
  6
CONTINUOUS
 62
     5
 10
88.339114211936263
 20
-141.19956798383581
 30
0.0
 11
89.824267439658342
 21
-139.98944313161721
 31
0.0
  0
LINE
  8
DETAIL
  6
CONTINUOUS
 62
     5
 10
89.824267439658342
 20
-139.98944313161721
 30
0.0
 11
91.6394547179857
 21
-139.27436935530659
 31
0.0
  0
LINE
  8
DETAIL
  6
CONTINUOUS
 62
     5
 10
91.6394547179857
 20
-139.27436935530659
 30
0.0
 11
93.509647671413859
 21
-138.99934097980241
 31
0.0
  0
LINE
  8
DETAIL
  6
CONTINUOUS
 62
     5
 10
93.509647671413859
 20
-138.99934097980241
 30
0.0
 11
95.324834949741685
 21
-139.4943920557098
 31
0.0
  0
LINE
  8
DETAIL
  6
CONTINUOUS
 62
     5
 10
95.324834949741685
 20
-139.4943920557098
 30
0.0
 11
97.030010877867412
 21
-140.81452825812971
 31
0.0
  0
LINE
  8
DETAIL
  6
CONTINUOUS
 62
     5
 10
97.030010877867412
 20
-140.81452825812971
 30
0.0
 11
98.295141405186769
 21
-142.18967013565069
 31
0.0
  0
LINE
  8
DETAIL
  6
CONTINUOUS
 62
     5
 10
98.295141405186769
 20
-142.18967013565069
 30
0.0
 11
98.790192481093982
 21
-144.00485741397799
 31
0.0
  0
LINE
  8
DETAIL
  6
CONTINUOUS
 62
     5
 10
98.790192481093982
 20
-144.00485741397799
 30
0.0
 11
98.790192481093982
 21
-145.985061717608
 31
0.0
  0
LINE
  8
DETAIL
  6
CONTINUOUS
 62
     5
 10
98.790192481093982
 20
-145.985061717608
 30
0.0
 11
98.295141405186769
 21
-147.80024899593539
 31
0.0
  0
LINE
  8
DETAIL
  6
CONTINUOUS
 62
     5
 10
98.295141405186769
 20
-147.80024899593539
 30
0.0
 11
97.030010877867412
 21
-149.28540222365791
 31
0.0
  0
LINE
  8
DETAIL
  6
CONTINUOUS
 62
     5
 10
97.030010877867412
 20
-149.28540222365791
 30
0.0
 11
95.324834949741685
 21
-150.27550437547279
 31
0.0
  0
LINE
  8
DETAIL
  6
CONTINUOUS
 62
     5
 10
95.324834949741685
 20
-150.27550437547279
 30
0.0
 11
93.509647671413859
 21
-150.7705554513802
 31
0.0
  0
LINE
  8
DETAIL
  6
CONTINUOUS
 62
     5
 10
93.509647671413859
 20
-150.7705554513802
 30
0.0
 11
91.6394547179857
 21
-150.7705554513802
 31
0.0
  0
LINE
  8
DETAIL
  6
CONTINUOUS
 62
     5
 10
91.6394547179857
 20
-150.7705554513802
 30
0.0
 11
89.824267439658342
 21
-150.00047599996859
 31
0.0
  0
LINE
  8
DETAIL
  6
CONTINUOUS
 62
     5
 10
89.824267439658342
 20
-150.00047599996859
 30
0.0
 11
88.339114211936263
 21
-148.51532277224601
 31
0.0
  0
LINE
  8
DETAIL
  6
CONTINUOUS
 62
     5
 10
88.339114211936263
 20
-148.51532277224601
 30
0.0
 11
87.624040435625375
 21
-146.97516386942289
 31
0.0
  0
LINE
  8
DETAIL
  6
CONTINUOUS
 62
     5
 10
87.624040435625375
 20
-146.97516386942289
 30
0.0
 11
87.01897800951609
 21
-144.9949595657931
 31
0.0
  0
LINE
  8
DETAIL
  6
CONTINUOUS
 62
     5
 10
91.309420667380863
 20
-143.2897836376674
 30
0.0
 11
94.829783873834003
 21
-146.81014684412051
 31
0.0
  0
LINE
  8
DETAIL
  6
CONTINUOUS
 62
     5
 10
94.829783873834003
 20
-143.2897836376674
 30
0.0
 11
91.309420667380863
 21
-146.81014684412051
 31
0.0
  0
LINE
  8
OUTLINE
  6
CONTINUOUS
 62
     3
 10
100.49536840921969
 20
-226.5133700652261
 30
0.0
 11
-100.38535705901811
 21
-226.5133700652261
 31
0.0
  0
LINE
  8
OUTLINE
  6
CONTINUOUS
 62
     3
 10
100.49536840921969
 20
-225.6882849387132
 30
0.0
 11
91.03439229187687
 21
-225.6882849387132
 31
0.0
  0
LINE
  8
OUTLINE
  6
CONTINUOUS
 62
     3
 10
59.131100733394312
 20
-225.6882849387132
 30
0.0
 11
41.034233625220622
 21
-225.6882849387132
 31
0.0
  0
LINE
  8
OUTLINE
  6
CONTINUOUS
 62
     3
 10
34.103518562516001
 20
-225.6882849387132
 30
0.0
 11
16.00665145434186
 21
-225.6882849387132
 31
0.0
  0
LINE
  8
OUTLINE
  6
CONTINUOUS
 62
     3
 10
9.1309420667380436
 20
-225.6882849387132
 30
0.0
 11
-8.9659250414356393
 21
-225.6882849387132
 31
0.0
  0
LINE
  8
OUTLINE
  6
CONTINUOUS
 62
     3
 10
-15.896640104140261
 20
-225.6882849387132
 30
0.0
 11
-33.993507212313943
 21
-225.6882849387132
 31
0.0
  0
LINE
  8
OUTLINE
  6
CONTINUOUS
 62
     3
 10
-40.869216599918218
 20
-225.6882849387132
 30
0.0
 11
-58.966083708091901
 21
-225.6882849387132
 31
0.0
  0
LINE
  8
OUTLINE
  6
CONTINUOUS
 62
     3
 10
-65.896798770796977
 20
-225.6882849387132
 30
0.0
 11
-83.993665878970205
 21
-225.6882849387132
 31
0.0
  0
LINE
  8
OUTLINE
  6
CONTINUOUS
 62
     3
 10
-90.869375266574025
 20
-225.6882849387132
 30
0.0
 11
-100.38535705901811
 21
-225.6882849387132
 31
0.0
  0
LINE
  8
OUTLINE
  6
CONTINUOUS
 62
     3
 10
-100.38535705901811
 20
-226.5133700652261
 30
0.0
 11
-100.38535705901811
 21
-225.6882849387132
 31
0.0
  0
LINE
  8
OUTLINE
  6
CONTINUOUS
 62
     3
 10
100.49536840921969
 20
-225.6882849387132
 30
0.0
 11
100.49536840921969
 21
-226.5133700652261
 31
0.0
  0
LINE
  8
OUTLINE
  6
CONTINUOUS
 62
     3
 10
-100.38535705901811
 20
-0.0000000000002274
 30
0.0
 11
-100.38535705901811
 21
-1.2101248522183139
 31
0.0
  0
LINE
  8
OUTLINE
  6
CONTINUOUS
 62
     3
 10
100.49536840921969
 20
-0.0000000000002274
 30
0.0
 11
100.49536840921969
 21
-1.2101248522183139
 31
0.0
  0
LINE
  8
OUTLINE
  6
CONTINUOUS
 62
     3
 10
-110.34138425226909
 20
-225.6882849387132
 30
0.0
 11
110.5064012775715
 21
-225.6882849387132
 31
0.0
  0
LINE
  8
OUTLINE
  6
CONTINUOUS
 62
     3
 10
-100.38535705901811
 20
-0.0000000000002274
 30
0.0
 11
100.49536840921969
 21
-0.0000000000002274
 31
0.0
  0
LINE
  8
OUTLINE
  6
CONTINUOUS
 62
     3
 10
-107.4810891470256
 20
-1.2101248522183139
 30
0.0
 11
-100.38535705901811
 21
-1.2101248522183139
 31
0.0
  0
LINE
  8
OUTLINE
  6
CONTINUOUS
 62
     3
 10
100.49536840921969
 20
-1.2101248522183139
 30
0.0
 11
107.5911004972272
 21
-1.2101248522183139
 31
0.0
  0
LINE
  8
OUTLINE
  6
CONTINUOUS
 62
     3
 10
-107.4810891470256
 20
-1.2101248522183139
 30
0.0
 11
-108.96624237474821
 21
-2.8052894301424658
 31
0.0
  0
LINE
  8
OUTLINE
  6
CONTINUOUS
 62
     3
 10
109.1312594000506
 20
-2.8052894301424658
 30
0.0
 11
107.5911004972272
 21
-1.2101248522183139
 31
0.0
  0
LINE
  8
OUTLINE
  6
CONTINUOUS
 62
     3
 10
110.5064012775715
 20
-223.70808063508341
 30
0.0
 11
110.5064012775715
 21
-225.6882849387132
 31
0.0
  0
LINE
  8
OUTLINE
  6
CONTINUOUS
 62
     3
 10
-110.34138425226909
 20
-223.70808063508341
 30
0.0
 11
-110.34138425226909
 21
-225.6882849387132
 31
0.0
  0
LINE
  8
OUTLINE
  6
CONTINUOUS
 62
     3
 10
-111.44149775428509
 20
-151.9806803035988
 30
0.0
 11
-111.44149775428509
 21
-223.70808063508341
 31
0.0
  0
LINE
  8
OUTLINE
  6
CONTINUOUS
 62
     3
 10
-102.6405897381524
 20
-225.6882849387132
 30
0.0
 11
-110.34138425226909
 21
-225.6882849387132
 31
0.0
  0
LINE
  8
OUTLINE
  6
CONTINUOUS
 62
     3
 10
-110.17636722696621
 20
-225.6882849387132
 30
0.0
 11
-110.34138425226909
 21
-225.6882849387132
 31
0.0
  0
LINE
  8
OUTLINE
  6
CONTINUOUS
 62
     3
 10
-111.44149775428509
 20
-223.70808063508341
 30
0.0
 11
-107.4810891470256
 21
-223.70808063508341
 31
0.0
  0
LINE
  8
OUTLINE
  6
CONTINUOUS
 62
     3
 10
-111.44149775428509
 20
-2.8052894301424658
 30
0.0
 11
-111.44149775428509
 21
-151.9806803035988
 31
0.0
  0
LINE
  8
OUTLINE
  6
CONTINUOUS
 62
     3
 10
-107.4810891470256
 20
-2.8052894301424658
 30
0.0
 11
-111.44149775428509
 21
-2.8052894301424658
 31
0.0
  0
LINE
  8
OUTLINE
  6
CONTINUOUS
 62
     3
 10
110.5064012775715
 20
-225.6882849387132
 30
0.0
 11
102.8056067634548
 21
-225.6882849387132
 31
0.0
  0
LINE
  8
OUTLINE
  6
CONTINUOUS
 62
     3
 10
110.5064012775715
 20
-224.97321116240281
 30
0.0
 11
110.5064012775715
 21
-225.6882849387132
 31
0.0
  0
LINE
  8
OUTLINE
  6
CONTINUOUS
 62
     3
 10
111.606514779588
 20
-2.8052894301424658
 30
0.0
 11
107.5911004972272
 21
-2.8052894301424658
 31
0.0
  0
LINE
  8
OUTLINE
  6
CONTINUOUS
 62
     3
 10
111.606514779588
 20
-223.70808063508341
 30
0.0
 11
107.5911004972272
 21
-223.70808063508341
 31
0.0
  0
LINE
  8
OUTLINE
  6
CONTINUOUS
 62
     3
 10
111.606514779588
 20
-223.70808063508341
 30
0.0
 11
111.606514779588
 21
-218.7025642009078
 31
0.0
  0
LINE
  8
OUTLINE
  6
CONTINUOUS
 62
     3
 10
112.3215885558989
 20
-222.9930068587725
 30
0.0
 11
111.606514779588
 21
-222.9930068587725
 31
0.0
  0
LINE
  8
OUTLINE
  6
CONTINUOUS
 62
     3
 10
112.3215885558989
 20
-3.520363206453339
 30
0.0
 11
111.606514779588
 21
-3.520363206453339
 31
0.0
  0
LINE
  8
OUTLINE
  6
CONTINUOUS
 62
     3
 10
112.3215885558989
 20
-182.01377890865271
 30
0.0
 11
112.3215885558989
 21
-222.9930068587725
 31
0.0
  0
LINE
  8
OUTLINE
  6
CONTINUOUS
 62
     3
 10
112.3215885558989
 20
-182.01377890865271
 30
0.0
 11
112.3215885558989
 21
-3.520363206453339
 31
0.0
  0
CIRCLE
  8
DETAIL
  6
CONTINUOUS
 62
     5
 10
0.0
 20
-113.31169070771379
 30
0.0
 40
71.0
  0
CIRCLE
  8
DETAIL
  6
CONTINUOUS
 62
     5
 10
0.0
 20
-113.31169070771379
 30
0.0
 40
80.0
  0
LINE
  8
SIZE
  6
CONTINUOUS
 62
    30
 10
416.22132968091933
 20
-257.90189405842892
 30
0.0
 11
78.403891145923652
 21
-140.54824432923789
 31
0.0
  0
LINE
  8
SIZE
  6
CONTINUOUS
 62
    30
 10
-78.403891145923637
 20
-86.07513708618967
 30
0.0
 11
-89.73939348027406
 21
-82.137322104764493
 31
0.0
  0
TEXT
  8
SIZE
  6
CONTINUOUS
 62
    30
 10
208.5593614384091
 20
-159.29714089892539
 30
0.0
 40
64.0
  1
φ142
 50
340.84339784708629
 41
0.9
 72
     1
 11
311.42094833525732
 21
-195.0299991303722
 31
0.0
  0
LINE
  8
SIZE
  6
CONTINUOUS
 62
    30
 10
-67.068388811573243
 20
-90.012952067614847
 30
0.0
 11
67.068388811573271
 21
-136.6104293478127
 31
0.0
  0
CIRCLE
  8
SIZE
  6
CONTINUOUS
 62
    30
 10
-67.068388811573243
 20
-90.012952067614847
 30
0.0
 40
6.0
  0
LINE
  8
SIZE
  6
CONTINUOUS
 62
    30
 10
-67.068388811573243
 20
-90.012952067614847
 30
0.0
 11
-78.403891145923637
 21
-86.075137086189685
 31
0.0
  0
CIRCLE
  8
SIZE
  6
CONTINUOUS
 62
    30
 10
67.068388811573271
 20
-136.6104293478127
 30
0.0
 40
6.0
  0
LINE
  8
SIZE
  6
CONTINUOUS
 62
    30
 10
67.068388811573271
 20
-136.6104293478127
 30
0.0
 11
78.403891145923694
 21
-140.54824432923789
 31
0.0
  0
POINT
  8
DEFPOINTS
  6
CONTINUOUS
 62
    30
 10
67.068388811573271
 20
-136.6104293478127
 30
0.0
  0
POINT
  8
DEFPOINTS
  6
CONTINUOUS
 62
    30
 10
-67.068388811573243
 20
-90.012952067614847
 30
0.0
  0
LINE
  8
SIZE
  6
CONTINUOUS
 62
    30
 10
475.70199888488418
 20
3.4955595376945889
 30
0.0
 11
89.345935793612981
 21
-91.373054533977125
 31
0.0
  0
LINE
  8
SIZE
  6
CONTINUOUS
 62
    30
 10
-89.345935793612966
 20
-135.25032688145041
 30
0.0
 11
-100.99975350582341
 21
-138.111888121503
 31
0.0
  0
TEXT
  8
SIZE
  6
CONTINUOUS
 62
    30
 10
247.81287766858151
 20
-26.719318109935479
 30
0.0
 40
64.0
  1
φ160
 50
13.79586888544571
 41
0.9
 72
     1
 11
353.56294925138201
 21
-0.7526938287724363
 31
0.0
  0
LINE
  8
SIZE
  6
CONTINUOUS
 62
    30
 10
-77.692118081402583
 20
-132.38876564139781
 30
0.0
 11
77.692118081402583
 21
-94.234615774029706
 31
0.0
  0
CIRCLE
  8
SIZE
  6
CONTINUOUS
 62
    30
 10
-77.692118081402583
 20
-132.38876564139781
 30
0.0
 40
6.0
  0
LINE
  8
SIZE
  6
CONTINUOUS
 62
    30
 10
-77.692118081402583
 20
-132.38876564139781
 30
0.0
 11
-89.345935793612966
 21
-135.25032688145041
 31
0.0
  0
CIRCLE
  8
SIZE
  6
CONTINUOUS
 62
    30
 10
77.692118081402583
 20
-94.234615774029706
 30
0.0
 40
6.0
  0
LINE
  8
SIZE
  6
CONTINUOUS
 62
    30
 10
77.692118081402583
 20
-94.234615774029706
 30
0.0
 11
89.345935793612952
 21
-91.373054533977125
 31
0.0
  0
POINT
  8
DEFPOINTS
  6
CONTINUOUS
 62
    30
 10
77.692118081402583
 20
-94.234615774029706
 30
0.0
  0
POINT
  8
DEFPOINTS
  6
CONTINUOUS
 62
    30
 10
-77.692118081402583
 20
-132.38876564139781
 30
0.0
  0
ENDSEC
  0
EOF
