  0
SECTION
  2
HEADER
  9
$ACADVER
  1
AC1009
  9
$DWGCODEPAGE
  3
dos932
  9
$INSBASE
 10
0.0
 20
0.0
 30
0.0
  9
$EXTMIN
 10
-483.54948278696969
 20
-453.73533986710942
 30
-0.0015258207003583
  9
$EXTMAX
 10
867.8512687071343
 20
441.87928030951662
 30
50.000000093132272
  9
$LIMMIN
 10
-2970.0
 20
-2100.0
  9
$LIMMAX
 10
2970.0
 20
2100.0
  9
$ORTHOMODE
 70
     1
  9
$REGENMODE
 70
     1
  9
$FILLMODE
 70
     1
  9
$QTEXTMODE
 70
     0
  9
$MIRRTEXT
 70
     0
  9
$LTSCALE
 40
20.0
  9
$ATTMODE
 70
     1
  9
$TEXTSIZE
 40
64.0
  9
$TRACEWID
 40
0.05
  9
$TEXTSTYLE
  7
STANDARD
  9
$CLAYER
  8
SIZE
  9
$CELTYPE
  6
CONTINUOUS
  9
$CECOLOR
 62
     7
  9
$DIMSCALE
 40
1.0
  9
$DIMASZ
 40
12.0
  9
$DIMEXO
 40
20.0
  9
$DIMDLI
 40
200.0
  9
$DIMRND
 40
0.0
  9
$DIMDLE
 40
0.0
  9
$DIMEXE
 40
20.0
  9
$DIMTP
 40
0.0
  9
$DIMTM
 40
0.0
  9
$DIMTXT
 40
64.0
  9
$DIMCEN
 40
0.09
  9
$DIMTSZ
 40
0.0
  9
$DIMTOL
 70
     0
  9
$DIMLIM
 70
     0
  9
$DIMTIH
 70
     0
  9
$DIMTOH
 70
     0
  9
$DIMSE1
 70
     0
  9
$DIMSE2
 70
     0
  9
$DIMTAD
 70
     1
  9
$DIMZIN
 70
     8
  9
$DIMBLK
  1

  9
$DIMASO
 70
     1
  9
$DIMSHO
 70
     0
  9
$DIMPOST
  1

  9
$DIMAPOST
  1

  9
$DIMALT
 70
     0
  9
$DIMALTD
 70
     2
  9
$DIMALTF
 40
25.399999999999999
  9
$DIMLFAC
 40
1.0
  9
$DIMTOFL
 70
     1
  9
$DIMTVP
 40
0.0
  9
$DIMTIX
 70
     1
  9
$DIMSOXD
 70
     0
  9
$DIMSAH
 70
     0
  9
$DIMBLK1
  1

  9
$DIMBLK2
  1

  9
$DIMSTYLE
  2
STANDARD
  9
$DIMCLRD
 70
     7
  9
$DIMCLRE
 70
     7
  9
$DIMCLRT
 70
     7
  9
$DIMTFAC
 40
1.0
  9
$DIMGAP
 40
25.0
  9
$LUNITS
 70
     2
  9
$LUPREC
 70
     4
  9
$SKETCHINC
 40
0.1
  9
$FILLETRAD
 40
3.0
  9
$AUNITS
 70
     1
  9
$AUPREC
 70
     3
  9
$MENU
  1
ACAD
  9
$ELEVATION
 40
0.0
  9
$PELEVATION
 40
0.0
  9
$THICKNESS
 40
0.0
  9
$LIMCHECK
 70
     0
  9
$CHAMFERA
 40
0.0
  9
$CHAMFERB
 40
0.0
  9
$SKPOLY
 70
     0
  9
$TDCREATE
 40
2453019.62301037
  9
$TDUPDATE
 40
2459268.669192326
  9
$TDINDWG
 40
1.7163701505
  9
$TDUSRTIMER
 40
1.7163701505
  9
$USRTIMER
 70
     1
  9
$ANGBASE
 50
0.0
  9
$ANGDIR
 70
     0
  9
$PDMODE
 70
     3
  9
$PDSIZE
 40
-2.0
  9
$PLINEWID
 40
0.0
  9
$SPLFRAME
 70
     0
  9
$SPLINETYPE
 70
     6
  9
$SPLINESEGS
 70
     8
  9
$SURFTAB1
 70
     6
  9
$SURFTAB2
 70
     6
  9
$SURFTYPE
 70
     6
  9
$SURFU
 70
     6
  9
$SURFV
 70
     6
  9
$UCSNAME
  2

  9
$UCSORG
 10
0.0
 20
0.0
 30
0.0
  9
$UCSXDIR
 10
1.0
 20
0.0
 30
0.0
  9
$UCSYDIR
 10
0.0
 20
1.0
 30
0.0
  9
$PUCSNAME
  2

  9
$PUCSORG
 10
0.0
 20
0.0
 30
0.0
  9
$PUCSXDIR
 10
1.0
 20
0.0
 30
0.0
  9
$PUCSYDIR
 10
0.0
 20
1.0
 30
0.0
  9
$USERI1
 70
     0
  9
$USERI2
 70
     0
  9
$USERI3
 70
     0
  9
$USERI4
 70
     0
  9
$USERI5
 70
     0
  9
$USERR1
 40
20.0
  9
$USERR2
 40
0.0
  9
$USERR3
 40
0.0
  9
$USERR4
 40
0.0
  9
$USERR5
 40
0.0
  9
$WORLDVIEW
 70
     1
  9
$SHADEDGE
 70
     3
  9
$SHADEDIF
 70
    70
  9
$TILEMODE
 70
     1
  9
$MAXACTVP
 70
    48
  9
$PINSBASE
 10
0.0
 20
0.0
 30
0.0
  9
$PLIMCHECK
 70
     0
  9
$PEXTMIN
 10
-100000000000000000000.0
 20
-100000000000000000000.0
 30
-100000000000000000000.0
  9
$PEXTMAX
 10
100000000000000000000.0
 20
100000000000000000000.0
 30
100000000000000000000.0
  9
$PLIMMIN
 10
0.0
 20
0.0
  9
$PLIMMAX
 10
12.0
 20
9.0
  9
$UNITMODE
 70
     0
  9
$VISRETAIN
 70
     0
  9
$PLINEGEN
 70
     0
  9
$PSLTSCALE
 70
     0
  9
$TREEDEPTH
 70
  3020
  9
$ATTDIA
 70
     0
  9
$ATTREQ
 70
     1
  9
$BLIPMODE
 70
     1
  9
$COORDS
 70
     1
  9
$DRAGMODE
 70
     2
  9
$OSMODE
 70
     0
  9
$HANDLING
 70
     0
  9
$HANDSEED
  5
1064F
  0
ENDSEC
  0
SECTION
  2
TABLES
  0
TABLE
  2
LTYPE
 70
     2
  0
LTYPE
  2
CONTINUOUS
 70
     0
  3
実線
 72
    65
 73
     0
 40
0.0
  0
LTYPE
  2
DASHDOT
 70
     0
  3
____ _ ____ _ ____ _ ____ _ ____ _ ____ _ ____
 72
    65
 73
     4
 40
5.5
 49
4.0
 49
-0.6
 49
0.3
 49
-0.6
  0
ENDTAB
  0
TABLE
  2
LAYER
 70
    12
  0
LAYER
  2
0
 70
     0
 62
     7
  6
CONTINUOUS
  0
LAYER
  2
BASIS
 70
     0
 62
     6
  6
DASHDOT
  0
LAYER
  2
OUTLINE
 70
     0
 62
     3
  6
CONTINUOUS
  0
LAYER
  2
DETAIL
 70
     0
 62
     5
  6
CONTINUOUS
  0
LAYER
  2
SIZE
 70
     0
 62
    30
  6
CONTINUOUS
  0
LAYER
  2
ARRANGE
 70
     0
 62
     1
  6
CONTINUOUS
  0
LAYER
  2
DEFPOINTS
 70
     0
 62
     7
  6
CONTINUOUS
  0
LAYER
  2
ETC
 70
     0
 62
    61
  6
CONTINUOUS
  0
LAYER
  2
FIX
 70
     0
 62
    11
  6
CONTINUOUS
  0
LAYER
  2
NOTE
 70
     0
 62
     4
  6
CONTINUOUS
  0
LAYER
  2
SERVICESPACE
 70
    64
 62
     2
  6
DASHDOT
  0
LAYER
  2
SYMBOLLINE
 70
    64
 62
    15
  6
CONTINUOUS
  0
ENDTAB
  0
TABLE
  2
STYLE
 70
     1
  0
STYLE
  2
STANDARD
 70
     0
 40
64.0
 41
0.9
 50
0.0
 71
     0
 42
64.0
  3
SIMPLEX.shx
  4
BIGFONT.shx
  0
ENDTAB
  0
TABLE
  2
APPID
 70
    19
  0
APPID
  2
ACAD
 70
     0
  0
APPID
  2
AUTOCAD_POSTSCRIPT_FIGURE
 70
     0
  0
APPID
  2
ACAD_EXEMPT_FROM_CAD_STANDARDS
 70
     0
  0
APPID
  2
ACAD_PSEXT
 70
     0
  0
APPID
  2
ACAUTHENVIRON
 70
     0
  0
APPID
  2
GENIUS_GENOENT_13
 70
     0
  0
APPID
  2
GENIUS_GENCFG_13
 70
     0
  0
APPID
  2
GENIUS_GENCFG0_13
 70
     0
  0
APPID
  2
GENIUS_GENCFG1_13
 70
     0
  0
APPID
  2
GENIUS_GENCFG2_13
 70
     0
  0
APPID
  2
GENIUS_GENCFG3_13
 70
     0
  0
APPID
  2
GENIUS_GENCFG4_13
 70
     0
  0
APPID
  2
GENIUS_GEVCFG0_13
 70
     0
  0
APPID
  2
CONTENTBLOCKICON
 70
     0
  0
APPID
  2
CONTENTBLOCKDESCRIPTION
 70
     0
  0
APPID
  2
ACAD_NAV_VCDISPLAY
 70
     0
  0
APPID
  2
ACAD_MLEADERVER
 70
     0
  0
APPID
  2
ACDBDYNAMICBLOCKTRUENAME
 70
     0
  0
APPID
  2
ACDBDYNAMICBLOCKGUID
 70
     0
  0
ENDTAB
  0
TABLE
  2
DIMSTYLE
 70
     1
  0
DIMSTYLE
  2
STANDARD
 70
     0
  3

  4

  5
_ORIGIN
  6

  7

 40
1.0
 41
12.0
 42
20.0
 43
200.0
 44
20.0
 45
0.0
 46
0.0
 47
0.0
 48
0.0
140
64.0
141
0.09
142
0.0
143
25.399999999999999
144
1.0
145
0.0
146
1.0
147
25.0
 71
     0
 72
     0
 73
     0
 74
     0
 75
     0
 76
     0
 77
     1
 78
     8
170
     0
171
     2
172
     1
173
     0
174
     1
175
     0
176
     7
177
     7
178
     7
  0
ENDTAB
  0
TABLE
  2
VIEW
 70
     1
  0
VIEW
  2
ALL
 70
     0
 40
4282.6198079999986
 10
0.0
 20
41.309904000000003
 41
5940.0
 11
0.0
 21
0.0
 31
1.0
 12
0.0
 22
0.0
 32
0.0
 42
50.0
 43
0.0
 44
0.0
 50
0.0
 71
     0
  0
ENDTAB
  0
TABLE
  2
UCS
 70
     0
  0
ENDTAB
  0
TABLE
  2
VPORT
 70
     1
  0
VPORT
  2
*ACTIVE
 70
     0
 10
0.0
 20
0.0
 11
1.0
 21
1.0
 12
192.15089296008219
 22
-5.9280297787963718
 13
0.0
 23
0.0
 14
1.0
 24
1.0
 15
0.0
 25
0.0
 16
0.0
 26
0.0
 36
1.0
 17
0.0
 27
0.0
 37
0.0
 40
901.618740535352
 41
1.767337807606264
 42
50.0
 43
0.0
 44
0.0
 50
0.0
 51
0.0
 71
     0
 72
  1000
 73
     1
 74
     3
 75
     0
 76
     0
 77
     0
 78
     0
  0
ENDTAB
  0
ENDSEC
  0
SECTION
  2
BLOCKS
  0
BLOCK
  8
0
  2
_ORIGIN
 70
     0
 10
0.0
 20
0.0
 30
0.0
  3
_ORIGIN
  1
_ORIGIN
  0
CIRCLE
  8
SIZE
  6
CONTINUOUS
 62
    30
 10
0.0
 20
0.0
 30
0.0
 40
0.5
  0
LINE
  8
SIZE
  6
CONTINUOUS
 62
    30
 10
0.0
 20
0.0
 30
0.0
 11
-1.0
 21
0.0
 31
0.0
  0
ENDBLK
  8
0
  0
ENDSEC
  0
SECTION
  2
ENTITIES
  0
TEXT
  8
ETC
  6
CONTINUOUS
 62
    61
 10
244.87616578689901
 20
377.86127749855473
 30
0.0
 40
64.0
  1
BFS-30SKA2_4
 41
0.9
  0
TEXT
  8
ETC
  6
CONTINUOUS
 62
    61
 10
240.69017178689859
 20
259.90596748372337
 30
0.0
 40
64.0
  1
産業扇
 41
0.9
  0
CIRCLE
  8
ARRANGE
  6
CONTINUOUS
 62
     1
 10
0.0
 20
0.0
 30
0.0
 40
40.0
  0
POINT
  8
ARRANGE
  6
CONTINUOUS
 62
     1
 10
0.0
 20
0.0
 30
0.0
 39
50.0
  0
LINE
  8
BASIS
  6
DASHDOT
 62
     6
 39
50.0
 10
0.0
 20
-257.90171992996562
 30
0.0
 11
0.0
 21
63.086161596285358
 31
0.0
  0
LINE
  8
BASIS
  6
DASHDOT
 62
     6
 39
50.0
 10
-242.9556759418405
 20
-114.3017928595286
 30
0.0
 11
242.55567594184049
 21
-114.3017928595286
 31
0.0
  0
TEXT
  8
ETC
  6
CONTINUOUS
 62
    61
 10
291.39157003545472
 20
151.75719459749831
 30
0.0
 40
40.0
  1
BFS-30SKA2
 41
0.9
  0
TEXT
  8
NOTE
  6
CONTINUOUS
 62
     4
 10
269.26380720757891
 20
-146.4355646876497
 30
0.0
 40
64.0
  1
RA
 41
0.9
 72
     1
 11
320.00666435043598
 21
-146.4355646876497
 31
0.0
  0
TEXT
  8
NOTE
  6
CONTINUOUS
 62
     4
 10
-357.59635966706082
 20
-150.03435900913021
 30
0.0
 40
64.0
  1
EA
 41
0.9
 72
     1
 11
-309.59635966706082
 21
-150.03435900913021
 31
0.0
  0
CIRCLE
  8
FIX
  6
CONTINUOUS
 62
    11
 39
50.0
 10
149.50000000000031
 20
-103.8025245065285
 30
0.0
 40
5.0
  0
LINE
  8
NOTE
  6
CONTINUOUS
 62
     4
 39
50.0
 10
149.50000000000031
 20
-127.12590617304561
 30
0.0
 11
149.50000000000031
 21
-80.479142840011377
 31
0.0
  0
LINE
  8
NOTE
  6
CONTINUOUS
 62
     4
 39
50.0
 10
121.1269771889165
 20
-103.8025245065285
 30
0.0
 11
177.8730228110841
 21
-103.8025245065285
 31
0.0
  0
CIRCLE
  8
FIX
  6
CONTINUOUS
 62
    11
 39
50.0
 10
-149.49999999999969
 20
-103.8025245065285
 30
0.0
 40
5.0
  0
LINE
  8
NOTE
  6
CONTINUOUS
 62
     4
 39
50.0
 10
-149.49999999999969
 20
-127.12590617304561
 30
0.0
 11
-149.49999999999969
 21
-80.479142840011377
 31
0.0
  0
LINE
  8
NOTE
  6
CONTINUOUS
 62
     4
 39
50.0
 10
-177.8730228110835
 20
-103.8025245065285
 30
0.0
 11
-121.1269771889159
 21
-103.8025245065285
 31
0.0
  0
LINE
  8
SIZE
  6
CONTINUOUS
 62
    30
 10
-149.49999999999969
 20
-60.479142840011377
 30
0.0
 11
-149.49999999999969
 21
126.81227562641701
 31
0.0
  0
LINE
  8
SIZE
  6
CONTINUOUS
 62
    30
 10
149.50000000000031
 20
-60.479142840011377
 30
0.0
 11
149.50000000000031
 21
126.81227562641701
 31
0.0
  0
LINE
  8
SIZE
  6
CONTINUOUS
 62
    30
 10
-137.49999999999969
 20
106.81227562641701
 30
0.0
 11
137.50000000000031
 21
106.81227562641701
 31
0.0
  0
CIRCLE
  8
SIZE
  6
CONTINUOUS
 62
    30
 10
-149.49999999999969
 20
106.81227562641701
 30
0.0
 40
6.0
  0
LINE
  8
SIZE
  6
CONTINUOUS
 62
    30
 10
-149.49999999999969
 20
106.81227562641701
 30
0.0
 11
-137.49999999999969
 21
106.81227562641701
 31
0.0
  0
CIRCLE
  8
SIZE
  6
CONTINUOUS
 62
    30
 10
149.50000000000031
 20
106.81227562641701
 30
0.0
 40
6.0
  0
LINE
  8
SIZE
  6
CONTINUOUS
 62
    30
 10
149.50000000000031
 20
106.81227562641701
 30
0.0
 11
137.50000000000031
 21
106.81227562641701
 31
0.0
  0
TEXT
  8
SIZE
  6
CONTINUOUS
 62
    30
 10
-72.685714285714027
 20
131.81227562641701
 30
0.0
 40
64.0
  1
299
 41
0.9
 72
     1
 11
0.0000000000002558
 21
131.81227562641701
 31
0.0
  0
POINT
  8
DEFPOINTS
  6
CONTINUOUS
 62
    30
 10
-149.49999999999969
 20
-80.479142840011377
 30
0.0
  0
POINT
  8
DEFPOINTS
  6
CONTINUOUS
 62
    30
 10
149.50000000000031
 20
-80.479142840011377
 30
0.0
  0
POINT
  8
DEFPOINTS
  6
CONTINUOUS
 62
    30
 10
149.50000000000031
 20
106.81227562641701
 30
0.0
  0
LINE
  8
SIZE
  6
CONTINUOUS
 62
    30
 10
170.37645490273931
 20
-87.802245783861849
 30
0.0
 11
170.37645490273931
 21
261.82556397495142
 31
0.0
  0
LINE
  8
SIZE
  6
CONTINUOUS
 62
    30
 10
-169.69984670253339
 20
-87.802245783861849
 30
0.0
 11
-169.69984670253339
 21
261.82556397495142
 31
0.0
  0
LINE
  8
SIZE
  6
CONTINUOUS
 62
    30
 10
158.37645490273931
 20
241.82556397495139
 30
0.0
 11
-157.69984670253331
 21
241.82556397495139
 31
0.0
  0
CIRCLE
  8
SIZE
  6
CONTINUOUS
 62
    30
 10
170.37645490273931
 20
241.82556397495139
 30
0.0
 40
6.0
  0
LINE
  8
SIZE
  6
CONTINUOUS
 62
    30
 10
170.37645490273931
 20
241.82556397495139
 30
0.0
 11
158.37645490273931
 21
241.82556397495139
 31
0.0
  0
CIRCLE
  8
SIZE
  6
CONTINUOUS
 62
    30
 10
-169.69984670253339
 20
241.82556397495139
 30
0.0
 40
6.0
  0
LINE
  8
SIZE
  6
CONTINUOUS
 62
    30
 10
-169.69984670253339
 20
241.82556397495139
 30
0.0
 11
-157.69984670253331
 21
241.82556397495139
 31
0.0
  0
TEXT
  8
SIZE
  6
CONTINUOUS
 62
    30
 10
-76.74308134540334
 20
266.82556397495142
 30
0.0
 40
64.0
  1
340
 41
0.9
 72
     1
 11
-2.68593848826049
 21
266.82556397495142
 31
0.0
  0
POINT
  8
DEFPOINTS
  6
CONTINUOUS
 62
    30
 10
170.37645490273931
 20
-107.80224578386181
 30
0.0
  0
POINT
  8
DEFPOINTS
  6
CONTINUOUS
 62
    30
 10
-169.69984670253339
 20
-107.80224578386181
 30
0.0
  0
POINT
  8
DEFPOINTS
  6
CONTINUOUS
 62
    30
 10
-169.69984670253339
 20
241.82556397495139
 30
0.0
  0
LINE
  8
SIZE
  6
CONTINUOUS
 62
    30
 10
167.13474379387779
 20
-244.69818278689829
 30
0.0
 11
167.13474379387779
 21
-395.19996515710551
 31
0.0
  0
LINE
  8
SIZE
  6
CONTINUOUS
 62
    30
 10
-167.84981757018861
 20
-244.69818278689829
 30
0.0
 11
-167.84981757018861
 21
-395.19996515710551
 31
0.0
  0
LINE
  8
SIZE
  6
CONTINUOUS
 62
    30
 10
155.13474379387779
 20
-375.19996515710551
 30
0.0
 11
-155.84981757018861
 21
-375.19996515710551
 31
0.0
  0
CIRCLE
  8
SIZE
  6
CONTINUOUS
 62
    30
 10
167.13474379387779
 20
-375.19996515710551
 30
0.0
 40
6.0
  0
LINE
  8
SIZE
  6
CONTINUOUS
 62
    30
 10
167.13474379387779
 20
-375.19996515710551
 30
0.0
 11
155.13474379387779
 21
-375.19996515710551
 31
0.0
  0
CIRCLE
  8
SIZE
  6
CONTINUOUS
 62
    30
 10
-167.84981757018861
 20
-375.19996515710551
 30
0.0
 40
6.0
  0
LINE
  8
SIZE
  6
CONTINUOUS
 62
    30
 10
-167.84981757018861
 20
-375.19996515710551
 30
0.0
 11
-155.84981757018861
 21
-375.19996515710551
 31
0.0
  0
TEXT
  8
SIZE
  6
CONTINUOUS
 62
    30
 10
-74.414679745298287
 20
-350.19996515710551
 30
0.0
 40
64.0
  1
335
 41
0.9
 72
     1
 11
-0.3575368881554368
 21
-350.19996515710551
 31
0.0
  0
POINT
  8
DEFPOINTS
  6
CONTINUOUS
 62
    30
 10
167.13474379387779
 20
-224.69818278689829
 30
0.0
  0
POINT
  8
DEFPOINTS
  6
CONTINUOUS
 62
    30
 10
-167.84981757018861
 20
-224.69818278689829
 30
0.0
  0
POINT
  8
DEFPOINTS
  6
CONTINUOUS
 62
    30
 10
-167.84981757018861
 20
-375.19996515710551
 30
0.0
  0
LINE
  8
SIZE
  6
CONTINUOUS
 62
    30
 10
237.15696819723709
 20
-203.99398321228301
 30
0.0
 11
237.15696819723709
 21
-395.19996515710551
 31
0.0
  0
LINE
  8
SIZE
  6
CONTINUOUS
 62
    30
 10
167.13474379387779
 20
-244.69818278689829
 30
0.0
 11
167.13474379387779
 21
-395.19996515710551
 31
0.0
  0
LINE
  8
SIZE
  6
CONTINUOUS
 62
    30
 10
155.13474379387779
 20
-375.19996515710551
 30
0.0
 11
143.13474379387779
 21
-375.19996515710551
 31
0.0
  0
LINE
  8
SIZE
  6
CONTINUOUS
 62
    30
 10
249.15696819723709
 20
-375.19996515710551
 30
0.0
 11
404.41411105437999
 21
-375.19996515710551
 31
0.0
  0
LINE
  8
SIZE
  6
CONTINUOUS
 62
    30
 10
167.13474379387779
 20
-375.19996515710551
 30
0.0
 11
237.15696819723709
 21
-375.19996515710551
 31
0.0
  0
CIRCLE
  8
SIZE
  6
CONTINUOUS
 62
    30
 10
167.13474379387779
 20
-375.19996515710551
 30
0.0
 40
6.0
  0
LINE
  8
SIZE
  6
CONTINUOUS
 62
    30
 10
167.13474379387779
 20
-375.19996515710551
 30
0.0
 11
155.13474379387779
 21
-375.19996515710551
 31
0.0
  0
CIRCLE
  8
SIZE
  6
CONTINUOUS
 62
    30
 10
237.15696819723709
 20
-375.19996515710551
 30
0.0
 40
6.0
  0
LINE
  8
SIZE
  6
CONTINUOUS
 62
    30
 10
237.15696819723709
 20
-375.19996515710551
 30
0.0
 11
249.15696819723709
 21
-375.19996515710551
 31
0.0
  0
TEXT
  8
SIZE
  6
CONTINUOUS
 62
    30
 10
286.15696819723718
 20
-350.19996515710551
 30
0.0
 40
64.0
  1
70
 41
0.9
 72
     1
 11
332.78553962580872
 21
-350.19996515710551
 31
0.0
  0
POINT
  8
DEFPOINTS
  6
CONTINUOUS
 62
    30
 10
237.15696819723709
 20
-183.99398321228301
 30
0.0
  0
POINT
  8
DEFPOINTS
  6
CONTINUOUS
 62
    30
 10
167.13474379387779
 20
-224.69818278689829
 30
0.0
  0
POINT
  8
DEFPOINTS
  6
CONTINUOUS
 62
    30
 10
167.13474379387779
 20
-375.19996515710551
 30
0.0
  0
LINE
  8
SIZE
  6
CONTINUOUS
 62
    30
 10
-167.84981757018861
 20
-244.69818278689829
 30
0.0
 11
-167.84981757018861
 21
-395.19996515710551
 31
0.0
  0
LINE
  8
SIZE
  6
CONTINUOUS
 62
    30
 10
-237.4319965727411
 20
-203.99398321228301
 30
0.0
 11
-237.4319965727411
 21
-395.19996515710551
 31
0.0
  0
LINE
  8
SIZE
  6
CONTINUOUS
 62
    30
 10
-155.84981757018861
 20
-375.19996515710551
 30
0.0
 11
-143.84981757018861
 21
-375.19996515710551
 31
0.0
  0
LINE
  8
SIZE
  6
CONTINUOUS
 62
    30
 10
-249.4319965727411
 20
-375.19996515710551
 30
0.0
 11
-404.68913942988411
 21
-375.19996515710551
 31
0.0
  0
LINE
  8
SIZE
  6
CONTINUOUS
 62
    30
 10
-167.84981757018861
 20
-375.19996515710551
 30
0.0
 11
-237.4319965727411
 21
-375.19996515710551
 31
0.0
  0
CIRCLE
  8
SIZE
  6
CONTINUOUS
 62
    30
 10
-167.84981757018861
 20
-375.19996515710551
 30
0.0
 40
6.0
  0
LINE
  8
SIZE
  6
CONTINUOUS
 62
    30
 10
-167.84981757018861
 20
-375.19996515710551
 30
0.0
 11
-155.84981757018861
 21
-375.19996515710551
 31
0.0
  0
CIRCLE
  8
SIZE
  6
CONTINUOUS
 62
    30
 10
-237.4319965727411
 20
-375.19996515710551
 30
0.0
 40
6.0
  0
LINE
  8
SIZE
  6
CONTINUOUS
 62
    30
 10
-237.4319965727411
 20
-375.19996515710551
 30
0.0
 11
-249.4319965727411
 21
-375.19996515710551
 31
0.0
  0
TEXT
  8
SIZE
  6
CONTINUOUS
 62
    30
 10
-379.68913942988411
 20
-350.19996515710551
 30
0.0
 40
64.0
  1
70
 41
0.9
 72
     1
 11
-333.06056800131262
 21
-350.19996515710551
 31
0.0
  0
POINT
  8
DEFPOINTS
  6
CONTINUOUS
 62
    30
 10
-167.84981757018861
 20
-224.69818278689829
 30
0.0
  0
POINT
  8
DEFPOINTS
  6
CONTINUOUS
 62
    30
 10
-237.4319965727411
 20
-183.99398321228301
 30
0.0
  0
POINT
  8
DEFPOINTS
  6
CONTINUOUS
 62
    30
 10
-237.4319965727411
 20
-375.19996515710551
 30
0.0
  0
LINE
  8
SIZE
  6
CONTINUOUS
 62
    30
 10
256.33188307072459
 20
-43.179454954153023
 30
0.0
 11
574.16261421509262
 21
-43.17945495415313
 31
0.0
  0
LINE
  8
SIZE
  6
CONTINUOUS
 62
    30
 10
255.836831994817
 20
-185.25911373960179
 30
0.0
 11
574.16261421509262
 21
-185.2591137396019
 31
0.0
  0
LINE
  8
SIZE
  6
CONTINUOUS
 62
    30
 10
554.16261421509262
 20
-55.179454954153101
 30
0.0
 11
554.16261421509262
 21
-173.2591137396019
 31
0.0
  0
LINE
  8
SIZE
  6
CONTINUOUS
 62
    30
 10
554.16261421509262
 20
-185.2591137396019
 30
0.0
 11
554.1626142150925
 21
-444.74482802531622
 31
0.0
  0
CIRCLE
  8
SIZE
  6
CONTINUOUS
 62
    30
 10
554.16261421509262
 20
-43.179454954153101
 30
0.0
 40
6.0
  0
LINE
  8
SIZE
  6
CONTINUOUS
 62
    30
 10
554.16261421509262
 20
-43.179454954153101
 30
0.0
 11
554.16261421509262
 21
-55.179454954153101
 31
0.0
  0
CIRCLE
  8
SIZE
  6
CONTINUOUS
 62
    30
 10
554.16261421509262
 20
-185.2591137396019
 30
0.0
 40
6.0
  0
LINE
  8
SIZE
  6
CONTINUOUS
 62
    30
 10
554.16261421509262
 20
-185.2591137396019
 30
0.0
 11
554.16261421509262
 21
-173.2591137396019
 31
0.0
  0
TEXT
  8
SIZE
  6
CONTINUOUS
 62
    30
 10
518.49594754842599
 20
-429.89339945388753
 30
0.0
 40
64.0
  1
φ142
 50
90.0
 41
0.9
 72
     1
 11
518.49594754842599
 21
-321.00197088245898
 31
0.0
  0
POINT
  8
DEFPOINTS
  6
CONTINUOUS
 62
    30
 10
236.3318830707245
 20
-43.179454954153023
 30
0.0
  0
POINT
  8
DEFPOINTS
  6
CONTINUOUS
 62
    30
 10
235.836831994817
 20
-185.25911373960179
 30
0.0
  0
POINT
  8
DEFPOINTS
  6
CONTINUOUS
 62
    30
 10
554.16261421509262
 20
-185.2591137396019
 30
0.0
  0
LINE
  8
SIZE
  6
CONTINUOUS
 62
    30
 10
191.04014672603691
 20
-34.488558288221611
 30
0.0
 11
720.82021310125117
 21
-34.488558288221782
 31
0.0
  0
LINE
  8
SIZE
  6
CONTINUOUS
 62
    30
 10
191.04014672603691
 20
-194.17003310593671
 30
0.0
 11
720.82021310125117
 21
-194.17003310593691
 31
0.0
  0
LINE
  8
SIZE
  6
CONTINUOUS
 62
    30
 10
700.82021310125117
 20
-46.488558288221782
 30
0.0
 11
700.82021310125117
 21
-182.1700331059368
 31
0.0
  0
LINE
  8
SIZE
  6
CONTINUOUS
 62
    30
 10
700.82021310125117
 20
-194.1700331059368
 30
0.0
 11
700.82021310125117
 21
-453.65574739165118
 31
0.0
  0
CIRCLE
  8
SIZE
  6
CONTINUOUS
 62
    30
 10
700.82021310125117
 20
-34.488558288221782
 30
0.0
 40
6.0
  0
LINE
  8
SIZE
  6
CONTINUOUS
 62
    30
 10
700.82021310125117
 20
-34.488558288221782
 30
0.0
 11
700.82021310125117
 21
-46.488558288221782
 31
0.0
  0
CIRCLE
  8
SIZE
  6
CONTINUOUS
 62
    30
 10
700.82021310125117
 20
-194.1700331059368
 30
0.0
 40
6.0
  0
LINE
  8
SIZE
  6
CONTINUOUS
 62
    30
 10
700.82021310125117
 20
-194.1700331059368
 30
0.0
 11
700.82021310125117
 21
-182.1700331059368
 31
0.0
  0
TEXT
  8
SIZE
  6
CONTINUOUS
 62
    30
 10
665.15354643458477
 20
-438.80431882022242
 30
0.0
 40
64.0
  1
φ160
 50
90.0
 41
0.9
 72
     1
 11
665.15354643458477
 21
-329.91289024879387
 31
0.0
  0
POINT
  8
DEFPOINTS
  6
CONTINUOUS
 62
    30
 10
171.04014672603691
 20
-34.488558288221611
 30
0.0
  0
POINT
  8
DEFPOINTS
  6
CONTINUOUS
 62
    30
 10
171.04014672603691
 20
-194.17003310593671
 30
0.0
  0
POINT
  8
DEFPOINTS
  6
CONTINUOUS
 62
    30
 10
700.82021310125117
 20
-194.1700331059368
 30
0.0
  0
LINE
  8
SIZE
  6
CONTINUOUS
 62
    30
 10
-184.7001951058667
 20
-1.3596632908266879
 30
0.0
 11
-414.27613371357802
 21
-1.359663290826632
 31
0.0
  0
LINE
  8
SIZE
  6
CONTINUOUS
 62
    30
 10
-184.7001951058667
 20
-227.0939328803305
 30
0.0
 11
-414.27613371357802
 21
-227.09393288033041
 31
0.0
  0
LINE
  8
SIZE
  6
CONTINUOUS
 62
    30
 10
-394.27613371357802
 20
-13.35966329082663
 30
0.0
 11
-394.27613371357802
 21
-215.09393288033041
 31
0.0
  0
CIRCLE
  8
SIZE
  6
CONTINUOUS
 62
    30
 10
-394.27613371357802
 20
-1.359663290826632
 30
0.0
 40
6.0
  0
LINE
  8
SIZE
  6
CONTINUOUS
 62
    30
 10
-394.27613371357802
 20
-1.359663290826632
 30
0.0
 11
-394.27613371357802
 21
-13.35966329082663
 31
0.0
  0
CIRCLE
  8
SIZE
  6
CONTINUOUS
 62
    30
 10
-394.27613371357802
 20
-227.09393288033041
 30
0.0
 40
6.0
  0
LINE
  8
SIZE
  6
CONTINUOUS
 62
    30
 10
-394.27613371357802
 20
-227.09393288033041
 30
0.0
 11
-394.27613371357802
 21
-215.09393288033041
 31
0.0
  0
TEXT
  8
SIZE
  6
CONTINUOUS
 62
    30
 10
-419.27613371357802
 20
-186.91251237129291
 30
0.0
 40
64.0
  1
226
 50
90.0
 41
0.9
 72
     1
 11
-419.27613371357802
 21
-114.22679808557859
 31
0.0
  0
POINT
  8
DEFPOINTS
  6
CONTINUOUS
 62
    30
 10
-164.7001951058667
 20
-1.3596632908266879
 30
0.0
  0
POINT
  8
DEFPOINTS
  6
CONTINUOUS
 62
    30
 10
-164.7001951058667
 20
-227.0939328803305
 30
0.0
  0
POINT
  8
DEFPOINTS
  6
CONTINUOUS
 62
    30
 10
-394.27613371357802
 20
-227.09393288033041
 30
0.0
  0
TEXT
  8
NOTE
  6
CONTINUOUS
 62
     4
 10
238.9972938692558
 20
51.080536976255189
 30
0.0
 40
64.0
  1
AH
 41
0.9
  0
LINE
  8
NOTE
  6
CONTINUOUS
 62
     4
 10
153.98439785730261
 20
-99.504283570119469
 30
0.0
 11
149.50000000000031
 21
-103.8025245065285
 31
0.0
  0
LINE
  8
NOTE
  6
CONTINUOUS
 62
     4
 10
149.50000000000031
 20
-103.8025245065285
 30
0.0
 11
151.2344730086005
 21
-97.83793712160093
 31
0.0
  0
LINE
  8
NOTE
  6
CONTINUOUS
 62
     4
 10
149.50000000000031
 20
-103.8025245065285
 30
0.0
 11
155.7188708659028
 21
-93.539696185191843
 31
0.0
  0
LINE
  8
NOTE
  6
CONTINUOUS
 62
     4
 10
155.71887086590269
 20
-93.539696185191843
 30
0.0
 11
225.29385619352661
 21
21.277952432006259
 31
0.0
  0
LINE
  8
NOTE
  6
CONTINUOUS
 62
     4
 10
225.29385619352661
 20
21.277952432006259
 30
0.0
 11
361.03671333638368
 21
21.277952432006259
 31
0.0
  0
LINE
  8
DETAIL
  6
CONTINUOUS
 62
     5
 10
-94.142212935073758
 20
-1.320136202419917
 30
0.0
 11
-95.847388863199512
 21
0.0
 31
0.0
  0
LINE
  8
DETAIL
  6
CONTINUOUS
 62
     5
 10
-95.847388863199512
 20
0.0
 30
0.0
 11
-97.607570466426068
 21
0.7150737763108737
 31
0.0
  0
LINE
  8
DETAIL
  6
CONTINUOUS
 62
     5
 10
-97.607570466426068
 20
0.7150737763108737
 30
0.0
 11
-99.642780445157086
 21
0.7150737763108737
 31
0.0
  0
LINE
  8
DETAIL
  6
CONTINUOUS
 62
     5
 10
-99.642780445157086
 20
0.7150737763108737
 30
0.0
 11
-101.62298474878681
 21
0.0
 31
0.0
  0
LINE
  8
DETAIL
  6
CONTINUOUS
 62
     5
 10
-101.62298474878681
 20
0.0
 30
0.0
 11
-103.1081379765094
 21
-1.320136202419917
 31
0.0
  0
LINE
  8
DETAIL
  6
CONTINUOUS
 62
     5
 10
-103.1081379765094
 20
-227.17343816643569
 30
0.0
 11
-101.62298474878681
 21
-228.49357436885569
 31
0.0
  0
LINE
  8
DETAIL
  6
CONTINUOUS
 62
     5
 10
-101.62298474878681
 20
-228.49357436885569
 30
0.0
 11
-99.642780445157086
 21
-229.15364247006571
 31
0.0
  0
LINE
  8
DETAIL
  6
CONTINUOUS
 62
     5
 10
-99.642780445157086
 20
-229.15364247006571
 30
0.0
 11
-97.607570466426068
 21
-229.15364247006571
 31
0.0
  0
LINE
  8
DETAIL
  6
CONTINUOUS
 62
     5
 10
-97.607570466426068
 20
-229.15364247006571
 30
0.0
 11
-95.847388863199512
 21
-228.49357436885569
 31
0.0
  0
LINE
  8
DETAIL
  6
CONTINUOUS
 62
     5
 10
-95.847388863199512
 20
-228.49357436885569
 30
0.0
 11
-94.142212935073758
 21
-227.17343816643569
 31
0.0
  0
LINE
  8
DETAIL
  6
CONTINUOUS
 62
     5
 10
-162.844301136013
 20
-227.77850059254499
 30
0.0
 11
-153.6033477190733
 21
-227.77850059254499
 31
0.0
  0
LINE
  8
DETAIL
  6
CONTINUOUS
 62
     5
 10
-153.6033477190733
 20
-227.50347221704081
 30
0.0
 11
-153.6033477190733
 21
-227.77850059254499
 31
0.0
  0
LINE
  8
DETAIL
  6
CONTINUOUS
 62
     5
 10
-162.844301136013
 20
-227.50347221704081
 30
0.0
 11
-162.844301136013
 21
-227.77850059254499
 31
0.0
  0
LINE
  8
DETAIL
  6
CONTINUOUS
 62
     5
 10
-153.6033477190733
 20
-227.50347221704081
 30
0.0
 11
-162.844301136013
 21
-227.50347221704081
 31
0.0
  0
LINE
  8
DETAIL
  6
CONTINUOUS
 62
     5
 10
-162.844301136013
 20
-227.77850059254499
 30
0.0
 11
-161.6341762837944
 21
-228.9886254447631
 31
0.0
  0
LINE
  8
DETAIL
  6
CONTINUOUS
 62
     5
 10
-161.6341762837944
 20
-228.9886254447631
 30
0.0
 11
-160.14902305607191
 21
-229.7036992210742
 31
0.0
  0
LINE
  8
DETAIL
  6
CONTINUOUS
 62
     5
 10
-160.14902305607191
 20
-229.7036992210742
 30
0.0
 11
-158.3338357777445
 21
-229.97872759657821
 31
0.0
  0
LINE
  8
DETAIL
  6
CONTINUOUS
 62
     5
 10
-158.3338357777445
 20
-229.97872759657821
 30
0.0
 11
-156.40863714921559
 21
-229.7036992210742
 31
0.0
  0
LINE
  8
DETAIL
  6
CONTINUOUS
 62
     5
 10
-156.40863714921559
 20
-229.7036992210742
 30
0.0
 11
-154.92348392149299
 21
-228.9886254447631
 31
0.0
  0
LINE
  8
DETAIL
  6
CONTINUOUS
 62
     5
 10
-154.92348392149299
 20
-228.9886254447631
 30
0.0
 11
-153.6033477190733
 21
-227.77850059254499
 31
0.0
  0
LINE
  8
DETAIL
  6
CONTINUOUS
 62
     5
 10
153.5483420439725
 20
-0.7150737763106463
 30
0.0
 11
162.844301136013
 21
-0.7150737763106463
 31
0.0
  0
LINE
  8
DETAIL
  6
CONTINUOUS
 62
     5
 10
162.844301136013
 20
-0.9901021518148809
 30
0.0
 11
162.844301136013
 21
-0.7150737763106463
 31
0.0
  0
LINE
  8
DETAIL
  6
CONTINUOUS
 62
     5
 10
153.5483420439725
 20
-0.9901021518148809
 30
0.0
 11
153.5483420439725
 21
-0.7150737763106463
 31
0.0
  0
LINE
  8
DETAIL
  6
CONTINUOUS
 62
     5
 10
162.844301136013
 20
-0.9901021518148809
 30
0.0
 11
153.5483420439725
 21
-0.9901021518148809
 31
0.0
  0
LINE
  8
DETAIL
  6
CONTINUOUS
 62
     5
 10
162.844301136013
 20
-0.7150737763106463
 30
0.0
 11
161.63417628379489
 21
0.4950510759074405
 31
0.0
  0
LINE
  8
DETAIL
  6
CONTINUOUS
 62
     5
 10
161.63417628379489
 20
0.4950510759074405
 30
0.0
 11
160.03901170587031
 21
1.2101248522183139
 31
0.0
  0
LINE
  8
DETAIL
  6
CONTINUOUS
 62
     5
 10
160.03901170587031
 20
1.2101248522183139
 30
0.0
 11
158.16881875244209
 21
1.485153227722549
 31
0.0
  0
LINE
  8
DETAIL
  6
CONTINUOUS
 62
     5
 10
158.16881875244209
 20
1.485153227722549
 30
0.0
 11
156.35363147411479
 21
1.2101248522183139
 31
0.0
  0
LINE
  8
DETAIL
  6
CONTINUOUS
 62
     5
 10
156.35363147411479
 20
1.2101248522183139
 30
0.0
 11
154.8684782463927
 21
0.4950510759074405
 31
0.0
  0
LINE
  8
DETAIL
  6
CONTINUOUS
 62
     5
 10
154.8684782463927
 20
0.4950510759074405
 30
0.0
 11
153.5483420439725
 21
-0.7150737763106463
 31
0.0
  0
LINE
  8
DETAIL
  6
CONTINUOUS
 62
     5
 10
-88.31161137438562
 20
-2.4752553795374301
 30
0.0
 11
-90.346821353116184
 21
-2.4752553795374301
 31
0.0
  0
LINE
  8
DETAIL
  6
CONTINUOUS
 62
     5
 10
-88.31161137438562
 20
-1.815187278327357
 30
0.0
 11
-90.346821353116184
 21
-1.815187278327357
 31
0.0
  0
LINE
  8
DETAIL
  6
CONTINUOUS
 62
     5
 10
-154.31842149538369
 20
-227.50347221704081
 30
0.0
 11
-154.31842149538369
 21
-227.17343816643569
 31
0.0
  0
LINE
  8
DETAIL
  6
CONTINUOUS
 62
     5
 10
-149.31290506120811
 20
-227.50347221704081
 30
0.0
 11
-149.31290506120811
 21
-227.17343816643569
 31
0.0
  0
LINE
  8
DETAIL
  6
CONTINUOUS
 62
     5
 10
-166.41967001756689
 20
-224.69818278689829
 30
0.0
 11
-166.41967001756689
 21
-226.29334736482269
 31
0.0
  0
LINE
  8
DETAIL
  6
CONTINUOUS
 62
     5
 10
-167.4097721693818
 20
-224.69818278689829
 30
0.0
 11
-167.4097721693818
 21
-226.29334736482269
 31
0.0
  0
LINE
  8
DETAIL
  6
CONTINUOUS
 62
     5
 10
-165.3195565155504
 20
-2.4752553795374301
 30
0.0
 11
-166.14464164206291
 21
-2.4752553795374301
 31
0.0
  0
LINE
  8
DETAIL
  6
CONTINUOUS
 62
     5
 10
-165.3195565155504
 20
-1.815187278327357
 30
0.0
 11
-166.14464164206291
 21
-1.815187278327357
 31
0.0
  0
LINE
  8
DETAIL
  6
CONTINUOUS
 62
     5
 10
107.83862603518109
 20
-2.4752553795374301
 30
0.0
 11
105.6383990311476
 21
-2.4752553795374301
 31
0.0
  0
LINE
  8
DETAIL
  6
CONTINUOUS
 62
     5
 10
107.83862603518109
 20
-1.815187278327357
 30
0.0
 11
105.6383990311476
 21
-1.815187278327357
 31
0.0
  0
LINE
  8
DETAIL
  6
CONTINUOUS
 62
     5
 10
137.1566508639246
 20
-3.1903291558483029
 30
0.0
 11
135.67149763620199
 21
-3.1903291558483029
 31
0.0
  0
LINE
  8
DETAIL
  6
CONTINUOUS
 62
     5
 10
-167.4097721693818
 20
-226.29334736482269
 30
0.0
 11
-166.41967001756689
 21
-226.29334736482269
 31
0.0
  0
LINE
  8
DETAIL
  6
CONTINUOUS
 62
     5
 10
165.64959056615569
 20
-2.4752553795374301
 30
0.0
 11
165.64959056615569
 21
-1.815187278327357
 31
0.0
  0
LINE
  8
DETAIL
  6
CONTINUOUS
 62
     5
 10
-166.14464164206291
 20
-1.815187278327357
 30
0.0
 11
-166.41967001756689
 21
-1.815187278327357
 31
0.0
  0
LINE
  8
DETAIL
  6
CONTINUOUS
 62
     5
 10
-166.41967001756689
 20
-1.815187278327357
 30
0.0
 11
-166.8047097432725
 21
-1.980204303629989
 31
0.0
  0
LINE
  8
DETAIL
  6
CONTINUOUS
 62
     5
 10
-166.8047097432725
 20
-1.980204303629989
 30
0.0
 11
-167.13474379387779
 21
-2.200227004033195
 31
0.0
  0
LINE
  8
DETAIL
  6
CONTINUOUS
 62
     5
 10
-167.13474379387779
 20
-2.200227004033195
 30
0.0
 11
-167.13474379387779
 21
-2.4752553795374301
 31
0.0
  0
LINE
  8
DETAIL
  6
CONTINUOUS
 62
     5
 10
-167.13474379387779
 20
-2.4752553795374301
 30
0.0
 11
-167.4097721693818
 21
-2.9703064554448702
 31
0.0
  0
LINE
  8
DETAIL
  6
CONTINUOUS
 62
     5
 10
-166.14464164206291
 20
-2.4752553795374301
 30
0.0
 11
-166.41967001756689
 21
-2.9703064554448702
 31
0.0
  0
LINE
  8
DETAIL
  6
CONTINUOUS
 62
     5
 10
165.64959056615569
 20
-1.815187278327357
 30
0.0
 11
165.0445281400464
 21
-1.815187278327357
 31
0.0
  0
LINE
  8
DETAIL
  6
CONTINUOUS
 62
     5
 10
-167.4097721693818
 20
-226.29334736482269
 30
0.0
 11
-167.13474379387779
 21
-226.6783870905283
 31
0.0
  0
LINE
  8
DETAIL
  6
CONTINUOUS
 62
     5
 10
-167.13474379387779
 20
-226.6783870905283
 30
0.0
 11
-167.13474379387779
 21
-226.95341546603251
 31
0.0
  0
LINE
  8
DETAIL
  6
CONTINUOUS
 62
     5
 10
-167.13474379387779
 20
-226.95341546603251
 30
0.0
 11
-166.8047097432725
 21
-227.17343816643569
 31
0.0
  0
LINE
  8
DETAIL
  6
CONTINUOUS
 62
     5
 10
-166.8047097432725
 20
-227.17343816643569
 30
0.0
 11
-166.41967001756689
 21
-227.50347221704081
 31
0.0
  0
LINE
  8
DETAIL
  6
CONTINUOUS
 62
     5
 10
-166.41967001756689
 20
-227.50347221704081
 30
0.0
 11
-166.14464164206291
 21
-227.50347221704081
 31
0.0
  0
LINE
  8
DETAIL
  6
CONTINUOUS
 62
     5
 10
-167.4097721693818
 20
-2.9703064554448702
 30
0.0
 11
-167.4097721693818
 21
-3.7953915819573472
 31
0.0
  0
LINE
  8
DETAIL
  6
CONTINUOUS
 62
     5
 10
-166.41967001756689
 20
-226.29334736482269
 30
0.0
 11
-166.14464164206291
 21
-226.6783870905283
 31
0.0
  0
LINE
  8
DETAIL
  6
CONTINUOUS
 62
     5
 10
-166.14464164206291
 20
-227.50347221704081
 30
0.0
 11
-149.31290506120811
 21
-227.50347221704081
 31
0.0
  0
LINE
  8
DETAIL
  6
CONTINUOUS
 62
     5
 10
-166.14464164206291
 20
-226.6783870905283
 30
0.0
 11
-165.3195565155504
 21
-226.6783870905283
 31
0.0
  0
LINE
  8
DETAIL
  6
CONTINUOUS
 62
     5
 10
-166.41967001756689
 20
-2.9703064554448702
 30
0.0
 11
-166.41967001756689
 21
-3.7953915819573472
 31
0.0
  0
LINE
  8
DETAIL
  6
CONTINUOUS
 62
     5
 10
165.64959056615569
 20
-2.4752553795374301
 30
0.0
 11
165.0445281400464
 21
-2.4752553795374301
 31
0.0
  0
LINE
  8
DETAIL
  6
CONTINUOUS
 62
     5
 10
105.6383990311476
 20
-225.96331331421769
 30
0.0
 11
107.83862603518109
 21
-225.96331331421769
 31
0.0
  0
LINE
  8
DETAIL
  6
CONTINUOUS
 62
     5
 10
105.6383990311476
 20
-226.6783870905283
 30
0.0
 11
107.83862603518109
 21
-226.6783870905283
 31
0.0
  0
LINE
  8
DETAIL
  6
CONTINUOUS
 62
     5
 10
-90.346821353116184
 20
-226.6783870905283
 30
0.0
 11
-88.31161137438562
 21
-226.6783870905283
 31
0.0
  0
LINE
  8
DETAIL
  6
CONTINUOUS
 62
     5
 10
-90.346821353116184
 20
-225.96331331421769
 30
0.0
 11
-88.31161137438562
 21
-225.96331331421769
 31
0.0
  0
LINE
  8
DETAIL
  6
CONTINUOUS
 62
     5
 10
154.15340447008131
 20
-0.9901021518148809
 30
0.0
 11
154.15340447008131
 21
-1.320136202419917
 31
0.0
  0
LINE
  8
DETAIL
  6
CONTINUOUS
 62
     5
 10
149.14788803590571
 20
-0.9901021518148809
 30
0.0
 11
149.14788803590571
 21
-1.320136202419917
 31
0.0
  0
LINE
  8
DETAIL
  6
CONTINUOUS
 62
     5
 10
167.13474379387779
 20
-3.7953915819573472
 30
0.0
 11
167.13474379387779
 21
-2.200227004033195
 31
0.0
  0
LINE
  8
DETAIL
  6
CONTINUOUS
 62
     5
 10
166.36466434246611
 20
-3.7953915819573472
 30
0.0
 11
166.36466434246611
 21
-2.200227004033195
 31
0.0
  0
LINE
  8
DETAIL
  6
CONTINUOUS
 62
     5
 10
165.0445281400464
 20
-226.6783870905283
 30
0.0
 11
166.0346302918613
 21
-226.6783870905283
 31
0.0
  0
LINE
  8
DETAIL
  6
CONTINUOUS
 62
     5
 10
165.0445281400464
 20
-225.96331331421769
 30
0.0
 11
166.0346302918613
 21
-225.96331331421769
 31
0.0
  0
LINE
  8
DETAIL
  6
CONTINUOUS
 62
     5
 10
-165.64959056615521
 20
-225.96331331421769
 30
0.0
 11
-165.3195565155504
 21
-225.96331331421769
 31
0.0
  0
LINE
  8
DETAIL
  6
CONTINUOUS
 62
     5
 10
166.36466434246611
 20
-225.46826223831019
 30
0.0
 11
166.36466434246611
 21
-224.69818278689829
 31
0.0
  0
LINE
  8
DETAIL
  6
CONTINUOUS
 62
     5
 10
166.0346302918613
 20
-1.815187278327357
 30
0.0
 11
165.0445281400464
 21
-1.815187278327357
 31
0.0
  0
LINE
  8
DETAIL
  6
CONTINUOUS
 62
     5
 10
166.0346302918613
 20
-0.9901021518148809
 30
0.0
 11
149.14788803590571
 21
-0.9901021518148809
 31
0.0
  0
LINE
  8
DETAIL
  6
CONTINUOUS
 62
     5
 10
167.13474379387779
 20
-225.46826223831019
 30
0.0
 11
167.13474379387779
 21
-224.69818278689829
 31
0.0
  0
LINE
  8
DETAIL
  6
CONTINUOUS
 62
     5
 10
-165.64959056615521
 20
-226.6783870905283
 30
0.0
 11
-165.3195565155504
 21
-226.6783870905283
 31
0.0
  0
LINE
  8
DETAIL
  6
CONTINUOUS
 62
     5
 10
166.36466434246611
 20
-2.200227004033195
 30
0.0
 11
166.0346302918613
 21
-1.815187278327357
 31
0.0
  0
LINE
  8
DETAIL
  6
CONTINUOUS
 62
     5
 10
167.13474379387779
 20
-2.200227004033195
 30
0.0
 11
167.13474379387779
 21
-1.815187278327357
 31
0.0
  0
LINE
  8
DETAIL
  6
CONTINUOUS
 62
     5
 10
167.13474379387779
 20
-1.815187278327357
 30
0.0
 11
167.13474379387779
 21
-1.4851532277223209
 31
0.0
  0
LINE
  8
DETAIL
  6
CONTINUOUS
 62
     5
 10
167.13474379387779
 20
-1.4851532277223209
 30
0.0
 11
166.63969271797049
 21
-1.320136202419917
 31
0.0
  0
LINE
  8
DETAIL
  6
CONTINUOUS
 62
     5
 10
166.63969271797049
 20
-1.320136202419917
 30
0.0
 11
166.36466434246611
 21
-0.9901021518148809
 31
0.0
  0
LINE
  8
DETAIL
  6
CONTINUOUS
 62
     5
 10
166.36466434246611
 20
-0.9901021518148809
 30
0.0
 11
166.0346302918613
 21
-0.9901021518148809
 31
0.0
  0
LINE
  8
DETAIL
  6
CONTINUOUS
 62
     5
 10
166.0346302918613
 20
-225.96331331421769
 30
0.0
 11
166.36466434246611
 21
-225.46826223831019
 31
0.0
  0
LINE
  8
DETAIL
  6
CONTINUOUS
 62
     5
 10
166.0346302918613
 20
-226.6783870905283
 30
0.0
 11
166.36466434246611
 21
-226.6783870905283
 31
0.0
  0
LINE
  8
DETAIL
  6
CONTINUOUS
 62
     5
 10
166.36466434246611
 20
-226.6783870905283
 30
0.0
 11
166.63969271797049
 21
-226.4583643901251
 31
0.0
  0
LINE
  8
DETAIL
  6
CONTINUOUS
 62
     5
 10
166.63969271797049
 20
-226.4583643901251
 30
0.0
 11
167.13474379387779
 21
-226.29334736482269
 31
0.0
  0
LINE
  8
DETAIL
  6
CONTINUOUS
 62
     5
 10
167.13474379387779
 20
-226.29334736482269
 30
0.0
 11
167.13474379387779
 21
-225.96331331421769
 31
0.0
  0
LINE
  8
DETAIL
  6
CONTINUOUS
 62
     5
 10
167.13474379387779
 20
-225.96331331421769
 30
0.0
 11
167.13474379387779
 21
-225.46826223831019
 31
0.0
  0
LINE
  8
DETAIL
  6
CONTINUOUS
 62
     5
 10
-165.64959056615521
 20
-225.96331331421769
 30
0.0
 11
-165.64959056615521
 21
-226.6783870905283
 31
0.0
  0
LINE
  8
DETAIL
  6
CONTINUOUS
 62
     5
 10
167.13474379387779
 20
-2.200227004033195
 30
0.0
 11
166.36466434246611
 21
-2.200227004033195
 31
0.0
  0
LINE
  8
DETAIL
  6
CONTINUOUS
 62
     5
 10
105.6383990311476
 20
-227.17343816643569
 30
0.0
 11
107.83862603518109
 21
-227.17343816643569
 31
0.0
  0
LINE
  8
DETAIL
  6
CONTINUOUS
 62
     5
 10
105.6383990311476
 20
-1.320136202419917
 30
0.0
 11
107.83862603518109
 21
-1.320136202419917
 31
0.0
  0
LINE
  8
DETAIL
  6
CONTINUOUS
 62
     5
 10
-165.3195565155504
 20
-1.320136202419917
 30
0.0
 11
-165.3195565155504
 21
-3.7953915819573472
 31
0.0
  0
LINE
  8
DETAIL
  6
CONTINUOUS
 62
     5
 10
-165.3195565155504
 20
-1.320136202419917
 30
0.0
 11
-88.31161137438562
 21
-1.320136202419917
 31
0.0
  0
LINE
  8
DETAIL
  6
CONTINUOUS
 62
     5
 10
-165.3195565155504
 20
-3.7953915819573472
 30
0.0
 11
-167.84981757018861
 21
-3.7953915819573472
 31
0.0
  0
LINE
  8
DETAIL
  6
CONTINUOUS
 62
     5
 10
-165.3195565155504
 20
-227.17343816643569
 30
0.0
 11
-88.31161137438562
 21
-227.17343816643569
 31
0.0
  0
LINE
  8
DETAIL
  6
CONTINUOUS
 62
     5
 10
-165.3195565155504
 20
-224.69818278689829
 30
0.0
 11
-165.3195565155504
 21
-227.17343816643569
 31
0.0
  0
LINE
  8
DETAIL
  6
CONTINUOUS
 62
     5
 10
-165.3195565155504
 20
-224.69818278689829
 30
0.0
 11
-167.84981757018861
 21
-224.69818278689829
 31
0.0
  0
LINE
  8
DETAIL
  6
CONTINUOUS
 62
     5
 10
-167.84981757018861
 20
-224.69818278689829
 30
0.0
 11
-167.84981757018861
 21
-106.7660153707147
 31
0.0
  0
LINE
  8
DETAIL
  6
CONTINUOUS
 62
     5
 10
-165.81460759145759
 20
-224.69818278689829
 30
0.0
 11
-165.81460759145759
 21
-105.665901868698
 31
0.0
  0
LINE
  8
DETAIL
  6
CONTINUOUS
 62
     5
 10
-88.31161137438562
 20
-3.7953915819573472
 30
0.0
 11
-90.346821353116184
 21
-3.7953915819573472
 31
0.0
  0
LINE
  8
DETAIL
  6
CONTINUOUS
 62
     5
 10
-88.31161137438562
 20
-224.69818278689829
 30
0.0
 11
-90.346821353116184
 21
-224.69818278689829
 31
0.0
  0
LINE
  8
DETAIL
  6
CONTINUOUS
 62
     5
 10
-90.346821353116184
 20
-3.7953915819573472
 30
0.0
 11
-90.346821353116184
 21
-1.320136202419917
 31
0.0
  0
LINE
  8
DETAIL
  6
CONTINUOUS
 62
     5
 10
-90.346821353116184
 20
-227.17343816643569
 30
0.0
 11
-90.346821353116184
 21
-224.69818278689829
 31
0.0
  0
LINE
  8
DETAIL
  6
CONTINUOUS
 62
     5
 10
-90.346821353116184
 20
-227.17343816643569
 30
0.0
 11
-165.3195565155504
 21
-227.17343816643569
 31
0.0
  0
LINE
  8
DETAIL
  6
CONTINUOUS
 62
     5
 10
-90.346821353116184
 20
-1.320136202419917
 30
0.0
 11
-165.3195565155504
 21
-1.320136202419917
 31
0.0
  0
LINE
  8
DETAIL
  6
CONTINUOUS
 62
     5
 10
-90.346821353116184
 20
-3.1903291558483029
 30
0.0
 11
-165.3195565155504
 21
-3.1903291558483029
 31
0.0
  0
LINE
  8
DETAIL
  6
CONTINUOUS
 62
     5
 10
-90.346821353116184
 20
-225.30324521300739
 30
0.0
 11
-165.3195565155504
 21
-225.30324521300739
 31
0.0
  0
LINE
  8
DETAIL
  6
CONTINUOUS
 62
     5
 10
-165.3195565155504
 20
-3.7953915819573472
 30
0.0
 11
-167.84981757018861
 21
-3.7953915819573472
 31
0.0
  0
LINE
  8
DETAIL
  6
CONTINUOUS
 62
     5
 10
-165.3195565155504
 20
-3.7953915819573472
 30
0.0
 11
-165.3195565155504
 21
-1.320136202419917
 31
0.0
  0
LINE
  8
DETAIL
  6
CONTINUOUS
 62
     5
 10
-165.3195565155504
 20
-227.17343816643569
 30
0.0
 11
-165.3195565155504
 21
-224.69818278689829
 31
0.0
  0
LINE
  8
DETAIL
  6
CONTINUOUS
 62
     5
 10
-165.3195565155504
 20
-224.69818278689829
 30
0.0
 11
-167.84981757018861
 21
-224.69818278689829
 31
0.0
  0
LINE
  8
DETAIL
  6
CONTINUOUS
 62
     5
 10
-167.84981757018861
 20
-104.2907599911773
 30
0.0
 11
-167.84981757018861
 21
-3.7953915819573472
 31
0.0
  0
LINE
  8
DETAIL
  6
CONTINUOUS
 62
     5
 10
-165.81460759145759
 20
-103.7957089152699
 30
0.0
 11
-165.81460759145759
 21
-3.7953915819573472
 31
0.0
  0
LINE
  8
DETAIL
  6
CONTINUOUS
 62
     5
 10
165.8696132665589
 20
-224.69818278689829
 30
0.0
 11
165.8696132665589
 21
-105.665901868698
 31
0.0
  0
LINE
  8
DETAIL
  6
CONTINUOUS
 62
     5
 10
167.84981757018861
 20
-224.69818278689829
 30
0.0
 11
167.84981757018861
 21
-106.7660153707147
 31
0.0
  0
LINE
  8
DETAIL
  6
CONTINUOUS
 62
     5
 10
107.83862603518109
 20
-227.17343816643569
 30
0.0
 11
107.83862603518109
 21
-223.98310901058741
 31
0.0
  0
LINE
  8
DETAIL
  6
CONTINUOUS
 62
     5
 10
107.83862603518109
 20
-227.17343816643569
 30
0.0
 11
165.0445281400464
 21
-227.17343816643569
 31
0.0
  0
LINE
  8
DETAIL
  6
CONTINUOUS
 62
     5
 10
107.83862603518109
 20
-225.30324521300739
 30
0.0
 11
165.0445281400464
 21
-225.30324521300739
 31
0.0
  0
LINE
  8
DETAIL
  6
CONTINUOUS
 62
     5
 10
165.0445281400464
 20
-224.69818278689829
 30
0.0
 11
167.84981757018861
 21
-224.69818278689829
 31
0.0
  0
LINE
  8
DETAIL
  6
CONTINUOUS
 62
     5
 10
165.0445281400464
 20
-224.69818278689829
 30
0.0
 11
165.0445281400464
 21
-227.17343816643569
 31
0.0
  0
LINE
  8
DETAIL
  6
CONTINUOUS
 62
     5
 10
165.0445281400464
 20
-1.320136202419917
 30
0.0
 11
165.0445281400464
 21
-3.7953915819573472
 31
0.0
  0
LINE
  8
DETAIL
  6
CONTINUOUS
 62
     5
 10
107.83862603518109
 20
-4.5104653582682204
 30
0.0
 11
107.83862603518109
 21
-1.320136202419917
 31
0.0
  0
LINE
  8
DETAIL
  6
CONTINUOUS
 62
     5
 10
107.83862603518109
 20
-1.320136202419917
 30
0.0
 11
165.0445281400464
 21
-1.320136202419917
 31
0.0
  0
LINE
  8
DETAIL
  6
CONTINUOUS
 62
     5
 10
107.83862603518109
 20
-3.1903291558483029
 30
0.0
 11
165.0445281400464
 21
-3.1903291558483029
 31
0.0
  0
LINE
  8
DETAIL
  6
CONTINUOUS
 62
     5
 10
165.0445281400464
 20
-3.7953915819573472
 30
0.0
 11
167.84981757018861
 21
-3.7953915819573472
 31
0.0
  0
LINE
  8
DETAIL
  6
CONTINUOUS
 62
     5
 10
165.8696132665589
 20
-103.7957089152699
 30
0.0
 11
165.8696132665589
 21
-3.7953915819573472
 31
0.0
  0
LINE
  8
DETAIL
  6
CONTINUOUS
 62
     5
 10
167.84981757018861
 20
-104.2907599911773
 30
0.0
 11
167.84981757018861
 21
-3.7953915819573472
 31
0.0
  0
LINE
  8
DETAIL
  6
CONTINUOUS
 62
     5
 10
-88.31161137438562
 20
-4.5104653582682204
 30
0.0
 11
-88.31161137438562
 21
0.0
 31
0.0
  0
LINE
  8
DETAIL
  6
CONTINUOUS
 62
     5
 10
-88.31161137438562
 20
-223.98310901058741
 30
0.0
 11
-88.31161137438562
 21
-228.49357436885569
 31
0.0
  0
LINE
  8
DETAIL
  6
CONTINUOUS
 62
     5
 10
105.6383990311476
 20
-228.49357436885569
 30
0.0
 11
-88.31161137438562
 21
-228.49357436885569
 31
0.0
  0
LINE
  8
DETAIL
  6
CONTINUOUS
 62
     5
 10
105.6383990311476
 20
-225.30324521300739
 30
0.0
 11
-88.31161137438562
 21
-225.30324521300739
 31
0.0
  0
LINE
  8
DETAIL
  6
CONTINUOUS
 62
     5
 10
105.6383990311476
 20
-228.49357436885569
 30
0.0
 11
105.6383990311476
 21
-223.98310901058741
 31
0.0
  0
LINE
  8
DETAIL
  6
CONTINUOUS
 62
     5
 10
105.6383990311476
 20
0.0
 30
0.0
 11
-88.31161137438562
 21
0.0
 31
0.0
  0
LINE
  8
DETAIL
  6
CONTINUOUS
 62
     5
 10
105.6383990311476
 20
-3.1903291558483029
 30
0.0
 11
-88.31161137438562
 21
-3.1903291558483029
 31
0.0
  0
LINE
  8
DETAIL
  6
CONTINUOUS
 62
     5
 10
105.6383990311476
 20
-4.5104653582682204
 30
0.0
 11
105.6383990311476
 21
0.0
 31
0.0
  0
LINE
  8
DETAIL
  6
CONTINUOUS
 62
     5
 10
-171.42518645174249
 20
-194.17003310593671
 30
0.0
 11
-171.15015807623851
 21
-194.17003310593671
 31
0.0
  0
LINE
  8
DETAIL
  6
CONTINUOUS
 62
     5
 10
-167.84981757018861
 20
-194.50006715654169
 30
0.0
 11
-168.61989702160031
 21
-194.17003310593671
 31
0.0
  0
LINE
  8
DETAIL
  6
CONTINUOUS
 62
     5
 10
-171.15015807623851
 20
-194.17003310593671
 30
0.0
 11
-233.14155391487591
 21
-185.25911373960179
 31
0.0
  0
LINE
  8
DETAIL
  6
CONTINUOUS
 62
     5
 10
-233.30657094017829
 20
-43.179454954153023
 30
0.0
 11
-171.15015807623851
 21
-34.268535587818413
 31
0.0
  0
LINE
  8
DETAIL
  6
CONTINUOUS
 62
     5
 10
-229.89621908392721
 20
-43.179454954153023
 30
0.0
 11
-171.15015807623851
 21
-34.488558288221611
 31
0.0
  0
LINE
  8
DETAIL
  6
CONTINUOUS
 62
     5
 10
-235.836831994817
 20
-185.25911373960179
 30
0.0
 11
-233.30657094017829
 21
-185.25911373960179
 31
0.0
  0
LINE
  8
DETAIL
  6
CONTINUOUS
 62
     5
 10
-237.4319965727411
 20
-183.99398321228301
 30
0.0
 11
-237.10196252213589
 21
-184.15900023758539
 31
0.0
  0
LINE
  8
DETAIL
  6
CONTINUOUS
 62
     5
 10
-237.10196252213589
 20
-184.15900023758539
 30
0.0
 11
-237.10196252213589
 21
-184.6540513134928
 31
0.0
  0
LINE
  8
DETAIL
  6
CONTINUOUS
 62
     5
 10
-237.10196252213589
 20
-184.6540513134928
 30
0.0
 11
-236.60691144622871
 21
-184.98408536409781
 31
0.0
  0
LINE
  8
DETAIL
  6
CONTINUOUS
 62
     5
 10
-236.60691144622871
 20
-184.98408536409781
 30
0.0
 11
-236.4418944209261
 21
-185.25911373960179
 31
0.0
  0
LINE
  8
DETAIL
  6
CONTINUOUS
 62
     5
 10
-236.4418944209261
 20
-185.25911373960179
 30
0.0
 11
-235.836831994817
 21
-185.25911373960179
 31
0.0
  0
LINE
  8
DETAIL
  6
CONTINUOUS
 62
     5
 10
-233.30657094017829
 20
-43.509489004758052
 30
0.0
 11
-233.30657094017829
 21
-185.25911373960179
 31
0.0
  0
LINE
  8
DETAIL
  6
CONTINUOUS
 62
     5
 10
-233.14155391487591
 20
-185.25911373960179
 30
0.0
 11
-233.30657094017829
 21
-185.25911373960179
 31
0.0
  0
LINE
  8
DETAIL
  6
CONTINUOUS
 62
     5
 10
-234.2966730919932
 20
-43.784517380262059
 30
0.0
 11
-234.2966730919932
 21
-43.509489004758052
 31
0.0
  0
LINE
  8
DETAIL
  6
CONTINUOUS
 62
     5
 10
-234.2966730919932
 20
-43.784517380262059
 30
0.0
 11
-236.11186037032101
 21
-44.664608181875558
 31
0.0
  0
LINE
  8
DETAIL
  6
CONTINUOUS
 62
     5
 10
-233.14155391487591
 20
-43.509489004758052
 30
0.0
 11
-230.83131556064089
 21
-43.179454954153023
 31
0.0
  0
LINE
  8
DETAIL
  6
CONTINUOUS
 62
     5
 10
-234.90173551810241
 20
-43.509489004758052
 30
0.0
 11
-234.62670714259841
 21
-43.509489004758052
 31
0.0
  0
LINE
  8
DETAIL
  6
CONTINUOUS
 62
     5
 10
-234.90173551810241
 20
-43.509489004758052
 30
0.0
 11
-234.62670714259841
 21
-43.509489004758052
 31
0.0
  0
LINE
  8
DETAIL
  6
CONTINUOUS
 62
     5
 10
-237.4319965727411
 20
-183.99398321228301
 30
0.0
 11
-237.4319965727411
 21
-44.004540080665492
 31
0.0
  0
LINE
  8
DETAIL
  6
CONTINUOUS
 62
     5
 10
-233.30657094017829
 20
-43.509489004758052
 30
0.0
 11
-233.14155391487591
 21
-43.509489004758052
 31
0.0
  0
LINE
  8
DETAIL
  6
CONTINUOUS
 62
     5
 10
-229.89621908392721
 20
-43.509489004758052
 30
0.0
 11
-229.89621908392721
 21
-42.794415228447178
 31
0.0
  0
LINE
  8
DETAIL
  6
CONTINUOUS
 62
     5
 10
-230.83131556064089
 20
-43.014437928850377
 30
0.0
 11
-229.89621908392721
 21
-43.179454954153023
 31
0.0
  0
LINE
  8
DETAIL
  6
CONTINUOUS
 62
     5
 10
-236.4418944209261
 20
-43.179454954153023
 30
0.0
 11
-233.30657094017829
 21
-43.179454954153023
 31
0.0
  0
LINE
  8
DETAIL
  6
CONTINUOUS
 62
     5
 10
-230.83131556064089
 20
-43.179454954153023
 30
0.0
 11
-229.89621908392721
 21
-43.509489004758052
 31
0.0
  0
LINE
  8
DETAIL
  6
CONTINUOUS
 62
     5
 10
-234.2966730919932
 20
-43.509489004758052
 30
0.0
 11
-236.4418944209261
 21
-44.499591156572933
 31
0.0
  0
LINE
  8
DETAIL
  6
CONTINUOUS
 62
     5
 10
-171.15015807623851
 20
-34.488558288221611
 30
0.0
 11
-171.15015807623851
 21
-114.3017928595286
 31
0.0
  0
LINE
  8
DETAIL
  6
CONTINUOUS
 62
     5
 10
-236.4418944209261
 20
-43.179454954153023
 30
0.0
 11
-236.60691144622871
 21
-43.179454954153023
 31
0.0
  0
LINE
  8
DETAIL
  6
CONTINUOUS
 62
     5
 10
-236.60691144622871
 20
-43.179454954153023
 30
0.0
 11
-236.82693414663191
 21
-43.509489004758052
 31
0.0
  0
LINE
  8
DETAIL
  6
CONTINUOUS
 62
     5
 10
-236.82693414663191
 20
-43.509489004758052
 30
0.0
 11
-237.10196252213589
 21
-43.784517380262059
 31
0.0
  0
LINE
  8
DETAIL
  6
CONTINUOUS
 62
     5
 10
-237.10196252213589
 20
-43.784517380262059
 30
0.0
 11
-237.10196252213589
 21
-44.004540080665492
 31
0.0
  0
LINE
  8
DETAIL
  6
CONTINUOUS
 62
     5
 10
-237.10196252213589
 20
-44.004540080665492
 30
0.0
 11
-237.4319965727411
 21
-44.279568456169727
 31
0.0
  0
LINE
  8
DETAIL
  6
CONTINUOUS
 62
     5
 10
-237.4319965727411
 20
-44.279568456169727
 30
0.0
 11
-237.10196252213589
 21
-44.499591156572933
 31
0.0
  0
LINE
  8
DETAIL
  6
CONTINUOUS
 62
     5
 10
-237.10196252213589
 20
-44.499591156572933
 30
0.0
 11
-237.10196252213589
 21
-44.664608181875558
 31
0.0
  0
LINE
  8
DETAIL
  6
CONTINUOUS
 62
     5
 10
-237.10196252213589
 20
-44.664608181875558
 30
0.0
 11
-236.82693414663191
 21
-44.664608181875558
 31
0.0
  0
LINE
  8
DETAIL
  6
CONTINUOUS
 62
     5
 10
-236.82693414663191
 20
-44.664608181875558
 30
0.0
 11
-236.60691144622871
 21
-44.664608181875558
 31
0.0
  0
LINE
  8
DETAIL
  6
CONTINUOUS
 62
     5
 10
-236.60691144622871
 20
-44.664608181875558
 30
0.0
 11
-236.11186037032101
 21
-44.664608181875558
 31
0.0
  0
LINE
  8
DETAIL
  6
CONTINUOUS
 62
     5
 10
-236.11186037032101
 20
-44.664608181875558
 30
0.0
 11
-235.836831994817
 21
-44.664608181875558
 31
0.0
  0
LINE
  8
DETAIL
  6
CONTINUOUS
 62
     5
 10
-171.15015807623851
 20
-34.488558288221611
 30
0.0
 11
-168.61989702160031
 21
-34.488558288221611
 31
0.0
  0
LINE
  8
DETAIL
  6
CONTINUOUS
 62
     5
 10
-171.15015807623851
 20
-34.268535587818413
 30
0.0
 11
-168.61989702160031
 21
-34.268535587818413
 31
0.0
  0
LINE
  8
DETAIL
  6
CONTINUOUS
 62
     5
 10
-235.836831994817
 20
-44.004540080665492
 30
0.0
 11
-236.11186037032101
 21
-43.784517380262059
 31
0.0
  0
LINE
  8
DETAIL
  6
CONTINUOUS
 62
     5
 10
-236.11186037032101
 20
-43.784517380262059
 30
0.0
 11
-236.4418944209261
 21
-43.509489004758052
 31
0.0
  0
LINE
  8
DETAIL
  6
CONTINUOUS
 62
     5
 10
-236.4418944209261
 20
-43.509489004758052
 30
0.0
 11
-236.60691144622871
 21
-43.509489004758052
 31
0.0
  0
LINE
  8
DETAIL
  6
CONTINUOUS
 62
     5
 10
-236.60691144622871
 20
-43.509489004758052
 30
0.0
 11
-236.82693414663191
 21
-43.784517380262059
 31
0.0
  0
LINE
  8
DETAIL
  6
CONTINUOUS
 62
     5
 10
-236.82693414663191
 20
-43.784517380262059
 30
0.0
 11
-236.82693414663191
 21
-44.004540080665492
 31
0.0
  0
LINE
  8
DETAIL
  6
CONTINUOUS
 62
     5
 10
-236.82693414663191
 20
-44.004540080665492
 30
0.0
 11
-236.82693414663191
 21
-44.279568456169727
 31
0.0
  0
LINE
  8
DETAIL
  6
CONTINUOUS
 62
     5
 10
-236.82693414663191
 20
-44.279568456169727
 30
0.0
 11
-236.82693414663191
 21
-44.499591156572933
 31
0.0
  0
LINE
  8
DETAIL
  6
CONTINUOUS
 62
     5
 10
-236.82693414663191
 20
-44.499591156572933
 30
0.0
 11
-236.60691144622871
 21
-44.499591156572933
 31
0.0
  0
LINE
  8
DETAIL
  6
CONTINUOUS
 62
     5
 10
-236.60691144622871
 20
-44.499591156572933
 30
0.0
 11
-236.4418944209261
 21
-44.499591156572933
 31
0.0
  0
LINE
  8
DETAIL
  6
CONTINUOUS
 62
     5
 10
-236.4418944209261
 20
-44.499591156572933
 30
0.0
 11
-236.11186037032101
 21
-44.499591156572933
 31
0.0
  0
LINE
  8
DETAIL
  6
CONTINUOUS
 62
     5
 10
-236.11186037032101
 20
-44.499591156572933
 30
0.0
 11
-236.11186037032101
 21
-44.279568456169727
 31
0.0
  0
LINE
  8
DETAIL
  6
CONTINUOUS
 62
     5
 10
-236.11186037032101
 20
-44.279568456169727
 30
0.0
 11
-235.836831994817
 21
-44.279568456169727
 31
0.0
  0
LINE
  8
DETAIL
  6
CONTINUOUS
 62
     5
 10
-235.836831994817
 20
-44.279568456169727
 30
0.0
 11
-235.836831994817
 21
-44.004540080665492
 31
0.0
  0
LINE
  8
DETAIL
  6
CONTINUOUS
 62
     5
 10
-233.30657094017829
 20
-43.509489004758052
 30
0.0
 11
-236.4418944209261
 21
-43.509489004758052
 31
0.0
  0
LINE
  8
DETAIL
  6
CONTINUOUS
 62
     5
 10
-171.15015807623851
 20
-34.488558288221611
 30
0.0
 11
-171.42518645174249
 21
-34.488558288221611
 31
0.0
  0
LINE
  8
DETAIL
  6
CONTINUOUS
 62
     5
 10
-171.15015807623851
 20
-34.268535587818413
 30
0.0
 11
-171.42518645174249
 21
-34.268535587818413
 31
0.0
  0
LINE
  8
DETAIL
  6
CONTINUOUS
 62
     5
 10
-168.61989702160031
 20
-34.268535587818413
 30
0.0
 11
-167.84981757018861
 21
-33.993507212314171
 31
0.0
  0
LINE
  8
DETAIL
  6
CONTINUOUS
 62
     5
 10
-168.61989702160031
 20
-34.488558288221611
 30
0.0
 11
-167.84981757018861
 21
-34.268535587818413
 31
0.0
  0
LINE
  8
DETAIL
  6
CONTINUOUS
 62
     5
 10
-171.42518645174249
 20
-194.17003310593671
 30
0.0
 11
-171.42518645174249
 21
-135.97402884925671
 31
0.0
  0
LINE
  8
DETAIL
  6
CONTINUOUS
 62
     5
 10
-171.15015807623851
 20
-194.17003310593671
 30
0.0
 11
-168.61989702160031
 21
-194.17003310593671
 31
0.0
  0
LINE
  8
DETAIL
  6
CONTINUOUS
 62
     5
 10
-171.42518645174249
 20
-194.17003310593671
 30
0.0
 11
-171.15015807623851
 21
-194.17003310593671
 31
0.0
  0
LINE
  8
DETAIL
  6
CONTINUOUS
 62
     5
 10
168.56489134649951
 20
-194.17003310593671
 30
0.0
 11
167.84981757018861
 21
-194.50006715654169
 31
0.0
  0
LINE
  8
DETAIL
  6
CONTINUOUS
 62
     5
 10
171.04014672603691
 20
-194.17003310593671
 30
0.0
 11
233.14155391487631
 21
-185.25911373960179
 31
0.0
  0
LINE
  8
DETAIL
  6
CONTINUOUS
 62
     5
 10
233.3615766152794
 20
-43.179454954153023
 30
0.0
 11
171.04014672603691
 21
-34.268535587818413
 31
0.0
  0
LINE
  8
DETAIL
  6
CONTINUOUS
 62
     5
 10
229.6211907084228
 20
-43.179454954153023
 30
0.0
 11
171.04014672603691
 21
-34.488558288221611
 31
0.0
  0
LINE
  8
DETAIL
  6
CONTINUOUS
 62
     5
 10
235.836831994817
 20
-185.25911373960179
 30
0.0
 11
233.3615766152794
 21
-185.25911373960179
 31
0.0
  0
LINE
  8
DETAIL
  6
CONTINUOUS
 62
     5
 10
234.84672984300161
 20
-185.25911373960179
 30
0.0
 11
234.62670714259841
 21
-185.25911373960179
 31
0.0
  0
LINE
  8
DETAIL
  6
CONTINUOUS
 62
     5
 10
235.836831994817
 20
-185.25911373960179
 30
0.0
 11
236.3318830707245
 21
-185.25911373960179
 31
0.0
  0
LINE
  8
DETAIL
  6
CONTINUOUS
 62
     5
 10
236.3318830707245
 20
-185.25911373960179
 30
0.0
 11
236.66191712132959
 21
-184.98408536409781
 31
0.0
  0
LINE
  8
DETAIL
  6
CONTINUOUS
 62
     5
 10
236.66191712132959
 20
-184.98408536409781
 30
0.0
 11
236.82693414663191
 21
-184.6540513134928
 31
0.0
  0
LINE
  8
DETAIL
  6
CONTINUOUS
 62
     5
 10
236.82693414663191
 20
-184.6540513134928
 30
0.0
 11
237.15696819723709
 21
-184.15900023758539
 31
0.0
  0
LINE
  8
DETAIL
  6
CONTINUOUS
 62
     5
 10
237.15696819723709
 20
-184.15900023758539
 30
0.0
 11
237.15696819723709
 21
-183.99398321228301
 31
0.0
  0
LINE
  8
DETAIL
  6
CONTINUOUS
 62
     5
 10
233.14155391487631
 20
-43.509489004758052
 30
0.0
 11
233.14155391487631
 21
-185.25911373960179
 31
0.0
  0
LINE
  8
DETAIL
  6
CONTINUOUS
 62
     5
 10
233.3615766152794
 20
-185.25911373960179
 30
0.0
 11
233.14155391487631
 21
-185.25911373960179
 31
0.0
  0
LINE
  8
DETAIL
  6
CONTINUOUS
 62
     5
 10
234.13165606669119
 20
-43.784517380262059
 30
0.0
 11
234.3516787670944
 21
-43.509489004758052
 31
0.0
  0
LINE
  8
DETAIL
  6
CONTINUOUS
 62
     5
 10
234.13165606669119
 20
-43.784517380262059
 30
0.0
 11
236.05685469522021
 21
-44.664608181875558
 31
0.0
  0
LINE
  8
DETAIL
  6
CONTINUOUS
 62
     5
 10
233.14155391487631
 20
-43.509489004758052
 30
0.0
 11
230.83131556064129
 21
-43.179454954153023
 31
0.0
  0
LINE
  8
DETAIL
  6
CONTINUOUS
 62
     5
 10
234.62670714259841
 20
-43.509489004758052
 30
0.0
 11
234.84672984300161
 21
-43.509489004758052
 31
0.0
  0
LINE
  8
DETAIL
  6
CONTINUOUS
 62
     5
 10
234.62670714259841
 20
-43.509489004758052
 30
0.0
 11
234.84672984300161
 21
-43.509489004758052
 31
0.0
  0
LINE
  8
DETAIL
  6
CONTINUOUS
 62
     5
 10
234.62670714259841
 20
-43.179454954153023
 30
0.0
 11
234.84672984300161
 21
-43.179454954153023
 31
0.0
  0
LINE
  8
DETAIL
  6
CONTINUOUS
 62
     5
 10
237.15696819723709
 20
-183.99398321228301
 30
0.0
 11
237.15696819723709
 21
-44.004540080665492
 31
0.0
  0
LINE
  8
DETAIL
  6
CONTINUOUS
 62
     5
 10
233.14155391487631
 20
-43.509489004758052
 30
0.0
 11
233.3615766152794
 21
-43.509489004758052
 31
0.0
  0
LINE
  8
DETAIL
  6
CONTINUOUS
 62
     5
 10
229.6211907084228
 20
-43.509489004758052
 30
0.0
 11
229.6211907084228
 21
-42.794415228447178
 31
0.0
  0
LINE
  8
DETAIL
  6
CONTINUOUS
 62
     5
 10
229.6211907084228
 20
-43.179454954153023
 30
0.0
 11
230.83131556064129
 21
-43.014437928850377
 31
0.0
  0
LINE
  8
DETAIL
  6
CONTINUOUS
 62
     5
 10
236.3318830707245
 20
-43.179454954153023
 30
0.0
 11
233.3615766152794
 21
-43.179454954153023
 31
0.0
  0
LINE
  8
DETAIL
  6
CONTINUOUS
 62
     5
 10
229.6211907084228
 20
-43.509489004758052
 30
0.0
 11
230.83131556064129
 21
-43.179454954153023
 31
0.0
  0
LINE
  8
DETAIL
  6
CONTINUOUS
 62
     5
 10
234.3516787670944
 20
-43.509489004758052
 30
0.0
 11
236.3318830707245
 21
-44.499591156572933
 31
0.0
  0
LINE
  8
DETAIL
  6
CONTINUOUS
 62
     5
 10
171.04014672603691
 20
-34.488558288221611
 30
0.0
 11
171.04014672603691
 21
-114.3017928595286
 31
0.0
  0
LINE
  8
DETAIL
  6
CONTINUOUS
 62
     5
 10
235.836831994817
 20
-44.664608181875558
 30
0.0
 11
236.05685469522021
 21
-44.664608181875558
 31
0.0
  0
LINE
  8
DETAIL
  6
CONTINUOUS
 62
     5
 10
236.05685469522021
 20
-44.664608181875558
 30
0.0
 11
236.3318830707245
 21
-44.664608181875558
 31
0.0
  0
LINE
  8
DETAIL
  6
CONTINUOUS
 62
     5
 10
236.3318830707245
 20
-44.664608181875558
 30
0.0
 11
236.82693414663191
 21
-44.664608181875558
 31
0.0
  0
LINE
  8
DETAIL
  6
CONTINUOUS
 62
     5
 10
236.82693414663191
 20
-44.664608181875558
 30
0.0
 11
237.15696819723709
 21
-44.499591156572933
 31
0.0
  0
LINE
  8
DETAIL
  6
CONTINUOUS
 62
     5
 10
237.15696819723709
 20
-44.499591156572933
 30
0.0
 11
237.15696819723709
 21
-44.279568456169727
 31
0.0
  0
LINE
  8
DETAIL
  6
CONTINUOUS
 62
     5
 10
237.15696819723709
 20
-44.279568456169727
 30
0.0
 11
237.15696819723709
 21
-44.004540080665492
 31
0.0
  0
LINE
  8
DETAIL
  6
CONTINUOUS
 62
     5
 10
237.15696819723709
 20
-44.004540080665492
 30
0.0
 11
237.15696819723709
 21
-43.784517380262059
 31
0.0
  0
LINE
  8
DETAIL
  6
CONTINUOUS
 62
     5
 10
237.15696819723709
 20
-43.784517380262059
 30
0.0
 11
236.82693414663191
 21
-43.509489004758052
 31
0.0
  0
LINE
  8
DETAIL
  6
CONTINUOUS
 62
     5
 10
236.82693414663191
 20
-43.509489004758052
 30
0.0
 11
236.66191712132959
 21
-43.179454954153023
 31
0.0
  0
LINE
  8
DETAIL
  6
CONTINUOUS
 62
     5
 10
236.66191712132959
 20
-43.179454954153023
 30
0.0
 11
236.3318830707245
 21
-43.179454954153023
 31
0.0
  0
LINE
  8
DETAIL
  6
CONTINUOUS
 62
     5
 10
171.04014672603691
 20
-34.488558288221611
 30
0.0
 11
168.56489134649951
 21
-34.488558288221611
 31
0.0
  0
LINE
  8
DETAIL
  6
CONTINUOUS
 62
     5
 10
171.04014672603691
 20
-34.268535587818413
 30
0.0
 11
168.56489134649951
 21
-34.268535587818413
 31
0.0
  0
LINE
  8
DETAIL
  6
CONTINUOUS
 62
     5
 10
236.82693414663191
 20
-44.004540080665492
 30
0.0
 11
236.82693414663191
 21
-43.784517380262059
 31
0.0
  0
LINE
  8
DETAIL
  6
CONTINUOUS
 62
     5
 10
236.82693414663191
 20
-43.784517380262059
 30
0.0
 11
236.66191712132959
 21
-43.784517380262059
 31
0.0
  0
LINE
  8
DETAIL
  6
CONTINUOUS
 62
     5
 10
236.66191712132959
 20
-43.784517380262059
 30
0.0
 11
236.66191712132959
 21
-43.509489004758052
 31
0.0
  0
LINE
  8
DETAIL
  6
CONTINUOUS
 62
     5
 10
236.66191712132959
 20
-43.509489004758052
 30
0.0
 11
236.3318830707245
 21
-43.509489004758052
 31
0.0
  0
LINE
  8
DETAIL
  6
CONTINUOUS
 62
     5
 10
236.3318830707245
 20
-43.509489004758052
 30
0.0
 11
236.05685469522021
 21
-43.509489004758052
 31
0.0
  0
LINE
  8
DETAIL
  6
CONTINUOUS
 62
     5
 10
236.05685469522021
 20
-43.509489004758052
 30
0.0
 11
236.05685469522021
 21
-43.784517380262059
 31
0.0
  0
LINE
  8
DETAIL
  6
CONTINUOUS
 62
     5
 10
236.05685469522021
 20
-43.784517380262059
 30
0.0
 11
235.836831994817
 21
-44.004540080665492
 31
0.0
  0
LINE
  8
DETAIL
  6
CONTINUOUS
 62
     5
 10
235.836831994817
 20
-44.004540080665492
 30
0.0
 11
235.836831994817
 21
-44.279568456169727
 31
0.0
  0
LINE
  8
DETAIL
  6
CONTINUOUS
 62
     5
 10
235.836831994817
 20
-44.279568456169727
 30
0.0
 11
236.05685469522021
 21
-44.279568456169727
 31
0.0
  0
LINE
  8
DETAIL
  6
CONTINUOUS
 62
     5
 10
236.05685469522021
 20
-44.279568456169727
 30
0.0
 11
236.05685469522021
 21
-44.499591156572933
 31
0.0
  0
LINE
  8
DETAIL
  6
CONTINUOUS
 62
     5
 10
236.05685469522021
 20
-44.499591156572933
 30
0.0
 11
236.3318830707245
 21
-44.499591156572933
 31
0.0
  0
LINE
  8
DETAIL
  6
CONTINUOUS
 62
     5
 10
236.3318830707245
 20
-44.499591156572933
 30
0.0
 11
236.66191712132959
 21
-44.499591156572933
 31
0.0
  0
LINE
  8
DETAIL
  6
CONTINUOUS
 62
     5
 10
236.66191712132959
 20
-44.499591156572933
 30
0.0
 11
236.82693414663191
 21
-44.279568456169727
 31
0.0
  0
LINE
  8
DETAIL
  6
CONTINUOUS
 62
     5
 10
236.82693414663191
 20
-44.279568456169727
 30
0.0
 11
236.82693414663191
 21
-44.004540080665492
 31
0.0
  0
LINE
  8
DETAIL
  6
CONTINUOUS
 62
     5
 10
233.3615766152794
 20
-43.509489004758052
 30
0.0
 11
236.3318830707245
 21
-43.509489004758052
 31
0.0
  0
LINE
  8
DETAIL
  6
CONTINUOUS
 62
     5
 10
167.84981757018861
 20
-33.993507212314171
 30
0.0
 11
168.56489134649951
 21
-34.268535587818413
 31
0.0
  0
LINE
  8
DETAIL
  6
CONTINUOUS
 62
     5
 10
167.84981757018861
 20
-34.268535587818413
 30
0.0
 11
168.56489134649951
 21
-34.488558288221611
 31
0.0
  0
LINE
  8
DETAIL
  6
CONTINUOUS
 62
     5
 10
171.04014672603691
 20
-194.17003310593671
 30
0.0
 11
171.04014672603691
 21
-135.97402884925671
 31
0.0
  0
LINE
  8
DETAIL
  6
CONTINUOUS
 62
     5
 10
171.04014672603691
 20
-194.17003310593671
 30
0.0
 11
168.56489134649951
 21
-194.17003310593671
 31
0.0
  0
LINE
  8
DETAIL
  6
CONTINUOUS
 62
     5
 10
171.04014672603691
 20
-194.17003310593671
 30
0.0
 11
171.37018077664169
 21
-194.17003310593671
 31
0.0
  0
LINE
  8
DETAIL
  6
CONTINUOUS
 62
     5
 10
-171.42518645174249
 20
-126.7880811074174
 30
0.0
 11
-171.42518645174249
 21
-114.3017928595286
 31
0.0
  0
LINE
  8
DETAIL
  6
CONTINUOUS
 62
     5
 10
171.04014672603691
 20
-126.7880811074174
 30
0.0
 11
171.04014672603691
 21
-114.3017928595286
 31
0.0
  0
LINE
  8
DETAIL
  6
CONTINUOUS
 62
     5
 10
156.8486825500224
 20
-112.7616339567055
 30
0.0
 11
159.8739946805679
 21
-115.67693473704939
 31
0.0
  0
LINE
  8
DETAIL
  6
CONTINUOUS
 62
     5
 10
159.8739946805679
 20
-112.7616339567055
 30
0.0
 11
156.8486825500224
 21
-115.67693473704939
 31
0.0
  0
LINE
  8
DETAIL
  6
CONTINUOUS
 62
     5
 10
163.17433518661781
 20
-114.3017928595286
 30
0.0
 11
162.844301136013
 21
-112.7616339567055
 31
0.0
  0
LINE
  8
DETAIL
  6
CONTINUOUS
 62
     5
 10
162.844301136013
 20
-112.7616339567055
 30
0.0
 11
162.1292273597021
 21
-111.49650342938639
 31
0.0
  0
LINE
  8
DETAIL
  6
CONTINUOUS
 62
     5
 10
162.1292273597021
 20
-111.49650342938639
 30
0.0
 11
161.02911385768559
 21
-110.28637857716789
 31
0.0
  0
LINE
  8
DETAIL
  6
CONTINUOUS
 62
     5
 10
161.02911385768559
 20
-110.28637857716789
 30
0.0
 11
159.6539719801647
 21
-109.68131615105879
 31
0.0
  0
LINE
  8
DETAIL
  6
CONTINUOUS
 62
     5
 10
159.6539719801647
 20
-109.68131615105879
 30
0.0
 11
158.16881875244209
 21
-109.4612934506554
 31
0.0
  0
LINE
  8
DETAIL
  6
CONTINUOUS
 62
     5
 10
158.16881875244209
 20
-109.4612934506554
 30
0.0
 11
156.6286598496188
 21
-110.0113502016638
 31
0.0
  0
LINE
  8
DETAIL
  6
CONTINUOUS
 62
     5
 10
156.6286598496188
 20
-110.0113502016638
 30
0.0
 11
155.36352932229991
 21
-110.6714183028739
 31
0.0
  0
LINE
  8
DETAIL
  6
CONTINUOUS
 62
     5
 10
155.36352932229991
 20
-110.6714183028739
 30
0.0
 11
154.373427170485
 21
-111.99155450529381
 31
0.0
  0
LINE
  8
DETAIL
  6
CONTINUOUS
 62
     5
 10
154.373427170485
 20
-111.99155450529381
 30
0.0
 11
153.8233704194765
 21
-113.4767077330164
 31
0.0
  0
LINE
  8
DETAIL
  6
CONTINUOUS
 62
     5
 10
153.8233704194765
 20
-113.4767077330164
 30
0.0
 11
153.8233704194765
 21
-114.9618609607387
 31
0.0
  0
LINE
  8
DETAIL
  6
CONTINUOUS
 62
     5
 10
153.8233704194765
 20
-114.9618609607387
 30
0.0
 11
154.373427170485
 21
-116.5020198635618
 31
0.0
  0
LINE
  8
DETAIL
  6
CONTINUOUS
 62
     5
 10
154.373427170485
 20
-116.5020198635618
 30
0.0
 11
155.36352932229991
 21
-117.7671503908812
 31
0.0
  0
LINE
  8
DETAIL
  6
CONTINUOUS
 62
     5
 10
155.36352932229991
 20
-117.7671503908812
 30
0.0
 11
156.6286598496188
 21
-118.482224167192
 31
0.0
  0
LINE
  8
DETAIL
  6
CONTINUOUS
 62
     5
 10
156.6286598496188
 20
-118.482224167192
 30
0.0
 11
158.16881875244209
 21
-118.9772752430995
 31
0.0
  0
LINE
  8
DETAIL
  6
CONTINUOUS
 62
     5
 10
158.16881875244209
 20
-118.9772752430995
 30
0.0
 11
159.6539719801647
 21
-118.8122582177969
 31
0.0
  0
LINE
  8
DETAIL
  6
CONTINUOUS
 62
     5
 10
159.6539719801647
 20
-118.8122582177969
 30
0.0
 11
161.02911385768559
 21
-118.20719579168779
 31
0.0
  0
LINE
  8
DETAIL
  6
CONTINUOUS
 62
     5
 10
161.02911385768559
 20
-118.20719579168779
 30
0.0
 11
162.1292273597021
 21
-117.1620879647719
 31
0.0
  0
LINE
  8
DETAIL
  6
CONTINUOUS
 62
     5
 10
162.1292273597021
 20
-117.1620879647719
 30
0.0
 11
162.844301136013
 21
-115.67693473704939
 31
0.0
  0
LINE
  8
DETAIL
  6
CONTINUOUS
 62
     5
 10
162.844301136013
 20
-115.67693473704939
 30
0.0
 11
163.17433518661781
 21
-114.3017928595286
 31
0.0
  0
LINE
  8
DETAIL
  6
CONTINUOUS
 62
     5
 10
138.8618267920499
 20
-112.7616339567055
 30
0.0
 11
141.83213324749499
 21
-115.67693473704939
 31
0.0
  0
LINE
  8
DETAIL
  6
CONTINUOUS
 62
     5
 10
141.83213324749499
 20
-112.7616339567055
 30
0.0
 11
138.8618267920499
 21
-115.67693473704939
 31
0.0
  0
LINE
  8
DETAIL
  6
CONTINUOUS
 62
     5
 10
145.07746807844461
 20
-114.3017928595286
 30
0.0
 11
144.85744537804089
 21
-112.7616339567055
 31
0.0
  0
LINE
  8
DETAIL
  6
CONTINUOUS
 62
     5
 10
144.85744537804089
 20
-112.7616339567055
 30
0.0
 11
144.14237160172999
 21
-111.49650342938639
 31
0.0
  0
LINE
  8
DETAIL
  6
CONTINUOUS
 62
     5
 10
144.14237160172999
 20
-111.49650342938639
 30
0.0
 11
143.15226944991511
 21
-110.28637857716789
 31
0.0
  0
LINE
  8
DETAIL
  6
CONTINUOUS
 62
     5
 10
143.15226944991511
 20
-110.28637857716789
 30
0.0
 11
141.66711622219259
 21
-109.68131615105879
 31
0.0
  0
LINE
  8
DETAIL
  6
CONTINUOUS
 62
     5
 10
141.66711622219259
 20
-109.68131615105879
 30
0.0
 11
140.07195164426841
 21
-109.4612934506554
 31
0.0
  0
LINE
  8
DETAIL
  6
CONTINUOUS
 62
     5
 10
140.07195164426841
 20
-109.4612934506554
 30
0.0
 11
138.53179274144509
 21
-110.0113502016638
 31
0.0
  0
LINE
  8
DETAIL
  6
CONTINUOUS
 62
     5
 10
138.53179274144509
 20
-110.0113502016638
 30
0.0
 11
137.3766735643278
 21
-110.6714183028739
 31
0.0
  0
LINE
  8
DETAIL
  6
CONTINUOUS
 62
     5
 10
137.3766735643278
 20
-110.6714183028739
 30
0.0
 11
136.33156573741209
 21
-111.99155450529381
 31
0.0
  0
LINE
  8
DETAIL
  6
CONTINUOUS
 62
     5
 10
136.33156573741209
 20
-111.99155450529381
 30
0.0
 11
135.83651466150451
 21
-113.4767077330164
 31
0.0
  0
LINE
  8
DETAIL
  6
CONTINUOUS
 62
     5
 10
135.83651466150451
 20
-113.4767077330164
 30
0.0
 11
135.83651466150451
 21
-114.9618609607387
 31
0.0
  0
LINE
  8
DETAIL
  6
CONTINUOUS
 62
     5
 10
135.83651466150451
 20
-114.9618609607387
 30
0.0
 11
136.33156573741209
 21
-116.5020198635618
 31
0.0
  0
LINE
  8
DETAIL
  6
CONTINUOUS
 62
     5
 10
136.33156573741209
 20
-116.5020198635618
 30
0.0
 11
137.3766735643278
 21
-117.7671503908812
 31
0.0
  0
LINE
  8
DETAIL
  6
CONTINUOUS
 62
     5
 10
137.3766735643278
 20
-117.7671503908812
 30
0.0
 11
138.53179274144509
 21
-118.482224167192
 31
0.0
  0
LINE
  8
DETAIL
  6
CONTINUOUS
 62
     5
 10
138.53179274144509
 20
-118.482224167192
 30
0.0
 11
140.07195164426841
 21
-118.9772752430995
 31
0.0
  0
LINE
  8
DETAIL
  6
CONTINUOUS
 62
     5
 10
140.07195164426841
 20
-118.9772752430995
 30
0.0
 11
141.66711622219259
 21
-118.8122582177969
 31
0.0
  0
LINE
  8
DETAIL
  6
CONTINUOUS
 62
     5
 10
141.66711622219259
 20
-118.8122582177969
 30
0.0
 11
143.15226944991511
 21
-118.20719579168779
 31
0.0
  0
LINE
  8
DETAIL
  6
CONTINUOUS
 62
     5
 10
143.15226944991511
 20
-118.20719579168779
 30
0.0
 11
144.14237160172999
 21
-117.1620879647719
 31
0.0
  0
LINE
  8
DETAIL
  6
CONTINUOUS
 62
     5
 10
144.14237160172999
 20
-117.1620879647719
 30
0.0
 11
144.85744537804089
 21
-115.67693473704939
 31
0.0
  0
LINE
  8
DETAIL
  6
CONTINUOUS
 62
     5
 10
144.85744537804089
 20
-115.67693473704939
 30
0.0
 11
145.07746807844461
 21
-114.3017928595286
 31
0.0
  0
LINE
  8
DETAIL
  6
CONTINUOUS
 62
     5
 10
-138.9168324671507
 20
-112.7616339567055
 30
0.0
 11
-141.83213324749499
 21
-115.67693473704939
 31
0.0
  0
LINE
  8
DETAIL
  6
CONTINUOUS
 62
     5
 10
-141.83213324749499
 20
-112.7616339567055
 30
0.0
 11
-138.9168324671507
 21
-115.67693473704939
 31
0.0
  0
LINE
  8
DETAIL
  6
CONTINUOUS
 62
     5
 10
-135.83651466150451
 20
-114.3017928595286
 30
0.0
 11
-136.11154303700849
 21
-112.7616339567055
 31
0.0
  0
LINE
  8
DETAIL
  6
CONTINUOUS
 62
     5
 10
-136.11154303700849
 20
-112.7616339567055
 30
0.0
 11
-136.8266168133193
 21
-111.49650342938639
 31
0.0
  0
LINE
  8
DETAIL
  6
CONTINUOUS
 62
     5
 10
-136.8266168133193
 20
-111.49650342938639
 30
0.0
 11
-137.81671896513421
 21
-110.28637857716789
 31
0.0
  0
LINE
  8
DETAIL
  6
CONTINUOUS
 62
     5
 10
-137.81671896513421
 20
-110.28637857716789
 30
0.0
 11
-139.30187219285679
 21
-109.68131615105879
 31
0.0
  0
LINE
  8
DETAIL
  6
CONTINUOUS
 62
     5
 10
-139.30187219285679
 20
-109.68131615105879
 30
0.0
 11
-140.84203109568011
 21
-109.4612934506554
 31
0.0
  0
LINE
  8
DETAIL
  6
CONTINUOUS
 62
     5
 10
-140.84203109568011
 20
-109.4612934506554
 30
0.0
 11
-142.43719567360429
 21
-110.0113502016638
 31
0.0
  0
LINE
  8
DETAIL
  6
CONTINUOUS
 62
     5
 10
-142.43719567360429
 20
-110.0113502016638
 30
0.0
 11
-143.64732052582281
 21
-110.6714183028739
 31
0.0
  0
LINE
  8
DETAIL
  6
CONTINUOUS
 62
     5
 10
-143.64732052582281
 20
-110.6714183028739
 30
0.0
 11
-144.63742267763769
 21
-111.99155450529381
 31
0.0
  0
LINE
  8
DETAIL
  6
CONTINUOUS
 62
     5
 10
-144.63742267763769
 20
-111.99155450529381
 30
0.0
 11
-145.1324737535449
 21
-113.4767077330164
 31
0.0
  0
LINE
  8
DETAIL
  6
CONTINUOUS
 62
     5
 10
-145.1324737535449
 20
-113.4767077330164
 30
0.0
 11
-145.1324737535449
 21
-114.9618609607387
 31
0.0
  0
LINE
  8
DETAIL
  6
CONTINUOUS
 62
     5
 10
-145.1324737535449
 20
-114.9618609607387
 30
0.0
 11
-144.63742267763769
 21
-116.5020198635618
 31
0.0
  0
LINE
  8
DETAIL
  6
CONTINUOUS
 62
     5
 10
-144.63742267763769
 20
-116.5020198635618
 30
0.0
 11
-143.64732052582281
 21
-117.7671503908812
 31
0.0
  0
LINE
  8
DETAIL
  6
CONTINUOUS
 62
     5
 10
-143.64732052582281
 20
-117.7671503908812
 30
0.0
 11
-142.43719567360429
 21
-118.482224167192
 31
0.0
  0
LINE
  8
DETAIL
  6
CONTINUOUS
 62
     5
 10
-142.43719567360429
 20
-118.482224167192
 30
0.0
 11
-140.84203109568011
 21
-118.9772752430995
 31
0.0
  0
LINE
  8
DETAIL
  6
CONTINUOUS
 62
     5
 10
-140.84203109568011
 20
-118.9772752430995
 30
0.0
 11
-139.30187219285679
 21
-118.8122582177969
 31
0.0
  0
LINE
  8
DETAIL
  6
CONTINUOUS
 62
     5
 10
-139.30187219285679
 20
-118.8122582177969
 30
0.0
 11
-137.81671896513421
 21
-118.20719579168779
 31
0.0
  0
LINE
  8
DETAIL
  6
CONTINUOUS
 62
     5
 10
-137.81671896513421
 20
-118.20719579168779
 30
0.0
 11
-136.8266168133193
 21
-117.1620879647719
 31
0.0
  0
LINE
  8
DETAIL
  6
CONTINUOUS
 62
     5
 10
-136.8266168133193
 20
-117.1620879647719
 30
0.0
 11
-136.11154303700849
 21
-115.67693473704939
 31
0.0
  0
LINE
  8
DETAIL
  6
CONTINUOUS
 62
     5
 10
-136.11154303700849
 20
-115.67693473704939
 30
0.0
 11
-135.83651466150451
 21
-114.3017928595286
 31
0.0
  0
LINE
  8
DETAIL
  6
CONTINUOUS
 62
     5
 10
-159.92900035566871
 20
-112.7616339567055
 30
0.0
 11
-156.848682550022
 21
-115.67693473704939
 31
0.0
  0
LINE
  8
DETAIL
  6
CONTINUOUS
 62
     5
 10
-156.848682550022
 20
-112.7616339567055
 30
0.0
 11
-159.92900035566871
 21
-115.67693473704939
 31
0.0
  0
LINE
  8
DETAIL
  6
CONTINUOUS
 62
     5
 10
-153.93338176967811
 20
-114.3017928595286
 30
0.0
 11
-154.15340447008131
 21
-112.7616339567055
 31
0.0
  0
LINE
  8
DETAIL
  6
CONTINUOUS
 62
     5
 10
-154.15340447008131
 20
-112.7616339567055
 30
0.0
 11
-154.92348392149299
 21
-111.49650342938639
 31
0.0
  0
LINE
  8
DETAIL
  6
CONTINUOUS
 62
     5
 10
-154.92348392149299
 20
-111.49650342938639
 30
0.0
 11
-155.80357472310629
 21
-110.28637857716789
 31
0.0
  0
LINE
  8
DETAIL
  6
CONTINUOUS
 62
     5
 10
-155.80357472310629
 20
-110.28637857716789
 30
0.0
 11
-157.39873930103039
 21
-109.68131615105879
 31
0.0
  0
LINE
  8
DETAIL
  6
CONTINUOUS
 62
     5
 10
-157.39873930103039
 20
-109.68131615105879
 30
0.0
 11
-158.9388982038538
 21
-109.4612934506554
 31
0.0
  0
LINE
  8
DETAIL
  6
CONTINUOUS
 62
     5
 10
-158.9388982038538
 20
-109.4612934506554
 30
0.0
 11
-160.31404008137429
 21
-110.0113502016638
 31
0.0
  0
LINE
  8
DETAIL
  6
CONTINUOUS
 62
     5
 10
-160.31404008137429
 20
-110.0113502016638
 30
0.0
 11
-161.6341762837944
 21
-110.6714183028739
 31
0.0
  0
LINE
  8
DETAIL
  6
CONTINUOUS
 62
     5
 10
-161.6341762837944
 20
-110.6714183028739
 30
0.0
 11
-162.6242784356098
 21
-111.99155450529381
 31
0.0
  0
LINE
  8
DETAIL
  6
CONTINUOUS
 62
     5
 10
-162.6242784356098
 20
-111.99155450529381
 30
0.0
 11
-163.11932951151701
 21
-113.4767077330164
 31
0.0
  0
LINE
  8
DETAIL
  6
CONTINUOUS
 62
     5
 10
-163.11932951151701
 20
-113.4767077330164
 30
0.0
 11
-163.11932951151701
 21
-114.9618609607387
 31
0.0
  0
LINE
  8
DETAIL
  6
CONTINUOUS
 62
     5
 10
-163.11932951151701
 20
-114.9618609607387
 30
0.0
 11
-162.6242784356098
 21
-116.5020198635618
 31
0.0
  0
LINE
  8
DETAIL
  6
CONTINUOUS
 62
     5
 10
-162.6242784356098
 20
-116.5020198635618
 30
0.0
 11
-161.6341762837944
 21
-117.7671503908812
 31
0.0
  0
LINE
  8
DETAIL
  6
CONTINUOUS
 62
     5
 10
-161.6341762837944
 20
-117.7671503908812
 30
0.0
 11
-160.31404008137429
 21
-118.482224167192
 31
0.0
  0
LINE
  8
DETAIL
  6
CONTINUOUS
 62
     5
 10
-160.31404008137429
 20
-118.482224167192
 30
0.0
 11
-158.9388982038538
 21
-118.9772752430995
 31
0.0
  0
LINE
  8
DETAIL
  6
CONTINUOUS
 62
     5
 10
-158.9388982038538
 20
-118.9772752430995
 30
0.0
 11
-157.39873930103039
 21
-118.8122582177969
 31
0.0
  0
LINE
  8
DETAIL
  6
CONTINUOUS
 62
     5
 10
-157.39873930103039
 20
-118.8122582177969
 30
0.0
 11
-155.80357472310629
 21
-118.20719579168779
 31
0.0
  0
LINE
  8
DETAIL
  6
CONTINUOUS
 62
     5
 10
-155.80357472310629
 20
-118.20719579168779
 30
0.0
 11
-154.92348392149299
 21
-117.1620879647719
 31
0.0
  0
LINE
  8
DETAIL
  6
CONTINUOUS
 62
     5
 10
-154.92348392149299
 20
-117.1620879647719
 30
0.0
 11
-154.15340447008131
 21
-115.67693473704939
 31
0.0
  0
LINE
  8
DETAIL
  6
CONTINUOUS
 62
     5
 10
-154.15340447008131
 20
-115.67693473704939
 30
0.0
 11
-153.93338176967811
 21
-114.3017928595286
 31
0.0
  0
LINE
  8
DETAIL
  6
CONTINUOUS
 62
     5
 10
170.0500445742216
 20
-152.97078245541371
 30
0.0
 11
167.84981757018861
 21
-152.97078245541371
 31
0.0
  0
LINE
  8
DETAIL
  6
CONTINUOUS
 62
     5
 10
170.0500445742216
 20
-136.30406289986149
 30
0.0
 11
170.87512970073411
 21
-136.30406289986149
 31
0.0
  0
LINE
  8
DETAIL
  6
CONTINUOUS
 62
     5
 10
170.87512970073411
 20
-136.30406289986149
 30
0.0
 11
171.37018077664169
 21
-135.97402884925671
 31
0.0
  0
LINE
  8
DETAIL
  6
CONTINUOUS
 62
     5
 10
171.37018077664169
 20
-135.97402884925671
 30
0.0
 11
171.86523185254941
 21
-135.47897777334899
 31
0.0
  0
LINE
  8
DETAIL
  6
CONTINUOUS
 62
     5
 10
171.86523185254941
 20
-135.47897777334899
 30
0.0
 11
172.14026022805339
 21
-134.9839266974416
 31
0.0
  0
LINE
  8
DETAIL
  6
CONTINUOUS
 62
     5
 10
172.14026022805339
 20
-134.9839266974416
 30
0.0
 11
172.14026022805339
 21
-134.2688529211307
 31
0.0
  0
LINE
  8
DETAIL
  6
CONTINUOUS
 62
     5
 10
172.14026022805339
 20
-128.1632229849383
 30
0.0
 11
172.14026022805339
 21
-127.77818325923251
 31
0.0
  0
LINE
  8
DETAIL
  6
CONTINUOUS
 62
     5
 10
172.14026022805339
 20
-127.77818325923251
 30
0.0
 11
171.86523185254941
 21
-127.17312083312341
 31
0.0
  0
LINE
  8
DETAIL
  6
CONTINUOUS
 62
     5
 10
171.86523185254941
 20
-127.17312083312341
 30
0.0
 11
171.37018077664169
 21
-126.7880811074174
 31
0.0
  0
LINE
  8
DETAIL
  6
CONTINUOUS
 62
     5
 10
171.37018077664169
 20
-126.7880811074174
 30
0.0
 11
170.87512970073411
 21
-126.4580470568126
 31
0.0
  0
LINE
  8
DETAIL
  6
CONTINUOUS
 62
     5
 10
170.87512970073411
 20
-126.4580470568126
 30
0.0
 11
170.0500445742216
 21
-126.2930300315099
 31
0.0
  0
LINE
  8
DETAIL
  6
CONTINUOUS
 62
     5
 10
169.16995377260881
 20
-139.4943920557096
 30
0.0
 11
169.66500484851599
 21
-139.4943920557096
 31
0.0
  0
LINE
  8
DETAIL
  6
CONTINUOUS
 62
     5
 10
169.66500484851599
 20
-139.4943920557096
 30
0.0
 11
169.8300218738184
 21
-139.27436935530639
 31
0.0
  0
LINE
  8
DETAIL
  6
CONTINUOUS
 62
     5
 10
169.8300218738184
 20
-139.27436935530639
 30
0.0
 11
170.0500445742216
 21
-138.9993409798021
 31
0.0
  0
LINE
  8
DETAIL
  6
CONTINUOUS
 62
     5
 10
170.0500445742216
 20
-138.9993409798021
 30
0.0
 11
170.0500445742216
 21
-138.77931827939889
 31
0.0
  0
LINE
  8
DETAIL
  6
CONTINUOUS
 62
     5
 10
170.0500445742216
 20
-138.77931827939889
 30
0.0
 11
170.0500445742216
 21
-138.50428990389469
 31
0.0
  0
LINE
  8
DETAIL
  6
CONTINUOUS
 62
     5
 10
169.16995377260881
 20
-139.4943920557096
 30
0.0
 11
169.16995377260881
 21
-152.97078245541371
 31
0.0
  0
LINE
  8
DETAIL
  6
CONTINUOUS
 62
     5
 10
172.14026022805339
 20
-128.1632229849383
 30
0.0
 11
172.14026022805339
 21
-134.2688529211307
 31
0.0
  0
LINE
  8
DETAIL
  6
CONTINUOUS
 62
     5
 10
168.1248459456931
 20
-137.459182076979
 30
0.0
 11
167.84981757018861
 21
-137.459182076979
 31
0.0
  0
LINE
  8
DETAIL
  6
CONTINUOUS
 62
     5
 10
168.1248459456931
 20
-107.81112319763039
 30
0.0
 11
168.1248459456931
 21
-137.459182076979
 31
0.0
  0
LINE
  8
DETAIL
  6
CONTINUOUS
 62
     5
 10
168.1248459456931
 20
-107.81112319763039
 30
0.0
 11
168.1248459456931
 21
-107.20606077152139
 31
0.0
  0
LINE
  8
DETAIL
  6
CONTINUOUS
 62
     5
 10
168.1248459456931
 20
-107.20606077152139
 30
0.0
 11
167.84981757018861
 21
-106.7660153707147
 31
0.0
  0
LINE
  8
DETAIL
  6
CONTINUOUS
 62
     5
 10
167.84981757018861
 20
-106.7660153707147
 30
0.0
 11
167.35476649428099
 21
-106.2709642948073
 31
0.0
  0
LINE
  8
DETAIL
  6
CONTINUOUS
 62
     5
 10
167.35476649428099
 20
-106.2709642948073
 30
0.0
 11
166.85971541837381
 21
-105.99593591930309
 31
0.0
  0
LINE
  8
DETAIL
  6
CONTINUOUS
 62
     5
 10
166.85971541837381
 20
-105.99593591930309
 30
0.0
 11
166.0346302918613
 21
-105.665901868698
 31
0.0
  0
LINE
  8
DETAIL
  6
CONTINUOUS
 62
     5
 10
170.0500445742216
 20
-107.81112319763039
 30
0.0
 11
170.0500445742216
 21
-152.97078245541371
 31
0.0
  0
LINE
  8
DETAIL
  6
CONTINUOUS
 62
     5
 10
170.0500445742216
 20
-107.81112319763039
 30
0.0
 11
170.0500445742216
 21
-106.7660153707147
 31
0.0
  0
LINE
  8
DETAIL
  6
CONTINUOUS
 62
     5
 10
170.0500445742216
 20
-106.7660153707147
 30
0.0
 11
169.33497079791121
 21
-105.5008848433956
 31
0.0
  0
LINE
  8
DETAIL
  6
CONTINUOUS
 62
     5
 10
169.33497079791121
 20
-105.5008848433956
 30
0.0
 11
168.56489134649951
 21
-104.67579971688311
 31
0.0
  0
LINE
  8
DETAIL
  6
CONTINUOUS
 62
     5
 10
168.56489134649951
 20
-104.67579971688311
 30
0.0
 11
167.35476649428099
 21
-103.9607259405723
 31
0.0
  0
LINE
  8
DETAIL
  6
CONTINUOUS
 62
     5
 10
167.35476649428099
 20
-103.9607259405723
 30
0.0
 11
166.0346302918613
 21
-103.7957089152699
 31
0.0
  0
LINE
  8
DETAIL
  6
CONTINUOUS
 62
     5
 10
162.56927276050851
 20
-121.2875135973345
 30
0.0
 11
163.33935221192019
 21
-121.2875135973345
 31
0.0
  0
LINE
  8
DETAIL
  6
CONTINUOUS
 62
     5
 10
163.33935221192019
 20
-121.2875135973345
 30
0.0
 11
163.83440328782831
 21
-121.0124852218303
 31
0.0
  0
LINE
  8
DETAIL
  6
CONTINUOUS
 62
     5
 10
163.83440328782831
 20
-121.0124852218303
 30
0.0
 11
164.32945436373549
 21
-120.46242847082181
 31
0.0
  0
LINE
  8
DETAIL
  6
CONTINUOUS
 62
     5
 10
164.32945436373549
 20
-120.46242847082181
 30
0.0
 11
164.6594884143403
 21
-119.96737739491439
 31
0.0
  0
LINE
  8
DETAIL
  6
CONTINUOUS
 62
     5
 10
164.6594884143403
 20
-119.96737739491439
 30
0.0
 11
164.6594884143403
 21
-119.30730929370429
 31
0.0
  0
LINE
  8
DETAIL
  6
CONTINUOUS
 62
     5
 10
164.6594884143403
 20
-105.665901868698
 30
0.0
 11
164.6594884143403
 21
-119.30730929370429
 31
0.0
  0
LINE
  8
DETAIL
  6
CONTINUOUS
 62
     5
 10
135.67149763620199
 20
-121.2875135973345
 30
0.0
 11
162.56927276050851
 21
-121.2875135973345
 31
0.0
  0
LINE
  8
DETAIL
  6
CONTINUOUS
 62
     5
 10
133.5262763072694
 20
-119.30730929370429
 30
0.0
 11
133.5262763072694
 21
-119.96737739491439
 31
0.0
  0
LINE
  8
DETAIL
  6
CONTINUOUS
 62
     5
 10
133.5262763072694
 20
-119.96737739491439
 30
0.0
 11
133.85631035787469
 21
-120.46242847082181
 31
0.0
  0
LINE
  8
DETAIL
  6
CONTINUOUS
 62
     5
 10
133.85631035787469
 20
-120.46242847082181
 30
0.0
 11
134.3513614337819
 21
-121.0124852218303
 31
0.0
  0
LINE
  8
DETAIL
  6
CONTINUOUS
 62
     5
 10
134.3513614337819
 20
-121.0124852218303
 30
0.0
 11
134.8464125096896
 21
-121.2875135973345
 31
0.0
  0
LINE
  8
DETAIL
  6
CONTINUOUS
 62
     5
 10
134.8464125096896
 20
-121.2875135973345
 30
0.0
 11
135.67149763620199
 21
-121.2875135973345
 31
0.0
  0
LINE
  8
DETAIL
  6
CONTINUOUS
 62
     5
 10
133.14123658156379
 20
-105.665901868698
 30
0.0
 11
133.5262763072694
 21
-105.665901868698
 31
0.0
  0
LINE
  8
DETAIL
  6
CONTINUOUS
 62
     5
 10
129.12582229920301
 20
-110.6714183028739
 30
0.0
 11
131.051020927732
 21
-110.6714183028739
 31
0.0
  0
LINE
  8
DETAIL
  6
CONTINUOUS
 62
     5
 10
129.12582229920301
 20
-107.81112319763039
 30
0.0
 11
129.12582229920301
 21
-110.6714183028739
 31
0.0
  0
LINE
  8
DETAIL
  6
CONTINUOUS
 62
     5
 10
131.051020927732
 20
-107.81112319763039
 30
0.0
 11
131.051020927732
 21
-110.6714183028739
 31
0.0
  0
LINE
  8
DETAIL
  6
CONTINUOUS
 62
     5
 10
133.5262763072694
 20
-105.665901868698
 30
0.0
 11
133.5262763072694
 21
-119.30730929370429
 31
0.0
  0
LINE
  8
DETAIL
  6
CONTINUOUS
 62
     5
 10
133.14123658156379
 20
-105.665901868698
 30
0.0
 11
132.53617415545449
 21
-105.99593591930309
 31
0.0
  0
LINE
  8
DETAIL
  6
CONTINUOUS
 62
     5
 10
132.53617415545449
 20
-105.99593591930309
 30
0.0
 11
132.15113442974891
 21
-106.2709642948073
 31
0.0
  0
LINE
  8
DETAIL
  6
CONTINUOUS
 62
     5
 10
132.15113442974891
 20
-106.2709642948073
 30
0.0
 11
131.6560833538413
 21
-106.7660153707147
 31
0.0
  0
LINE
  8
DETAIL
  6
CONTINUOUS
 62
     5
 10
131.6560833538413
 20
-106.7660153707147
 30
0.0
 11
131.326049303236
 21
-107.20606077152139
 31
0.0
  0
LINE
  8
DETAIL
  6
CONTINUOUS
 62
     5
 10
131.326049303236
 20
-107.20606077152139
 30
0.0
 11
131.051020927732
 21
-107.81112319763039
 31
0.0
  0
LINE
  8
DETAIL
  6
CONTINUOUS
 62
     5
 10
133.14123658156379
 20
-103.7957089152699
 30
0.0
 11
132.15113442974891
 21
-103.9607259405723
 31
0.0
  0
LINE
  8
DETAIL
  6
CONTINUOUS
 62
     5
 10
132.15113442974891
 20
-103.9607259405723
 30
0.0
 11
130.83099822732879
 21
-104.67579971688311
 31
0.0
  0
LINE
  8
DETAIL
  6
CONTINUOUS
 62
     5
 10
130.83099822732879
 20
-104.67579971688311
 30
0.0
 11
130.06091877591709
 21
-105.5008848433956
 31
0.0
  0
LINE
  8
DETAIL
  6
CONTINUOUS
 62
     5
 10
130.06091877591709
 20
-105.5008848433956
 30
0.0
 11
129.34584499960619
 21
-106.7660153707147
 31
0.0
  0
LINE
  8
DETAIL
  6
CONTINUOUS
 62
     5
 10
129.34584499960619
 20
-106.7660153707147
 30
0.0
 11
129.12582229920301
 21
-107.81112319763039
 31
0.0
  0
LINE
  8
DETAIL
  6
CONTINUOUS
 62
     5
 10
133.14123658156379
 20
-105.665901868698
 30
0.0
 11
166.0346302918613
 21
-105.665901868698
 31
0.0
  0
LINE
  8
DETAIL
  6
CONTINUOUS
 62
     5
 10
133.14123658156379
 20
-103.7957089152699
 30
0.0
 11
166.0346302918613
 21
-103.7957089152699
 31
0.0
  0
LINE
  8
DETAIL
  6
CONTINUOUS
 62
     5
 10
-167.84981757018861
 20
-152.97078245541371
 30
0.0
 11
-170.32507294972609
 21
-152.97078245541371
 31
0.0
  0
LINE
  8
DETAIL
  6
CONTINUOUS
 62
     5
 10
-172.41528860355791
 20
-134.2688529211307
 30
0.0
 11
-172.14026022805339
 21
-134.9839266974416
 31
0.0
  0
LINE
  8
DETAIL
  6
CONTINUOUS
 62
     5
 10
-172.14026022805339
 20
-134.9839266974416
 30
0.0
 11
-171.81022617744861
 21
-135.47897777334899
 31
0.0
  0
LINE
  8
DETAIL
  6
CONTINUOUS
 62
     5
 10
-171.81022617744861
 20
-135.47897777334899
 30
0.0
 11
-171.42518645174249
 21
-135.97402884925671
 31
0.0
  0
LINE
  8
DETAIL
  6
CONTINUOUS
 62
     5
 10
-171.42518645174249
 20
-135.97402884925671
 30
0.0
 11
-170.8201240256337
 21
-136.30406289986149
 31
0.0
  0
LINE
  8
DETAIL
  6
CONTINUOUS
 62
     5
 10
-170.8201240256337
 20
-136.30406289986149
 30
0.0
 11
-170.32507294972609
 21
-136.30406289986149
 31
0.0
  0
LINE
  8
DETAIL
  6
CONTINUOUS
 62
     5
 10
-170.32507294972609
 20
-126.2930300315099
 30
0.0
 11
-170.8201240256337
 21
-126.4580470568126
 31
0.0
  0
LINE
  8
DETAIL
  6
CONTINUOUS
 62
     5
 10
-170.8201240256337
 20
-126.4580470568126
 30
0.0
 11
-171.42518645174249
 21
-126.7880811074174
 31
0.0
  0
LINE
  8
DETAIL
  6
CONTINUOUS
 62
     5
 10
-171.42518645174249
 20
-126.7880811074174
 30
0.0
 11
-171.81022617744861
 21
-127.17312083312341
 31
0.0
  0
LINE
  8
DETAIL
  6
CONTINUOUS
 62
     5
 10
-171.81022617744861
 20
-127.17312083312341
 30
0.0
 11
-172.14026022805339
 21
-127.77818325923251
 31
0.0
  0
LINE
  8
DETAIL
  6
CONTINUOUS
 62
     5
 10
-172.14026022805339
 20
-127.77818325923251
 30
0.0
 11
-172.41528860355791
 21
-128.1632229849383
 31
0.0
  0
LINE
  8
DETAIL
  6
CONTINUOUS
 62
     5
 10
-170.32507294972609
 20
-138.50428990389469
 30
0.0
 11
-170.1050502493224
 21
-138.77931827939889
 31
0.0
  0
LINE
  8
DETAIL
  6
CONTINUOUS
 62
     5
 10
-170.1050502493224
 20
-138.77931827939889
 30
0.0
 11
-170.1050502493224
 21
-138.9993409798021
 31
0.0
  0
LINE
  8
DETAIL
  6
CONTINUOUS
 62
     5
 10
-170.1050502493224
 20
-138.9993409798021
 30
0.0
 11
-169.94003322402
 21
-139.27436935530639
 31
0.0
  0
LINE
  8
DETAIL
  6
CONTINUOUS
 62
     5
 10
-169.94003322402
 20
-139.27436935530639
 30
0.0
 11
-169.60999917341519
 21
-139.4943920557096
 31
0.0
  0
LINE
  8
DETAIL
  6
CONTINUOUS
 62
     5
 10
-169.60999917341519
 20
-139.4943920557096
 30
0.0
 11
-169.33497079791121
 21
-139.4943920557096
 31
0.0
  0
LINE
  8
DETAIL
  6
CONTINUOUS
 62
     5
 10
-169.33497079791121
 20
-139.4943920557096
 30
0.0
 11
-169.33497079791121
 21
-152.97078245541371
 31
0.0
  0
LINE
  8
DETAIL
  6
CONTINUOUS
 62
     5
 10
-172.41528860355791
 20
-128.1632229849383
 30
0.0
 11
-172.41528860355791
 21
-134.2688529211307
 31
0.0
  0
LINE
  8
DETAIL
  6
CONTINUOUS
 62
     5
 10
-168.3448686460963
 20
-107.81112319763039
 30
0.0
 11
-168.3448686460963
 21
-137.459182076979
 31
0.0
  0
LINE
  8
DETAIL
  6
CONTINUOUS
 62
     5
 10
-166.41967001756689
 20
-105.665901868698
 30
0.0
 11
-166.8047097432725
 21
-105.99593591930309
 31
0.0
  0
LINE
  8
DETAIL
  6
CONTINUOUS
 62
     5
 10
-166.8047097432725
 20
-105.99593591930309
 30
0.0
 11
-167.4097721693818
 21
-106.2709642948073
 31
0.0
  0
LINE
  8
DETAIL
  6
CONTINUOUS
 62
     5
 10
-167.4097721693818
 20
-106.2709642948073
 30
0.0
 11
-167.84981757018861
 21
-106.7660153707147
 31
0.0
  0
LINE
  8
DETAIL
  6
CONTINUOUS
 62
     5
 10
-167.84981757018861
 20
-106.7660153707147
 30
0.0
 11
-168.12484594569261
 21
-107.20606077152139
 31
0.0
  0
LINE
  8
DETAIL
  6
CONTINUOUS
 62
     5
 10
-168.12484594569261
 20
-107.20606077152139
 30
0.0
 11
-168.3448686460963
 21
-107.81112319763039
 31
0.0
  0
LINE
  8
DETAIL
  6
CONTINUOUS
 62
     5
 10
-170.32507294972609
 20
-107.81112319763039
 30
0.0
 11
-170.32507294972609
 21
-152.97078245541371
 31
0.0
  0
LINE
  8
DETAIL
  6
CONTINUOUS
 62
     5
 10
-166.41967001756689
 20
-103.7957089152699
 30
0.0
 11
-167.4097721693818
 21
-103.9607259405723
 31
0.0
  0
LINE
  8
DETAIL
  6
CONTINUOUS
 62
     5
 10
-167.4097721693818
 20
-103.9607259405723
 30
0.0
 11
-168.61989702160031
 21
-104.67579971688311
 31
0.0
  0
LINE
  8
DETAIL
  6
CONTINUOUS
 62
     5
 10
-168.61989702160031
 20
-104.67579971688311
 30
0.0
 11
-169.33497079791121
 21
-105.5008848433956
 31
0.0
  0
LINE
  8
DETAIL
  6
CONTINUOUS
 62
     5
 10
-169.33497079791121
 20
-105.5008848433956
 30
0.0
 11
-170.1050502493224
 21
-106.7660153707147
 31
0.0
  0
LINE
  8
DETAIL
  6
CONTINUOUS
 62
     5
 10
-170.1050502493224
 20
-106.7660153707147
 30
0.0
 11
-170.32507294972609
 21
-107.81112319763039
 31
0.0
  0
LINE
  8
DETAIL
  6
CONTINUOUS
 62
     5
 10
-164.93451678984431
 20
-119.30730929370429
 30
0.0
 11
-164.6044827392395
 21
-119.96737739491439
 31
0.0
  0
LINE
  8
DETAIL
  6
CONTINUOUS
 62
     5
 10
-164.6044827392395
 20
-119.96737739491439
 30
0.0
 11
-164.3294543637351
 21
-120.46242847082181
 31
0.0
  0
LINE
  8
DETAIL
  6
CONTINUOUS
 62
     5
 10
-164.3294543637351
 20
-120.46242847082181
 30
0.0
 11
-163.94441463802951
 21
-121.0124852218303
 31
0.0
  0
LINE
  8
DETAIL
  6
CONTINUOUS
 62
     5
 10
-163.94441463802951
 20
-121.0124852218303
 30
0.0
 11
-163.33935221192019
 21
-121.2875135973345
 31
0.0
  0
LINE
  8
DETAIL
  6
CONTINUOUS
 62
     5
 10
-163.33935221192019
 20
-121.2875135973345
 30
0.0
 11
-162.844301136013
 21
-121.2875135973345
 31
0.0
  0
LINE
  8
DETAIL
  6
CONTINUOUS
 62
     5
 10
-164.93451678984431
 20
-105.665901868698
 30
0.0
 11
-164.93451678984431
 21
-119.30730929370429
 31
0.0
  0
LINE
  8
DETAIL
  6
CONTINUOUS
 62
     5
 10
-135.61649196110079
 20
-121.2875135973345
 30
0.0
 11
-162.844301136013
 21
-121.2875135973345
 31
0.0
  0
LINE
  8
DETAIL
  6
CONTINUOUS
 62
     5
 10
-135.61649196110079
 20
-121.2875135973345
 30
0.0
 11
-134.9014181847904
 21
-121.2875135973345
 31
0.0
  0
LINE
  8
DETAIL
  6
CONTINUOUS
 62
     5
 10
-134.9014181847904
 20
-121.2875135973345
 30
0.0
 11
-134.3513614337819
 21
-121.0124852218303
 31
0.0
  0
LINE
  8
DETAIL
  6
CONTINUOUS
 62
     5
 10
-134.3513614337819
 20
-121.0124852218303
 30
0.0
 11
-133.91131603297549
 21
-120.46242847082181
 31
0.0
  0
LINE
  8
DETAIL
  6
CONTINUOUS
 62
     5
 10
-133.91131603297549
 20
-120.46242847082181
 30
0.0
 11
-133.636287657471
 21
-119.96737739491439
 31
0.0
  0
LINE
  8
DETAIL
  6
CONTINUOUS
 62
     5
 10
-133.636287657471
 20
-119.96737739491439
 30
0.0
 11
-133.636287657471
 21
-119.30730929370429
 31
0.0
  0
LINE
  8
DETAIL
  6
CONTINUOUS
 62
     5
 10
-133.30625360686619
 20
-105.665901868698
 30
0.0
 11
-133.636287657471
 21
-105.665901868698
 31
0.0
  0
LINE
  8
DETAIL
  6
CONTINUOUS
 62
     5
 10
-129.34584499960619
 20
-110.6714183028739
 30
0.0
 11
-131.43606065343809
 21
-110.6714183028739
 31
0.0
  0
LINE
  8
DETAIL
  6
CONTINUOUS
 62
     5
 10
-129.34584499960619
 20
-107.81112319763039
 30
0.0
 11
-129.34584499960619
 21
-110.6714183028739
 31
0.0
  0
LINE
  8
DETAIL
  6
CONTINUOUS
 62
     5
 10
-131.43606065343809
 20
-107.81112319763039
 30
0.0
 11
-131.43606065343809
 21
-110.6714183028739
 31
0.0
  0
LINE
  8
DETAIL
  6
CONTINUOUS
 62
     5
 10
-133.636287657471
 20
-105.665901868698
 30
0.0
 11
-133.636287657471
 21
-119.30730929370429
 31
0.0
  0
LINE
  8
DETAIL
  6
CONTINUOUS
 62
     5
 10
-131.43606065343809
 20
-107.81112319763039
 30
0.0
 11
-131.43606065343809
 21
-107.20606077152139
 31
0.0
  0
LINE
  8
DETAIL
  6
CONTINUOUS
 62
     5
 10
-131.43606065343809
 20
-107.20606077152139
 30
0.0
 11
-131.6010776787405
 21
-106.7660153707147
 31
0.0
  0
LINE
  8
DETAIL
  6
CONTINUOUS
 62
     5
 10
-131.6010776787405
 20
-106.7660153707147
 30
0.0
 11
-132.15113442974851
 21
-106.2709642948073
 31
0.0
  0
LINE
  8
DETAIL
  6
CONTINUOUS
 62
     5
 10
-132.15113442974851
 20
-106.2709642948073
 30
0.0
 11
-132.64618550565609
 21
-105.99593591930309
 31
0.0
  0
LINE
  8
DETAIL
  6
CONTINUOUS
 62
     5
 10
-132.64618550565609
 20
-105.99593591930309
 30
0.0
 11
-133.30625360686619
 21
-105.665901868698
 31
0.0
  0
LINE
  8
DETAIL
  6
CONTINUOUS
 62
     5
 10
-129.34584499960619
 20
-107.81112319763039
 30
0.0
 11
-129.34584499960619
 21
-106.7660153707147
 31
0.0
  0
LINE
  8
DETAIL
  6
CONTINUOUS
 62
     5
 10
-129.34584499960619
 20
-106.7660153707147
 30
0.0
 11
-130.11592445101749
 21
-105.5008848433956
 31
0.0
  0
LINE
  8
DETAIL
  6
CONTINUOUS
 62
     5
 10
-130.11592445101749
 20
-105.5008848433956
 30
0.0
 11
-130.83099822732879
 21
-104.67579971688311
 31
0.0
  0
LINE
  8
DETAIL
  6
CONTINUOUS
 62
     5
 10
-130.83099822732879
 20
-104.67579971688311
 30
0.0
 11
-132.15113442974851
 21
-103.9607259405723
 31
0.0
  0
LINE
  8
DETAIL
  6
CONTINUOUS
 62
     5
 10
-132.15113442974851
 20
-103.9607259405723
 30
0.0
 11
-133.30625360686619
 21
-103.7957089152699
 31
0.0
  0
LINE
  8
DETAIL
  6
CONTINUOUS
 62
     5
 10
-133.30625360686619
 20
-105.665901868698
 30
0.0
 11
-166.41967001756689
 21
-105.665901868698
 31
0.0
  0
LINE
  8
DETAIL
  6
CONTINUOUS
 62
     5
 10
-133.30625360686619
 20
-103.7957089152699
 30
0.0
 11
-166.41967001756689
 21
-103.7957089152699
 31
0.0
  0
LINE
  8
DETAIL
  6
CONTINUOUS
 62
     5
 10
-167.84981757018861
 20
-137.459182076979
 30
0.0
 11
-168.3448686460963
 21
-137.459182076979
 31
0.0
  0
LINE
  8
OUTLINE
  6
CONTINUOUS
 62
     3
 10
105.6383990311476
 20
-227.17343816643569
 30
0.0
 11
107.83862603518109
 21
-227.17343816643569
 31
0.0
  0
LINE
  8
OUTLINE
  6
CONTINUOUS
 62
     3
 10
105.6383990311476
 20
-1.320136202419917
 30
0.0
 11
107.83862603518109
 21
-1.320136202419917
 31
0.0
  0
LINE
  8
OUTLINE
  6
CONTINUOUS
 62
     3
 10
-165.3195565155504
 20
-1.320136202419917
 30
0.0
 11
-165.3195565155504
 21
-3.7953915819573472
 31
0.0
  0
LINE
  8
OUTLINE
  6
CONTINUOUS
 62
     3
 10
-165.3195565155504
 20
-1.320136202419917
 30
0.0
 11
-88.31161137438562
 21
-1.320136202419917
 31
0.0
  0
LINE
  8
OUTLINE
  6
CONTINUOUS
 62
     3
 10
-165.3195565155504
 20
-3.7953915819573472
 30
0.0
 11
-167.84981757018861
 21
-3.7953915819573472
 31
0.0
  0
LINE
  8
OUTLINE
  6
CONTINUOUS
 62
     3
 10
-165.3195565155504
 20
-227.17343816643569
 30
0.0
 11
-88.31161137438562
 21
-227.17343816643569
 31
0.0
  0
LINE
  8
OUTLINE
  6
CONTINUOUS
 62
     3
 10
-165.3195565155504
 20
-224.69818278689829
 30
0.0
 11
-165.3195565155504
 21
-227.17343816643569
 31
0.0
  0
LINE
  8
OUTLINE
  6
CONTINUOUS
 62
     3
 10
-165.3195565155504
 20
-224.69818278689829
 30
0.0
 11
-167.84981757018861
 21
-224.69818278689829
 31
0.0
  0
LINE
  8
OUTLINE
  6
CONTINUOUS
 62
     3
 10
-167.84981757018861
 20
-224.69818278689829
 30
0.0
 11
-167.84981757018861
 21
-106.7660153707145
 31
0.0
  0
LINE
  8
OUTLINE
  6
CONTINUOUS
 62
     3
 10
-90.346821353116184
 20
-227.17343816643569
 30
0.0
 11
-165.3195565155504
 21
-227.17343816643569
 31
0.0
  0
LINE
  8
OUTLINE
  6
CONTINUOUS
 62
     3
 10
-90.346821353116184
 20
-1.320136202419917
 30
0.0
 11
-165.3195565155504
 21
-1.320136202419917
 31
0.0
  0
LINE
  8
OUTLINE
  6
CONTINUOUS
 62
     3
 10
-165.3195565155504
 20
-3.7953915819573472
 30
0.0
 11
-167.84981757018861
 21
-3.7953915819573472
 31
0.0
  0
LINE
  8
OUTLINE
  6
CONTINUOUS
 62
     3
 10
-165.3195565155504
 20
-3.7953915819573472
 30
0.0
 11
-165.3195565155504
 21
-1.320136202419917
 31
0.0
  0
LINE
  8
OUTLINE
  6
CONTINUOUS
 62
     3
 10
-165.3195565155504
 20
-227.17343816643569
 30
0.0
 11
-165.3195565155504
 21
-224.69818278689829
 31
0.0
  0
LINE
  8
OUTLINE
  6
CONTINUOUS
 62
     3
 10
-165.3195565155504
 20
-224.69818278689829
 30
0.0
 11
-167.84981757018861
 21
-224.69818278689829
 31
0.0
  0
LINE
  8
OUTLINE
  6
CONTINUOUS
 62
     3
 10
-167.84981757018861
 20
-104.2907599911775
 30
0.0
 11
-167.84981757018861
 21
-3.7953915819573472
 31
0.0
  0
LINE
  8
OUTLINE
  6
CONTINUOUS
 62
     3
 10
167.84981757018861
 20
-224.69818278689829
 30
0.0
 11
167.84981757018861
 21
-106.7660153707145
 31
0.0
  0
LINE
  8
OUTLINE
  6
CONTINUOUS
 62
     3
 10
107.83862603518109
 20
-227.17343816643569
 30
0.0
 11
165.0445281400464
 21
-227.17343816643569
 31
0.0
  0
LINE
  8
OUTLINE
  6
CONTINUOUS
 62
     3
 10
165.0445281400464
 20
-224.69818278689829
 30
0.0
 11
167.84981757018861
 21
-224.69818278689829
 31
0.0
  0
LINE
  8
OUTLINE
  6
CONTINUOUS
 62
     3
 10
165.0445281400464
 20
-224.69818278689829
 30
0.0
 11
165.0445281400464
 21
-227.17343816643569
 31
0.0
  0
LINE
  8
OUTLINE
  6
CONTINUOUS
 62
     3
 10
165.0445281400464
 20
-1.320136202419917
 30
0.0
 11
165.0445281400464
 21
-3.7953915819573472
 31
0.0
  0
LINE
  8
OUTLINE
  6
CONTINUOUS
 62
     3
 10
107.83862603518109
 20
-1.320136202419917
 30
0.0
 11
165.0445281400464
 21
-1.320136202419917
 31
0.0
  0
LINE
  8
OUTLINE
  6
CONTINUOUS
 62
     3
 10
165.0445281400464
 20
-3.7953915819573472
 30
0.0
 11
167.84981757018861
 21
-3.7953915819573472
 31
0.0
  0
LINE
  8
OUTLINE
  6
CONTINUOUS
 62
     3
 10
167.84981757018861
 20
-104.2907599911775
 30
0.0
 11
167.84981757018861
 21
-3.7953915819573472
 31
0.0
  0
LINE
  8
OUTLINE
  6
CONTINUOUS
 62
     3
 10
-88.31161137438562
 20
-4.5104653582682204
 30
0.0
 11
-88.31161137438562
 21
0.0
 31
0.0
  0
LINE
  8
OUTLINE
  6
CONTINUOUS
 62
     3
 10
-88.31161137438562
 20
-223.98310901058741
 30
0.0
 11
-88.31161137438562
 21
-228.49357436885541
 31
0.0
  0
LINE
  8
OUTLINE
  6
CONTINUOUS
 62
     3
 10
105.6383990311476
 20
-228.49357436885541
 30
0.0
 11
-88.31161137438562
 21
-228.49357436885541
 31
0.0
  0
LINE
  8
OUTLINE
  6
CONTINUOUS
 62
     3
 10
105.6383990311476
 20
-228.49357436885541
 30
0.0
 11
105.6383990311476
 21
-223.98310901058741
 31
0.0
  0
LINE
  8
OUTLINE
  6
CONTINUOUS
 62
     3
 10
105.6383990311476
 20
0.0
 30
0.0
 11
-88.31161137438562
 21
0.0
 31
0.0
  0
LINE
  8
OUTLINE
  6
CONTINUOUS
 62
     3
 10
105.6383990311476
 20
-4.5104653582682204
 30
0.0
 11
105.6383990311476
 21
0.0
 31
0.0
  0
LINE
  8
OUTLINE
  6
CONTINUOUS
 62
     3
 10
-171.42518645174249
 20
-194.17003310593671
 30
0.0
 11
-171.15015807623851
 21
-194.17003310593671
 31
0.0
  0
LINE
  8
OUTLINE
  6
CONTINUOUS
 62
     3
 10
-167.84981757018861
 20
-194.50006715654189
 30
0.0
 11
-168.61989702160031
 21
-194.17003310593671
 31
0.0
  0
LINE
  8
OUTLINE
  6
CONTINUOUS
 62
     3
 10
-171.15015807623851
 20
-194.17003310593671
 30
0.0
 11
-233.14155391487591
 21
-185.25911373960179
 31
0.0
  0
LINE
  8
OUTLINE
  6
CONTINUOUS
 62
     3
 10
-233.30657094017829
 20
-43.179454954153023
 30
0.0
 11
-171.15015807623851
 21
-34.268535587818178
 31
0.0
  0
LINE
  8
OUTLINE
  6
CONTINUOUS
 62
     3
 10
-235.836831994817
 20
-185.25911373960179
 30
0.0
 11
-233.30657094017829
 21
-185.25911373960179
 31
0.0
  0
LINE
  8
OUTLINE
  6
CONTINUOUS
 62
     3
 10
-237.4319965727411
 20
-183.99398321228301
 30
0.0
 11
-237.10196252213589
 21
-184.15900023758539
 31
0.0
  0
LINE
  8
OUTLINE
  6
CONTINUOUS
 62
     3
 10
-237.10196252213589
 20
-184.15900023758539
 30
0.0
 11
-237.10196252213589
 21
-184.654051313493
 31
0.0
  0
LINE
  8
OUTLINE
  6
CONTINUOUS
 62
     3
 10
-237.10196252213589
 20
-184.654051313493
 30
0.0
 11
-236.60691144622871
 21
-184.98408536409781
 31
0.0
  0
LINE
  8
OUTLINE
  6
CONTINUOUS
 62
     3
 10
-236.60691144622871
 20
-184.98408536409781
 30
0.0
 11
-236.4418944209261
 21
-185.25911373960179
 31
0.0
  0
LINE
  8
OUTLINE
  6
CONTINUOUS
 62
     3
 10
-236.4418944209261
 20
-185.25911373960179
 30
0.0
 11
-235.836831994817
 21
-185.25911373960179
 31
0.0
  0
LINE
  8
OUTLINE
  6
CONTINUOUS
 62
     3
 10
-233.14155391487591
 20
-185.25911373960179
 30
0.0
 11
-233.30657094017829
 21
-185.25911373960179
 31
0.0
  0
LINE
  8
OUTLINE
  6
CONTINUOUS
 62
     3
 10
-237.4319965727411
 20
-183.99398321228301
 30
0.0
 11
-237.4319965727411
 21
-44.004540080665492
 31
0.0
  0
LINE
  8
OUTLINE
  6
CONTINUOUS
 62
     3
 10
-236.4418944209261
 20
-43.179454954153023
 30
0.0
 11
-233.30657094017829
 21
-43.179454954153023
 31
0.0
  0
LINE
  8
OUTLINE
  6
CONTINUOUS
 62
     3
 10
-236.4418944209261
 20
-43.179454954153023
 30
0.0
 11
-236.60691144622871
 21
-43.179454954153023
 31
0.0
  0
LINE
  8
OUTLINE
  6
CONTINUOUS
 62
     3
 10
-236.60691144622871
 20
-43.179454954153023
 30
0.0
 11
-236.82693414663191
 21
-43.509489004758279
 31
0.0
  0
LINE
  8
OUTLINE
  6
CONTINUOUS
 62
     3
 10
-236.82693414663191
 20
-43.509489004758279
 30
0.0
 11
-237.10196252213589
 21
-43.784517380262287
 31
0.0
  0
LINE
  8
OUTLINE
  6
CONTINUOUS
 62
     3
 10
-237.10196252213589
 20
-43.784517380262287
 30
0.0
 11
-237.10196252213589
 21
-44.004540080665492
 31
0.0
  0
LINE
  8
OUTLINE
  6
CONTINUOUS
 62
     3
 10
-237.10196252213589
 20
-44.004540080665492
 30
0.0
 11
-237.4319965727411
 21
-44.2795684561695
 31
0.0
  0
LINE
  8
OUTLINE
  6
CONTINUOUS
 62
     3
 10
-171.15015807623851
 20
-34.268535587818178
 30
0.0
 11
-168.61989702160031
 21
-34.268535587818178
 31
0.0
  0
LINE
  8
OUTLINE
  6
CONTINUOUS
 62
     3
 10
-171.15015807623851
 20
-34.268535587818178
 30
0.0
 11
-171.42518645174249
 21
-34.268535587818178
 31
0.0
  0
LINE
  8
OUTLINE
  6
CONTINUOUS
 62
     3
 10
-168.61989702160031
 20
-34.268535587818178
 30
0.0
 11
-167.84981757018861
 21
-33.993507212314171
 31
0.0
  0
LINE
  8
OUTLINE
  6
CONTINUOUS
 62
     3
 10
-171.15015807623851
 20
-194.17003310593671
 30
0.0
 11
-168.61989702160031
 21
-194.17003310593671
 31
0.0
  0
LINE
  8
OUTLINE
  6
CONTINUOUS
 62
     3
 10
-171.42518645174249
 20
-194.17003310593671
 30
0.0
 11
-171.15015807623851
 21
-194.17003310593671
 31
0.0
  0
LINE
  8
OUTLINE
  6
CONTINUOUS
 62
     3
 10
168.56489134649951
 20
-194.17003310593671
 30
0.0
 11
167.84981757018861
 21
-194.50006715654189
 31
0.0
  0
LINE
  8
OUTLINE
  6
CONTINUOUS
 62
     3
 10
171.04014672603691
 20
-194.17003310593671
 30
0.0
 11
233.14155391487631
 21
-185.25911373960179
 31
0.0
  0
LINE
  8
OUTLINE
  6
CONTINUOUS
 62
     3
 10
233.3615766152794
 20
-43.179454954153023
 30
0.0
 11
171.04014672603691
 21
-34.268535587818178
 31
0.0
  0
LINE
  8
OUTLINE
  6
CONTINUOUS
 62
     3
 10
235.836831994817
 20
-185.25911373960179
 30
0.0
 11
233.3615766152794
 21
-185.25911373960179
 31
0.0
  0
LINE
  8
OUTLINE
  6
CONTINUOUS
 62
     3
 10
234.84672984300161
 20
-185.25911373960179
 30
0.0
 11
234.62670714259841
 21
-185.25911373960179
 31
0.0
  0
LINE
  8
OUTLINE
  6
CONTINUOUS
 62
     3
 10
235.836831994817
 20
-185.25911373960179
 30
0.0
 11
236.3318830707245
 21
-185.25911373960179
 31
0.0
  0
LINE
  8
OUTLINE
  6
CONTINUOUS
 62
     3
 10
236.3318830707245
 20
-185.25911373960179
 30
0.0
 11
236.66191712132959
 21
-184.98408536409781
 31
0.0
  0
LINE
  8
OUTLINE
  6
CONTINUOUS
 62
     3
 10
236.66191712132959
 20
-184.98408536409781
 30
0.0
 11
236.82693414663191
 21
-184.654051313493
 31
0.0
  0
LINE
  8
OUTLINE
  6
CONTINUOUS
 62
     3
 10
236.82693414663191
 20
-184.654051313493
 30
0.0
 11
237.15696819723709
 21
-184.15900023758539
 31
0.0
  0
LINE
  8
OUTLINE
  6
CONTINUOUS
 62
     3
 10
237.15696819723709
 20
-184.15900023758539
 30
0.0
 11
237.15696819723709
 21
-183.99398321228301
 31
0.0
  0
LINE
  8
OUTLINE
  6
CONTINUOUS
 62
     3
 10
233.3615766152794
 20
-185.25911373960179
 30
0.0
 11
233.14155391487631
 21
-185.25911373960179
 31
0.0
  0
LINE
  8
OUTLINE
  6
CONTINUOUS
 62
     3
 10
234.62670714259841
 20
-43.179454954153023
 30
0.0
 11
234.84672984300161
 21
-43.179454954153023
 31
0.0
  0
LINE
  8
OUTLINE
  6
CONTINUOUS
 62
     3
 10
237.15696819723709
 20
-183.99398321228301
 30
0.0
 11
237.15696819723709
 21
-44.004540080665492
 31
0.0
  0
LINE
  8
OUTLINE
  6
CONTINUOUS
 62
     3
 10
236.3318830707245
 20
-43.179454954153023
 30
0.0
 11
233.3615766152794
 21
-43.179454954153023
 31
0.0
  0
LINE
  8
OUTLINE
  6
CONTINUOUS
 62
     3
 10
237.15696819723709
 20
-44.499591156572713
 30
0.0
 11
237.15696819723709
 21
-44.2795684561695
 31
0.0
  0
LINE
  8
OUTLINE
  6
CONTINUOUS
 62
     3
 10
237.15696819723709
 20
-44.2795684561695
 30
0.0
 11
237.15696819723709
 21
-44.004540080665492
 31
0.0
  0
LINE
  8
OUTLINE
  6
CONTINUOUS
 62
     3
 10
237.15696819723709
 20
-44.004540080665492
 30
0.0
 11
237.15696819723709
 21
-43.784517380262287
 31
0.0
  0
LINE
  8
OUTLINE
  6
CONTINUOUS
 62
     3
 10
237.15696819723709
 20
-43.784517380262287
 30
0.0
 11
236.82693414663191
 21
-43.509489004758279
 31
0.0
  0
LINE
  8
OUTLINE
  6
CONTINUOUS
 62
     3
 10
236.82693414663191
 20
-43.509489004758279
 30
0.0
 11
236.66191712132959
 21
-43.179454954153023
 31
0.0
  0
LINE
  8
OUTLINE
  6
CONTINUOUS
 62
     3
 10
236.66191712132959
 20
-43.179454954153023
 30
0.0
 11
236.3318830707245
 21
-43.179454954153023
 31
0.0
  0
LINE
  8
OUTLINE
  6
CONTINUOUS
 62
     3
 10
171.04014672603691
 20
-34.268535587818178
 30
0.0
 11
168.56489134649951
 21
-34.268535587818178
 31
0.0
  0
LINE
  8
OUTLINE
  6
CONTINUOUS
 62
     3
 10
167.84981757018861
 20
-33.993507212314171
 30
0.0
 11
168.56489134649951
 21
-34.268535587818178
 31
0.0
  0
LINE
  8
OUTLINE
  6
CONTINUOUS
 62
     3
 10
171.04014672603691
 20
-194.17003310593671
 30
0.0
 11
168.56489134649951
 21
-194.17003310593671
 31
0.0
  0
LINE
  8
OUTLINE
  6
CONTINUOUS
 62
     3
 10
171.04014672603691
 20
-194.17003310593671
 30
0.0
 11
171.37018077664169
 21
-194.17003310593671
 31
0.0
  0
ENDSEC
  0
EOF
