  0
SECTION
  2
HEADER
  9
$ACADVER
  1
AC1009
  9
$DWGCODEPAGE
  3
dos932
  9
$INSBASE
 10
0.0
 20
0.0
 30
0.0
  9
$EXTMIN
 10
-954.86295989815153
 20
-828.96422213986989
 30
-0.0015258207003583
  9
$EXTMAX
 10
1211.8194697911599
 20
678.35999347544202
 30
0.0000000349246037
  9
$LIMMIN
 10
-2970.0
 20
-2100.0
  9
$LIMMAX
 10
2970.0
 20
2100.0
  9
$ORTHOMODE
 70
     0
  9
$REGENMODE
 70
     1
  9
$FILLMODE
 70
     1
  9
$QTEXTMODE
 70
     0
  9
$MIRRTEXT
 70
     0
  9
$LTSCALE
 40
20.0
  9
$ATTMODE
 70
     1
  9
$TEXTSIZE
 40
64.0
  9
$TRACEWID
 40
0.05
  9
$TEXTSTYLE
  7
STANDARD
  9
$CLAYER
  8
SIZE
  9
$CELTYPE
  6
CONTINUOUS
  9
$CECOLOR
 62
     7
  9
$DIMSCALE
 40
1.0
  9
$DIMASZ
 40
12.0
  9
$DIMEXO
 40
20.0
  9
$DIMDLI
 40
200.0
  9
$DIMRND
 40
0.0
  9
$DIMDLE
 40
0.0
  9
$DIMEXE
 40
20.0
  9
$DIMTP
 40
0.0
  9
$DIMTM
 40
0.0
  9
$DIMTXT
 40
64.0
  9
$DIMCEN
 40
0.09
  9
$DIMTSZ
 40
0.0
  9
$DIMTOL
 70
     0
  9
$DIMLIM
 70
     0
  9
$DIMTIH
 70
     0
  9
$DIMTOH
 70
     0
  9
$DIMSE1
 70
     0
  9
$DIMSE2
 70
     0
  9
$DIMTAD
 70
     1
  9
$DIMZIN
 70
     8
  9
$DIMBLK
  1

  9
$DIMASO
 70
     1
  9
$DIMSHO
 70
     0
  9
$DIMPOST
  1

  9
$DIMAPOST
  1

  9
$DIMALT
 70
     0
  9
$DIMALTD
 70
     2
  9
$DIMALTF
 40
25.399999999999999
  9
$DIMLFAC
 40
1.0
  9
$DIMTOFL
 70
     1
  9
$DIMTVP
 40
0.0
  9
$DIMTIX
 70
     1
  9
$DIMSOXD
 70
     0
  9
$DIMSAH
 70
     0
  9
$DIMBLK1
  1

  9
$DIMBLK2
  1

  9
$DIMSTYLE
  2
STANDARD
  9
$DIMCLRD
 70
     7
  9
$DIMCLRE
 70
     7
  9
$DIMCLRT
 70
     7
  9
$DIMTFAC
 40
1.0
  9
$DIMGAP
 40
25.0
  9
$LUNITS
 70
     2
  9
$LUPREC
 70
     4
  9
$SKETCHINC
 40
0.1
  9
$FILLETRAD
 40
3.0
  9
$AUNITS
 70
     1
  9
$AUPREC
 70
     3
  9
$MENU
  1
ACAD
  9
$ELEVATION
 40
0.0
  9
$PELEVATION
 40
0.0
  9
$THICKNESS
 40
50.0
  9
$LIMCHECK
 70
     0
  9
$CHAMFERA
 40
0.0
  9
$CHAMFERB
 40
0.0
  9
$SKPOLY
 70
     0
  9
$TDCREATE
 40
2453019.62301037
  9
$TDUPDATE
 40
2458659.388768761
  9
$TDINDWG
 40
1.7400391319
  9
$TDUSRTIMER
 40
1.7400391319
  9
$USRTIMER
 70
     1
  9
$ANGBASE
 50
0.0
  9
$ANGDIR
 70
     0
  9
$PDMODE
 70
     3
  9
$PDSIZE
 40
-2.0
  9
$PLINEWID
 40
0.0
  9
$SPLFRAME
 70
     0
  9
$SPLINETYPE
 70
     6
  9
$SPLINESEGS
 70
     8
  9
$SURFTAB1
 70
     6
  9
$SURFTAB2
 70
     6
  9
$SURFTYPE
 70
     6
  9
$SURFU
 70
     6
  9
$SURFV
 70
     6
  9
$UCSNAME
  2

  9
$UCSORG
 10
0.0
 20
0.0
 30
0.0
  9
$UCSXDIR
 10
1.0
 20
0.0
 30
0.0
  9
$UCSYDIR
 10
0.0
 20
1.0
 30
0.0
  9
$PUCSNAME
  2

  9
$PUCSORG
 10
0.0
 20
0.0
 30
0.0
  9
$PUCSXDIR
 10
1.0
 20
0.0
 30
0.0
  9
$PUCSYDIR
 10
0.0
 20
1.0
 30
0.0
  9
$USERI1
 70
     0
  9
$USERI2
 70
     0
  9
$USERI3
 70
     0
  9
$USERI4
 70
     0
  9
$USERI5
 70
     0
  9
$USERR1
 40
20.0
  9
$USERR2
 40
0.0
  9
$USERR3
 40
0.0
  9
$USERR4
 40
0.0
  9
$USERR5
 40
0.0
  9
$WORLDVIEW
 70
     1
  9
$SHADEDGE
 70
     3
  9
$SHADEDIF
 70
    70
  9
$TILEMODE
 70
     1
  9
$MAXACTVP
 70
    48
  9
$PINSBASE
 10
0.0
 20
0.0
 30
0.0
  9
$PLIMCHECK
 70
     0
  9
$PEXTMIN
 10
-100000000000000000000.0
 20
-100000000000000000000.0
 30
-100000000000000000000.0
  9
$PEXTMAX
 10
100000000000000000000.0
 20
100000000000000000000.0
 30
100000000000000000000.0
  9
$PLIMMIN
 10
0.0
 20
0.0
  9
$PLIMMAX
 10
12.0
 20
9.0
  9
$UNITMODE
 70
     0
  9
$VISRETAIN
 70
     0
  9
$PLINEGEN
 70
     0
  9
$PSLTSCALE
 70
     0
  9
$TREEDEPTH
 70
  3020
  9
$ATTDIA
 70
     0
  9
$ATTREQ
 70
     1
  9
$BLIPMODE
 70
     1
  9
$COORDS
 70
     1
  9
$DRAGMODE
 70
     2
  9
$OSMODE
 70
     0
  9
$HANDLING
 70
     0
  9
$HANDSEED
  5
F1F7
  0
ENDSEC
  0
SECTION
  2
TABLES
  0
TABLE
  2
LTYPE
 70
     2
  0
LTYPE
  2
CONTINUOUS
 70
     0
  3
実線
 72
    65
 73
     0
 40
0.0
  0
LTYPE
  2
DASHDOT
 70
     0
  3
____ _ ____ _ ____ _ ____ _ ____ _ ____ _ ____
 72
    65
 73
     4
 40
5.5
 49
4.0
 49
-0.6
 49
0.3
 49
-0.6
  0
ENDTAB
  0
TABLE
  2
LAYER
 70
    12
  0
LAYER
  2
0
 70
     0
 62
     7
  6
CONTINUOUS
  0
LAYER
  2
BASIS
 70
     0
 62
     6
  6
DASHDOT
  0
LAYER
  2
OUTLINE
 70
     0
 62
     3
  6
CONTINUOUS
  0
LAYER
  2
DETAIL
 70
     0
 62
     5
  6
CONTINUOUS
  0
LAYER
  2
SIZE
 70
     0
 62
    30
  6
CONTINUOUS
  0
LAYER
  2
ARRANGE
 70
     0
 62
     1
  6
CONTINUOUS
  0
LAYER
  2
DEFPOINTS
 70
     0
 62
     7
  6
CONTINUOUS
  0
LAYER
  2
ETC
 70
     0
 62
    61
  6
CONTINUOUS
  0
LAYER
  2
FIX
 70
     0
 62
    11
  6
CONTINUOUS
  0
LAYER
  2
NOTE
 70
     0
 62
     4
  6
CONTINUOUS
  0
LAYER
  2
SERVICESPACE
 70
    64
 62
     2
  6
DASHDOT
  0
LAYER
  2
SYMBOLLINE
 70
    64
 62
    15
  6
CONTINUOUS
  0
ENDTAB
  0
TABLE
  2
STYLE
 70
     1
  0
STYLE
  2
STANDARD
 70
     0
 40
64.0
 41
0.9
 50
0.0
 71
     0
 42
64.0
  3
SIMPLEX.shx
  4
BIGFONT.shx
  0
ENDTAB
  0
TABLE
  2
APPID
 70
    17
  0
APPID
  2
ACAD
 70
     0
  0
APPID
  2
AUTOCAD_POSTSCRIPT_FIGURE
 70
     0
  0
APPID
  2
ACAD_EXEMPT_FROM_CAD_STANDARDS
 70
     0
  0
APPID
  2
ACAD_PSEXT
 70
     0
  0
APPID
  2
ACAUTHENVIRON
 70
     0
  0
APPID
  2
GENIUS_GENOENT_13
 70
     0
  0
APPID
  2
GENIUS_GENCFG_13
 70
     0
  0
APPID
  2
GENIUS_GENCFG0_13
 70
     0
  0
APPID
  2
GENIUS_GENCFG1_13
 70
     0
  0
APPID
  2
GENIUS_GENCFG2_13
 70
     0
  0
APPID
  2
GENIUS_GENCFG3_13
 70
     0
  0
APPID
  2
GENIUS_GENCFG4_13
 70
     0
  0
APPID
  2
GENIUS_GEVCFG0_13
 70
     0
  0
APPID
  2
CONTENTBLOCKICON
 70
     0
  0
APPID
  2
CONTENTBLOCKDESCRIPTION
 70
     0
  0
APPID
  2
ACAD_NAV_VCDISPLAY
 70
     0
  0
APPID
  2
ACAD_MLEADERVER
 70
     0
  0
ENDTAB
  0
TABLE
  2
DIMSTYLE
 70
     1
  0
DIMSTYLE
  2
STANDARD
 70
     0
  3

  4

  5
_ORIGIN
  6

  7

 40
1.0
 41
12.0
 42
20.0
 43
200.0
 44
20.0
 45
0.0
 46
0.0
 47
0.0
 48
0.0
140
64.0
141
0.09
142
0.0
143
25.399999999999999
144
1.0
145
0.0
146
1.0
147
25.0
 71
     0
 72
     0
 73
     0
 74
     0
 75
     0
 76
     0
 77
     1
 78
     8
170
     0
171
     2
172
     1
173
     0
174
     1
175
     0
176
     7
177
     7
178
     7
  0
ENDTAB
  0
TABLE
  2
VIEW
 70
     1
  0
VIEW
  2
ALL
 70
     0
 40
4282.6198079999986
 10
0.0
 20
41.309904000000003
 41
5940.0
 11
0.0
 21
0.0
 31
1.0
 12
0.0
 22
0.0
 32
0.0
 42
50.0
 43
0.0
 44
0.0
 50
0.0
 71
     0
  0
ENDTAB
  0
TABLE
  2
UCS
 70
     0
  0
ENDTAB
  0
TABLE
  2
VPORT
 70
     1
  0
VPORT
  2
*ACTIVE
 70
     0
 10
0.0
 20
0.0
 11
1.0
 21
1.0
 12
127.57221938215049
 22
-73.091460759922256
 13
0.0
 23
0.0
 14
1.0
 24
1.0
 15
0.0
 25
0.0
 16
0.0
 26
0.0
 36
1.0
 17
0.0
 27
0.0
 37
0.0
 40
1516.193508058218
 41
2.0223642172523961
 42
50.0
 43
0.0
 44
0.0
 50
0.0
 51
0.0
 71
     0
 72
  1000
 73
     1
 74
     3
 75
     0
 76
     0
 77
     0
 78
     0
  0
ENDTAB
  0
ENDSEC
  0
SECTION
  2
BLOCKS
  0
BLOCK
  8
0
  2
_ORIGIN
 70
     0
 10
0.0
 20
0.0
 30
0.0
  3
_ORIGIN
  1
_ORIGIN
  0
CIRCLE
  8
0
  6
CONTINUOUS
 62
     7
 10
0.0
 20
0.0
 30
0.0
 40
0.5
  0
LINE
  8
0
  6
CONTINUOUS
 62
     7
 10
0.0
 20
0.0
 30
0.0
 11
-1.0
 21
0.0
 31
0.0
  0
ENDBLK
  8
0
  0
ENDSEC
  0
SECTION
  2
ENTITIES
  0
TEXT
  8
ETC
  6
CONTINUOUS
 62
    61
 10
653.74043141398636
 20
618.31802218021517
 30
0.0
 40
60.0
  1
BFS-30SUG2_1
 41
0.9
  0
TEXT
  8
ETC
  6
CONTINUOUS
 62
    61
 10
647.61310391398638
 20
524.19933968021496
 30
0.0
 40
60.0
  1
産業扇
 41
0.9
  0
TEXT
  8
ETC
  6
CONTINUOUS
 62
    61
 10
702.36420554890697
 20
453.62589728075142
 30
0.0
 40
40.0
  1
BFS-30SUG2
 41
0.9
  0
LINE
  8
BASIS
  6
DASHDOT
 62
     6
 10
-204.0935401182123
 20
0.0
 30
0.0
 11
180.92202160662421
 21
0.0
 31
0.0
  0
LINE
  8
DETAIL
  6
CONTINUOUS
 62
     5
 10
136.52031099999999
 20
-214.0
 30
0.0
 11
-136.47968900000001
 21
-214.0
 31
0.0
  0
POINT
  8
ARRANGE
  6
CONTINUOUS
 62
     1
 10
0.0
 20
0.0
 30
0.0
  0
CIRCLE
  8
ARRANGE
  6
CONTINUOUS
 62
     1
 10
0.0
 20
0.0
 30
0.0
 40
44.210526000000002
  0
LINE
  8
DETAIL
  6
CONTINUOUS
 62
     5
 10
-136.47968900000001
 20
-214.0
 30
0.0
 11
-136.47968900000001
 21
214.0
 31
0.0
  0
LINE
  8
BASIS
  6
DASHDOT
 62
     6
 10
0.0
 20
-401.63753600000001
 30
0.0
 11
0.0
 21
401.63753600000001
 31
0.0
  0
TEXT
  8
NOTE
  6
CONTINUOUS
 62
     4
 10
-946.84198014315234
 20
-228.71730081335409
 30
0.0
 40
70.73684200000001
  1
端子カバ－
 41
0.9
  0
LINE
  8
NOTE
  6
CONTINUOUS
 62
     4
 10
-954.43713114315233
 20
-274.77543981335413
 30
0.0
 11
-365.19073039235519
 21
-274.77543981335413
 31
0.0
  0
LINE
  8
NOTE
  6
CONTINUOUS
 62
     4
 10
417.72711100000009
 20
459.45078100000001
 30
0.0
 11
569.11089445433117
 21
459.45078100000001
 31
0.0
  0
LINE
  8
NOTE
  6
CONTINUOUS
 62
     4
 10
-189.00008421435791
 20
-146.18942074306361
 30
0.0
 11
-162.64244699999989
 21
-110.6951249999999
 31
0.0
  0
LINE
  8
NOTE
  6
CONTINUOUS
 62
     4
 10
-162.64244699999989
 20
-110.6951249999999
 30
0.0
 11
-203.2159788435267
 21
-128.25526833144261
 31
0.0
  0
LINE
  8
DETAIL
  6
CONTINUOUS
 62
     5
 10
-162.642447
 20
-167.16256799999991
 30
0.0
 11
-162.64244699999989
 21
-46.226754999999997
 31
0.0
  0
LINE
  8
NOTE
  6
CONTINUOUS
 62
     4
 10
-162.64244699999989
 20
-110.6951249999999
 30
0.0
 11
-365.19073039235519
 21
-274.77543981335413
 31
0.0
  0
ARC
  8
DETAIL
  6
CONTINUOUS
 62
     5
 10
-157.80501499999991
 20
-46.226754999999997
 30
0.0
 40
4.8374329999999999
 50
89.999999999999986
 51
180.0
  0
LINE
  8
DETAIL
  6
CONTINUOUS
 62
     5
 10
-136.52031099999999
 20
-41.389322999999983
 30
0.0
 11
-157.80501499999991
 21
-41.389322999999969
 31
0.0
  0
LINE
  8
NOTE
  6
CONTINUOUS
 62
     4
 10
174.520307
 20
196.50000099999991
 30
0.0
 11
417.72711100000009
 21
459.95107600000011
 31
0.0
  0
ARC
  8
DETAIL
  6
CONTINUOUS
 62
     5
 10
-157.80501499999991
 20
-167.16256799999991
 30
0.0
 40
4.8374329999999999
 50
180.0
 51
270.0
  0
LINE
  8
DETAIL
  6
CONTINUOUS
 62
     5
 10
-136.52031099999999
 20
-172.0
 30
0.0
 11
-157.80501499999991
 21
-172.0
 31
0.0
  0
LINE
  8
NOTE
  6
CONTINUOUS
 62
     4
 10
211.37901000000011
 20
220.91323700000001
 30
0.0
 11
174.520307
 21
196.50000099999991
 31
0.0
  0
LINE
  8
NOTE
  6
CONTINUOUS
 62
     4
 10
174.520307
 20
196.50000099999991
 30
0.0
 11
194.23426199999989
 21
236.07183499999999
 31
0.0
  0
TEXT
  8
NOTE
  6
CONTINUOUS
 62
     4
 10
436.43035500000002
 20
495.07865099999998
 30
0.0
 40
70.73684200000001
  1
AH
 41
0.9
  0
LINE
  8
DETAIL
  6
CONTINUOUS
 62
     5
 10
-71.472877000000153
 20
280.32206999999988
 30
0.0
 11
71.44361200000003
 21
280.54968600000012
 31
0.0
  0
LINE
  8
DETAIL
  6
CONTINUOUS
 62
     5
 10
80.0
 20
214.0
 30
0.0
 11
71.0
 21
284.0
 31
0.0
  0
LINE
  8
DETAIL
  6
CONTINUOUS
 62
     5
 10
-71.0
 20
284.0
 30
0.0
 11
-80.0
 21
214.0
 31
0.0
  0
LINE
  8
DETAIL
  6
CONTINUOUS
 62
     5
 10
-71.0
 20
284.0
 30
0.0
 11
71.0
 21
284.0
 31
0.0
  0
LINE
  8
DETAIL
  6
CONTINUOUS
 62
     5
 10
-136.47968900000001
 20
214.0
 30
0.0
 11
136.5203120000001
 21
214.0
 31
0.0
  0
LINE
  8
NOTE
  6
CONTINUOUS
 62
     4
 10
152.41504699999999
 20
196.50000099999991
 30
0.0
 11
196.62556699999999
 21
196.50000099999991
 31
0.0
  0
LINE
  8
NOTE
  6
CONTINUOUS
 62
     4
 10
174.520307
 20
218.6052609999999
 30
0.0
 11
174.520307
 21
174.39474100000001
 31
0.0
  0
CIRCLE
  8
FIX
  6
CONTINUOUS
 62
    11
 10
174.520307
 20
196.50000099999991
 30
0.0
 40
5.4469940000000001
  0
LINE
  8
DETAIL
  6
CONTINUOUS
 62
     5
 10
105.800962
 20
-217.0
 30
0.0
 11
194.52031099999999
 21
-217.0
 31
0.0
  0
LINE
  8
DETAIL
  6
CONTINUOUS
 62
     5
 10
160.01299100000011
 20
-217.5
 30
0.0
 11
130.01299100000011
 21
-217.5
 31
0.0
  0
LINE
  8
DETAIL
  6
CONTINUOUS
 62
     5
 10
168.81474800000001
 20
-176.5
 30
0.0
 11
136.52031099999999
 21
-176.50001499999999
 31
0.0
  0
LINE
  8
NOTE
  6
CONTINUOUS
 62
     4
 10
152.41505099999989
 20
-196.5
 30
0.0
 11
196.62557100000001
 21
-196.5
 31
0.0
  0
LINE
  8
NOTE
  6
CONTINUOUS
 62
     4
 10
174.52031099999999
 20
-218.60525999999999
 30
0.0
 11
174.52031099999999
 21
-174.39474000000001
 31
0.0
  0
LINE
  8
DETAIL
  6
CONTINUOUS
 62
     5
 10
194.52031099999999
 20
-176.5
 30
0.0
 11
194.52031099999999
 21
-217.0
 31
0.0
  0
LINE
  8
DETAIL
  6
CONTINUOUS
 62
     5
 10
160.01299100000011
 20
-217.5
 30
0.0
 11
160.01299100000011
 21
-217.0
 31
0.0
  0
ARC
  8
DETAIL
  6
CONTINUOUS
 62
     5
 10
174.520184
 20
-196.5
 30
0.0
 40
5.4469940000000001
 50
179.99515199999749
 51
0.0075330000021003
  0
LINE
  8
DETAIL
  6
CONTINUOUS
 62
     5
 10
169.07331699999989
 20
-196.49932000000001
 30
0.0
 11
168.8082830000001
 21
-176.49980000000011
 31
0.0
  0
LINE
  8
DETAIL
  6
CONTINUOUS
 62
     5
 10
179.96730600000001
 20
-196.5
 30
0.0
 11
179.8082830000001
 21
-176.5
 31
0.0
  0
LINE
  8
DETAIL
  6
CONTINUOUS
 62
     5
 10
194.52031099999999
 20
-176.5
 30
0.0
 11
179.8082830000001
 21
-176.5
 31
0.0
  0
CIRCLE
  8
FIX
  6
CONTINUOUS
 62
    11
 10
174.52031099999999
 20
-196.5
 30
0.0
 40
5.4469940000000001
  0
LINE
  8
DETAIL
  6
CONTINUOUS
 62
     5
 10
105.800962
 20
-217.0
 30
0.0
 11
105.800962
 21
-214.0
 31
0.0
  0
LINE
  8
NOTE
  6
CONTINUOUS
 62
     4
 10
-152.37442899999999
 20
-196.5
 30
0.0
 11
-196.58494900000011
 21
-196.5
 31
0.0
  0
LINE
  8
NOTE
  6
CONTINUOUS
 62
     4
 10
-174.47968900000001
 20
-218.60525999999999
 30
0.0
 11
-174.47968900000001
 21
-174.39474000000001
 31
0.0
  0
CIRCLE
  8
FIX
  6
CONTINUOUS
 62
    11
 10
-174.47968900000001
 20
-196.5
 30
0.0
 40
5.4469940000000001
  0
LINE
  8
NOTE
  6
CONTINUOUS
 62
     4
 10
-152.37442899999999
 20
196.50000099999991
 30
0.0
 11
-196.58494900000011
 21
196.50000099999991
 31
0.0
  0
LINE
  8
NOTE
  6
CONTINUOUS
 62
     4
 10
-174.47968900000001
 20
218.6052609999999
 30
0.0
 11
-174.47968900000001
 21
174.39474100000001
 31
0.0
  0
CIRCLE
  8
FIX
  6
CONTINUOUS
 62
    11
 10
-174.47968900000001
 20
196.50000099999991
 30
0.0
 40
5.4469940000000001
  0
LINE
  8
SIZE
  6
CONTINUOUS
 62
    30
 10
204.23536100000001
 20
-176.5
 30
0.0
 11
472.90582300000011
 21
-176.5
 31
0.0
  0
LINE
  8
SIZE
  6
CONTINUOUS
 62
    30
 10
209.25267745843479
 20
-217.5
 30
0.0
 11
472.90582300000011
 21
-217.5
 31
0.0
  0
LINE
  8
SIZE
  6
CONTINUOUS
 62
    30
 10
442.90582300000011
 20
-174.5
 30
0.0
 11
442.90582300000011
 21
-172.5
 31
0.0
  0
LINE
  8
SIZE
  6
CONTINUOUS
 62
    30
 10
442.90582300000011
 20
-219.5
 30
0.0
 11
442.90582300000011
 21
-221.5
 31
0.0
  0
LINE
  8
SIZE
  6
CONTINUOUS
 62
    30
 10
442.90582300000011
 20
-398.906026
 30
0.0
 11
442.90582300000011
 21
-217.5
 31
0.0
  0
TEXT
  8
SIZE
  6
CONTINUOUS
 62
    30
 10
422.90582300000011
 20
-378.90602528571429
 30
0.0
 40
64.0
  1
41
 50
90.0
 41
0.9
 72
     1
 11
422.90582300000011
 21
-344.62031100000002
 31
0.0
  0
LINE
  8
SIZE
  6
CONTINUOUS
 62
    30
 10
442.90582300000011
 20
-176.5
 30
0.0
 11
442.90582300000011
 21
-217.5
 31
0.0
  0
LINE
  8
SIZE
  6
CONTINUOUS
 62
    30
 10
442.90582300000011
 20
-176.5
 30
0.0
 11
442.90582300000011
 21
-217.5
 31
0.0
  0
CIRCLE
  8
SIZE
  6
CONTINUOUS
 62
    30
 10
442.90582300000011
 20
-176.5
 30
0.0
 40
6.0
  0
CIRCLE
  8
SIZE
  6
CONTINUOUS
 62
    30
 10
442.90582300000011
 20
-217.5
 30
0.0
 40
6.0
  0
POINT
  8
DEFPOINTS
  6
CONTINUOUS
 62
    30
 10
184.23536100000001
 20
-176.5
 30
0.0
  0
POINT
  8
DEFPOINTS
  6
CONTINUOUS
 62
    30
 10
156.16041799999991
 20
-217.5
 30
0.0
  0
POINT
  8
DEFPOINTS
  6
CONTINUOUS
 62
    30
 10
442.90582300000011
 20
-217.5
 30
0.0
  0
LINE
  8
SIZE
  6
CONTINUOUS
 62
    30
 10
168.80828700000009
 20
-156.50008500000001
 30
0.0
 11
168.80828700000009
 21
-96.856312000000003
 31
0.0
  0
LINE
  8
SIZE
  6
CONTINUOUS
 62
    30
 10
179.8082830000001
 20
-156.5
 30
0.0
 11
179.8082830000001
 21
-96.856312000000003
 31
0.0
  0
LINE
  8
SIZE
  6
CONTINUOUS
 62
    30
 10
166.80828700000009
 20
-126.856312
 30
0.0
 11
164.80828700000009
 21
-126.856312
 31
0.0
  0
LINE
  8
SIZE
  6
CONTINUOUS
 62
    30
 10
181.8082830000001
 20
-126.856312
 30
0.0
 11
183.8082830000001
 21
-126.856312
 31
0.0
  0
LINE
  8
SIZE
  6
CONTINUOUS
 62
    30
 10
343.01260400000001
 20
-126.856312
 30
0.0
 11
179.8082830000001
 21
-126.856312
 31
0.0
  0
TEXT
  8
SIZE
  6
CONTINUOUS
 62
    30
 10
265.41260400000027
 20
-106.856312
 30
0.0
 40
64.0
  1
11
 41
0.9
 72
     1
 11
294.21260400000028
 21
-106.856312
 31
0.0
  0
LINE
  8
SIZE
  6
CONTINUOUS
 62
    30
 10
168.80828700000009
 20
-126.856312
 30
0.0
 11
179.8082830000001
 21
-126.856312
 31
0.0
  0
LINE
  8
SIZE
  6
CONTINUOUS
 62
    30
 10
168.80828700000009
 20
-126.856312
 30
0.0
 11
179.8082830000001
 21
-126.856312
 31
0.0
  0
CIRCLE
  8
SIZE
  6
CONTINUOUS
 62
    30
 10
168.80828700000009
 20
-126.856312
 30
0.0
 40
6.0
  0
CIRCLE
  8
SIZE
  6
CONTINUOUS
 62
    30
 10
179.8082830000001
 20
-126.856312
 30
0.0
 40
6.0
  0
POINT
  8
DEFPOINTS
  6
CONTINUOUS
 62
    30
 10
168.80828700000009
 20
-176.50008500000001
 30
0.0
  0
POINT
  8
DEFPOINTS
  6
CONTINUOUS
 62
    30
 10
179.8082830000001
 20
-176.5
 30
0.0
  0
POINT
  8
DEFPOINTS
  6
CONTINUOUS
 62
    30
 10
179.8082830000001
 20
-126.856312
 30
0.0
  0
LINE
  8
DETAIL
  6
CONTINUOUS
 62
     5
 10
136.5203120000001
 20
214.0
 30
0.0
 11
136.52031099999999
 21
-214.0
 31
0.0
  0
LINE
  8
SIZE
  6
CONTINUOUS
 62
    30
 10
174.52031099999999
 20
-156.5
 30
0.0
 11
174.52031099999999
 21
-6.8804209999999557
 31
0.0
  0
LINE
  8
SIZE
  6
CONTINUOUS
 62
    30
 10
194.52031099999999
 20
-156.5
 30
0.0
 11
194.52031099999999
 21
-6.8804209999999557
 31
0.0
  0
LINE
  8
SIZE
  6
CONTINUOUS
 62
    30
 10
172.52031099999999
 20
-36.880420999999963
 30
0.0
 11
170.52031099999999
 21
-36.880420999999963
 31
0.0
  0
LINE
  8
SIZE
  6
CONTINUOUS
 62
    30
 10
196.52031099999999
 20
-36.880420999999963
 30
0.0
 11
198.52031099999999
 21
-36.880420999999963
 31
0.0
  0
LINE
  8
SIZE
  6
CONTINUOUS
 62
    30
 10
402.62835199999972
 20
-36.880420999999963
 30
0.0
 11
194.52031099999999
 21
-36.880420999999963
 31
0.0
  0
TEXT
  8
SIZE
  6
CONTINUOUS
 62
    30
 10
289.37120957142861
 20
-16.880420999999959
 30
0.0
 40
64.0
  1
20
 41
0.9
 72
     1
 11
335.99978099999998
 21
-16.880420999999959
 31
0.0
  0
LINE
  8
SIZE
  6
CONTINUOUS
 62
    30
 10
174.52031099999999
 20
-36.880420999999963
 30
0.0
 11
194.52031099999999
 21
-36.880420999999963
 31
0.0
  0
LINE
  8
SIZE
  6
CONTINUOUS
 62
    30
 10
174.52031099999999
 20
-36.880420999999963
 30
0.0
 11
194.52031099999999
 21
-36.880420999999963
 31
0.0
  0
CIRCLE
  8
SIZE
  6
CONTINUOUS
 62
    30
 10
174.52031099999999
 20
-36.880420999999963
 30
0.0
 40
6.0
  0
CIRCLE
  8
SIZE
  6
CONTINUOUS
 62
    30
 10
194.52031099999999
 20
-36.880420999999963
 30
0.0
 40
6.0
  0
POINT
  8
DEFPOINTS
  6
CONTINUOUS
 62
    30
 10
174.52031099999999
 20
-176.5
 30
0.0
  0
POINT
  8
DEFPOINTS
  6
CONTINUOUS
 62
    30
 10
194.52031099999999
 20
-176.5
 30
0.0
  0
POINT
  8
DEFPOINTS
  6
CONTINUOUS
 62
    30
 10
194.52031099999999
 20
-36.880420999999963
 30
0.0
  0
LINE
  8
SIZE
  6
CONTINUOUS
 62
    30
 10
210.51384600000009
 20
-176.5
 30
0.0
 11
356.37776699999989
 21
-176.5
 31
0.0
  0
LINE
  8
SIZE
  6
CONTINUOUS
 62
    30
 10
209.312332
 20
-196.5
 30
0.0
 11
356.37776699999989
 21
-196.5
 31
0.0
  0
LINE
  8
SIZE
  6
CONTINUOUS
 62
    30
 10
326.37776699999989
 20
-174.5
 30
0.0
 11
326.37776699999989
 21
-172.5
 31
0.0
  0
LINE
  8
SIZE
  6
CONTINUOUS
 62
    30
 10
326.37776699999989
 20
-198.5
 30
0.0
 11
326.37776699999989
 21
-200.5
 31
0.0
  0
LINE
  8
SIZE
  6
CONTINUOUS
 62
    30
 10
326.37776699999989
 20
-372.78867000000002
 30
0.0
 11
326.37776699999989
 21
-196.5
 31
0.0
  0
TEXT
  8
SIZE
  6
CONTINUOUS
 62
    30
 10
306.37776699999989
 20
-352.7886694285715
 30
0.0
 40
64.0
  1
20
 50
90.0
 41
0.9
 72
     1
 11
306.37776699999989
 21
-306.16009800000012
 31
0.0
  0
LINE
  8
SIZE
  6
CONTINUOUS
 62
    30
 10
326.37776699999989
 20
-176.5
 30
0.0
 11
326.37776699999989
 21
-196.5
 31
0.0
  0
LINE
  8
SIZE
  6
CONTINUOUS
 62
    30
 10
326.37776699999989
 20
-176.5
 30
0.0
 11
326.37776699999989
 21
-196.5
 31
0.0
  0
CIRCLE
  8
SIZE
  6
CONTINUOUS
 62
    30
 10
326.37776699999989
 20
-176.5
 30
0.0
 40
6.0
  0
CIRCLE
  8
SIZE
  6
CONTINUOUS
 62
    30
 10
326.37776699999989
 20
-196.5
 30
0.0
 40
6.0
  0
POINT
  8
DEFPOINTS
  6
CONTINUOUS
 62
    30
 10
190.51384600000009
 20
-176.5
 30
0.0
  0
POINT
  8
DEFPOINTS
  6
CONTINUOUS
 62
    30
 10
189.312332
 20
-196.5
 30
0.0
  0
POINT
  8
DEFPOINTS
  6
CONTINUOUS
 62
    30
 10
326.37776699999989
 20
-196.5
 30
0.0
  0
LINE
  8
SIZE
  6
CONTINUOUS
 62
    30
 10
-71.0
 20
304.0
 30
0.0
 11
-71.0
 21
471.62695899999989
 31
0.0
  0
LINE
  8
SIZE
  6
CONTINUOUS
 62
    30
 10
71.0
 20
304.0
 30
0.0
 11
71.0
 21
471.62695899999989
 31
0.0
  0
LINE
  8
SIZE
  6
CONTINUOUS
 62
    30
 10
-73.0
 20
441.62695899999989
 30
0.0
 11
-75.0
 21
441.62695899999989
 31
0.0
  0
LINE
  8
SIZE
  6
CONTINUOUS
 62
    30
 10
73.0
 20
441.62695899999989
 30
0.0
 11
75.0
 21
441.62695899999989
 31
0.0
  0
LINE
  8
SIZE
  6
CONTINUOUS
 62
    30
 10
-311.50950773451592
 20
441.62695899999989
 30
0.0
 11
71.0
 21
441.62695899999989
 31
0.0
  0
CIRCLE
  8
SIZE
  6
CONTINUOUS
 62
    30
 10
-71.0
 20
441.62695899999989
 30
0.0
 40
6.0
  0
CIRCLE
  8
SIZE
  6
CONTINUOUS
 62
    30
 10
71.0
 20
441.62695899999989
 30
0.0
 40
6.0
  0
TEXT
  8
SIZE
  6
CONTINUOUS
 62
    30
 10
-305.81560039578062
 20
461.62695899999989
 30
0.0
 40
64.0
  1
φ142
 41
0.9
 72
     1
 11
-196.92417182435199
 21
461.62695899999989
 31
0.0
  0
POINT
  8
DEFPOINTS
  6
CONTINUOUS
 62
    30
 10
-71.0
 20
284.0
 30
0.0
  0
POINT
  8
DEFPOINTS
  6
CONTINUOUS
 62
    30
 10
71.0
 20
284.0
 30
0.0
  0
POINT
  8
DEFPOINTS
  6
CONTINUOUS
 62
    30
 10
71.0
 20
441.62695899999989
 30
0.0
  0
LINE
  8
SIZE
  6
CONTINUOUS
 62
    30
 10
80.0
 20
234.0
 30
0.0
 11
80.0
 21
611.325875
 31
0.0
  0
LINE
  8
SIZE
  6
CONTINUOUS
 62
    30
 10
-80.0
 20
234.0
 30
0.0
 11
-80.0
 21
611.325875
 31
0.0
  0
LINE
  8
SIZE
  6
CONTINUOUS
 62
    30
 10
82.0
 20
581.325875
 30
0.0
 11
84.0
 21
581.325875
 31
0.0
  0
LINE
  8
SIZE
  6
CONTINUOUS
 62
    30
 10
-82.0
 20
581.325875
 30
0.0
 11
-84.0
 21
581.325875
 31
0.0
  0
LINE
  8
SIZE
  6
CONTINUOUS
 62
    30
 10
80.0
 20
581.325875
 30
0.0
 11
-319.99731524991688
 21
581.325875
 31
0.0
  0
CIRCLE
  8
SIZE
  6
CONTINUOUS
 62
    30
 10
80.0
 20
581.325875
 30
0.0
 40
6.0
  0
CIRCLE
  8
SIZE
  6
CONTINUOUS
 62
    30
 10
-80.0
 20
581.325875
 30
0.0
 40
6.0
  0
TEXT
  8
SIZE
  6
CONTINUOUS
 62
    30
 10
-315.7180360708312
 20
601.325875
 30
0.0
 40
64.0
  1
φ160
 41
0.9
 72
     1
 11
-206.8266074994026
 21
601.325875
 31
0.0
  0
POINT
  8
DEFPOINTS
  6
CONTINUOUS
 62
    30
 10
80.0
 20
214.0
 30
0.0
  0
POINT
  8
DEFPOINTS
  6
CONTINUOUS
 62
    30
 10
-80.0
 20
214.0
 30
0.0
  0
POINT
  8
DEFPOINTS
  6
CONTINUOUS
 62
    30
 10
-80.0
 20
581.325875
 30
0.0
  0
LINE
  8
DETAIL
  6
CONTINUOUS
 62
     5
 10
-71.472877000000153
 20
-280.32206999999988
 30
0.0
 11
71.44361200000003
 21
-280.54968600000012
 31
0.0
  0
LINE
  8
DETAIL
  6
CONTINUOUS
 62
     5
 10
-71.0
 20
-284.0
 30
0.0
 11
71.0
 21
-284.0
 31
0.0
  0
LINE
  8
DETAIL
  6
CONTINUOUS
 62
     5
 10
-71.0
 20
-284.0
 30
0.0
 11
-80.0
 21
-214.0
 31
0.0
  0
LINE
  8
DETAIL
  6
CONTINUOUS
 62
     5
 10
80.0
 20
-214.0
 30
0.0
 11
71.0
 21
-284.0
 31
0.0
  0
LINE
  8
SIZE
  6
CONTINUOUS
 62
    30
 10
-156.47968900000001
 20
214.0
 30
0.0
 11
-438.69832100000008
 21
214.0
 31
0.0
  0
LINE
  8
SIZE
  6
CONTINUOUS
 62
    30
 10
-156.47968900000001
 20
-214.0
 30
0.0
 11
-438.69832100000008
 21
-214.0
 31
0.0
  0
LINE
  8
SIZE
  6
CONTINUOUS
 62
    30
 10
-408.69832100000008
 20
212.0
 30
0.0
 11
-408.69832100000008
 21
-212.0
 31
0.0
  0
CIRCLE
  8
SIZE
  6
CONTINUOUS
 62
    30
 10
-408.69832100000008
 20
214.0
 30
0.0
 40
6.0
  0
CIRCLE
  8
SIZE
  6
CONTINUOUS
 62
    30
 10
-408.69832100000008
 20
-214.0
 30
0.0
 40
6.0
  0
TEXT
  8
SIZE
  6
CONTINUOUS
 62
    30
 10
-428.69832100000008
 20
-74.057142857142836
 30
0.0
 40
64.0
  1
428
 50
90.0
 41
0.9
 72
     1
 11
-428.69832100000008
 21
0.0
 31
0.0
  0
POINT
  8
DEFPOINTS
  6
CONTINUOUS
 62
    30
 10
-136.47968900000001
 20
214.0
 30
0.0
  0
POINT
  8
DEFPOINTS
  6
CONTINUOUS
 62
    30
 10
-136.47968900000001
 20
-214.0
 30
0.0
  0
POINT
  8
DEFPOINTS
  6
CONTINUOUS
 62
    30
 10
-408.69832100000008
 20
-214.0
 30
0.0
  0
LINE
  8
SIZE
  6
CONTINUOUS
 62
    30
 10
-194.47968900000001
 20
196.50000099999991
 30
0.0
 11
-308.48247300000003
 21
196.50000099999991
 31
0.0
  0
LINE
  8
SIZE
  6
CONTINUOUS
 62
    30
 10
-194.4795610000001
 20
-196.5
 30
0.0
 11
-308.48247300000003
 21
-196.5
 31
0.0
  0
LINE
  8
SIZE
  6
CONTINUOUS
 62
    30
 10
-278.48247300000003
 20
194.500001
 30
0.0
 11
-278.48247300000003
 21
-194.5
 31
0.0
  0
CIRCLE
  8
SIZE
  6
CONTINUOUS
 62
    30
 10
-278.48247300000003
 20
196.50000099999991
 30
0.0
 40
6.0
  0
CIRCLE
  8
SIZE
  6
CONTINUOUS
 62
    30
 10
-278.48247300000003
 20
-196.5
 30
0.0
 40
6.0
  0
TEXT
  8
SIZE
  6
CONTINUOUS
 62
    30
 10
-298.48247300000003
 20
-74.057141857142852
 30
0.0
 40
64.0
  1
393
 50
90.0
 41
0.9
 72
     1
 11
-298.48247300000003
 21
0.0000009999999975
 31
0.0
  0
POINT
  8
DEFPOINTS
  6
CONTINUOUS
 62
    30
 10
-174.47968900000001
 20
196.50000099999991
 30
0.0
  0
POINT
  8
DEFPOINTS
  6
CONTINUOUS
 62
    30
 10
-174.4795610000001
 20
-196.5
 30
0.0
  0
POINT
  8
DEFPOINTS
  6
CONTINUOUS
 62
    30
 10
-278.48247300000003
 20
-196.5
 30
0.0
  0
LINE
  8
SIZE
  6
CONTINUOUS
 62
    30
 10
-214.47968900000001
 20
217.0
 30
0.0
 11
-574.92430000000013
 21
217.0
 31
0.0
  0
LINE
  8
SIZE
  6
CONTINUOUS
 62
    30
 10
-214.47968900000001
 20
-217.0
 30
0.0
 11
-574.92430000000013
 21
-217.0
 31
0.0
  0
LINE
  8
SIZE
  6
CONTINUOUS
 62
    30
 10
-544.92430000000013
 20
215.0
 30
0.0
 11
-544.92430000000013
 21
-215.0
 31
0.0
  0
CIRCLE
  8
SIZE
  6
CONTINUOUS
 62
    30
 10
-544.92430000000013
 20
217.0
 30
0.0
 40
6.0
  0
CIRCLE
  8
SIZE
  6
CONTINUOUS
 62
    30
 10
-544.92430000000013
 20
-217.0
 30
0.0
 40
6.0
  0
TEXT
  8
SIZE
  6
CONTINUOUS
 62
    30
 10
-564.92430000000013
 20
-75.428571428571416
 30
0.0
 40
64.0
  1
434
 50
90.0
 41
0.9
 72
     1
 11
-564.92430000000013
 21
0.0
 31
0.0
  0
POINT
  8
DEFPOINTS
  6
CONTINUOUS
 62
    30
 10
-194.47968900000001
 20
217.0
 30
0.0
  0
POINT
  8
DEFPOINTS
  6
CONTINUOUS
 62
    30
 10
-194.47968900000001
 20
-217.0
 30
0.0
  0
POINT
  8
DEFPOINTS
  6
CONTINUOUS
 62
    30
 10
-544.92430000000013
 20
-217.0
 30
0.0
  0
LINE
  8
SIZE
  6
CONTINUOUS
 62
    30
 10
136.52031099999999
 20
-234.0
 30
0.0
 11
136.52031099999999
 21
-624.630359
 31
0.0
  0
LINE
  8
SIZE
  6
CONTINUOUS
 62
    30
 10
-136.47968900000001
 20
-234.0
 30
0.0
 11
-136.47968900000001
 21
-624.630359
 31
0.0
  0
LINE
  8
SIZE
  6
CONTINUOUS
 62
    30
 10
134.52031099999999
 20
-594.630359
 30
0.0
 11
-134.47968900000001
 21
-594.630359
 31
0.0
  0
CIRCLE
  8
SIZE
  6
CONTINUOUS
 62
    30
 10
136.52031099999999
 20
-594.630359
 30
0.0
 40
6.0
  0
CIRCLE
  8
SIZE
  6
CONTINUOUS
 62
    30
 10
-136.47968900000001
 20
-594.630359
 30
0.0
 40
6.0
  0
TEXT
  8
SIZE
  6
CONTINUOUS
 62
    30
 10
-74.036831857142843
 20
-574.630359
 30
0.0
 40
64.0
  1
273
 41
0.9
 72
     1
 11
0.0203109999999924
 21
-574.630359
 31
0.0
  0
POINT
  8
DEFPOINTS
  6
CONTINUOUS
 62
    30
 10
136.52031099999999
 20
-214.0
 30
0.0
  0
POINT
  8
DEFPOINTS
  6
CONTINUOUS
 62
    30
 10
-136.47968900000001
 20
-214.0
 30
0.0
  0
POINT
  8
DEFPOINTS
  6
CONTINUOUS
 62
    30
 10
-136.47968900000001
 20
-594.630359
 30
0.0
  0
LINE
  8
SIZE
  6
CONTINUOUS
 62
    30
 10
174.52031099999999
 20
-232.6938982474289
 30
0.0
 11
174.52031099999999
 21
-722.05037100000004
 31
0.0
  0
LINE
  8
SIZE
  6
CONTINUOUS
 62
    30
 10
-174.47968900000001
 20
-234.4103457966489
 30
0.0
 11
-174.47968900000001
 21
-722.05037100000004
 31
0.0
  0
LINE
  8
SIZE
  6
CONTINUOUS
 62
    30
 10
172.52031099999999
 20
-692.05037100000004
 30
0.0
 11
-172.47968900000001
 21
-692.05037100000004
 31
0.0
  0
CIRCLE
  8
SIZE
  6
CONTINUOUS
 62
    30
 10
174.52031099999999
 20
-692.05037100000004
 30
0.0
 40
6.0
  0
CIRCLE
  8
SIZE
  6
CONTINUOUS
 62
    30
 10
-174.47968900000001
 20
-692.05037100000004
 30
0.0
 40
6.0
  0
TEXT
  8
SIZE
  6
CONTINUOUS
 62
    30
 10
-72.665403285714291
 20
-672.05037100000004
 30
0.0
 40
64.0
  1
349
 41
0.9
 72
     1
 11
0.0203109999999924
 21
-672.05037100000004
 31
0.0
  0
POINT
  8
DEFPOINTS
  6
CONTINUOUS
 62
    30
 10
174.52031099999999
 20
-196.5
 30
0.0
  0
POINT
  8
DEFPOINTS
  6
CONTINUOUS
 62
    30
 10
-174.47968900000001
 20
-196.5
 30
0.0
  0
POINT
  8
DEFPOINTS
  6
CONTINUOUS
 62
    30
 10
-174.47968900000001
 20
-692.05037100000004
 30
0.0
  0
LINE
  8
SIZE
  6
CONTINUOUS
 62
    30
 10
-194.47968900000001
 20
-236.5
 30
0.0
 11
-194.47968900000001
 21
-828.90343600000006
 31
0.0
  0
LINE
  8
SIZE
  6
CONTINUOUS
 62
    30
 10
194.52031099999999
 20
-237.0
 30
0.0
 11
194.52031099999999
 21
-828.90343600000006
 31
0.0
  0
LINE
  8
SIZE
  6
CONTINUOUS
 62
    30
 10
-192.47968900000001
 20
-798.90343600000006
 30
0.0
 11
192.52031099999999
 21
-798.90343600000006
 31
0.0
  0
CIRCLE
  8
SIZE
  6
CONTINUOUS
 62
    30
 10
-194.47968900000001
 20
-798.90343600000006
 30
0.0
 40
6.0
  0
CIRCLE
  8
SIZE
  6
CONTINUOUS
 62
    30
 10
194.52031099999999
 20
-798.90343600000006
 30
0.0
 40
6.0
  0
TEXT
  8
SIZE
  6
CONTINUOUS
 62
    30
 10
-72.665403285714277
 20
-778.90343600000006
 30
0.0
 40
64.0
  1
389
 41
0.9
 72
     1
 11
0.0203109999999924
 21
-778.90343600000006
 31
0.0
  0
POINT
  8
DEFPOINTS
  6
CONTINUOUS
 62
    30
 10
-194.47968900000001
 20
-216.5
 30
0.0
  0
POINT
  8
DEFPOINTS
  6
CONTINUOUS
 62
    30
 10
194.52031099999999
 20
-217.0
 30
0.0
  0
POINT
  8
DEFPOINTS
  6
CONTINUOUS
 62
    30
 10
194.52031099999999
 20
-798.90343600000006
 30
0.0
  0
LINE
  8
DETAIL
  6
CONTINUOUS
 62
     5
 10
130.01299100000011
 20
-217.5
 30
0.0
 11
130.01299100000011
 21
-217.0
 31
0.0
  0
LINE
  8
DETAIL
  6
CONTINUOUS
 62
     5
 10
-105.76034
 20
217.0
 30
0.0
 11
-194.47968900000001
 21
217.0
 31
0.0
  0
ARC
  8
DETAIL
  6
CONTINUOUS
 62
     5
 10
-174.4795610000001
 20
196.5
 30
0.0
 40
5.4469940000000001
 50
359.99515199999752
 51
180.0075330000021
  0
LINE
  8
DETAIL
  6
CONTINUOUS
 62
     5
 10
-159.97236799999999
 20
217.5
 30
0.0
 11
-159.97236799999999
 21
217.0
 31
0.0
  0
LINE
  8
DETAIL
  6
CONTINUOUS
 62
     5
 10
-159.97236799999999
 20
217.5
 30
0.0
 11
-129.97236799999999
 21
217.5
 31
0.0
  0
LINE
  8
DETAIL
  6
CONTINUOUS
 62
     5
 10
-168.77412499999991
 20
176.5
 30
0.0
 11
-136.47968900000001
 21
176.50001499999999
 31
0.0
  0
LINE
  8
DETAIL
  6
CONTINUOUS
 62
     5
 10
-169.03269399999999
 20
196.49932100000001
 30
0.0
 11
-168.76766000000001
 21
176.49980000000011
 31
0.0
  0
LINE
  8
DETAIL
  6
CONTINUOUS
 62
     5
 10
-194.47968900000001
 20
176.5
 30
0.0
 11
-194.47968900000001
 21
217.0
 31
0.0
  0
LINE
  8
DETAIL
  6
CONTINUOUS
 62
     5
 10
-194.47968900000001
 20
176.5
 30
0.0
 11
-179.76766000000001
 21
176.5
 31
0.0
  0
LINE
  8
DETAIL
  6
CONTINUOUS
 62
     5
 10
-179.92668300000011
 20
196.5
 30
0.0
 11
-179.76766000000001
 21
176.5
 31
0.0
  0
LINE
  8
DETAIL
  6
CONTINUOUS
 62
     5
 10
-105.76034
 20
217.0
 30
0.0
 11
-105.76034
 21
214.0
 31
0.0
  0
LINE
  8
DETAIL
  6
CONTINUOUS
 62
     5
 10
-129.97236799999999
 20
217.5
 30
0.0
 11
-129.97236799999999
 21
217.0
 31
0.0
  0
LINE
  8
DETAIL
  6
CONTINUOUS
 62
     5
 10
-105.76034
 20
-217.0
 30
0.0
 11
-194.47968900000001
 21
-217.0
 31
0.0
  0
ARC
  8
DETAIL
  6
CONTINUOUS
 62
     5
 10
-174.4795610000001
 20
-196.5
 30
0.0
 40
5.4469940000000001
 50
179.9924669999979
 51
0.004848000002563
  0
LINE
  8
DETAIL
  6
CONTINUOUS
 62
     5
 10
-159.97236799999999
 20
-217.5
 30
0.0
 11
-159.97236799999999
 21
-217.0
 31
0.0
  0
LINE
  8
DETAIL
  6
CONTINUOUS
 62
     5
 10
-159.97236799999999
 20
-217.5
 30
0.0
 11
-129.97236799999999
 21
-217.5
 31
0.0
  0
LINE
  8
DETAIL
  6
CONTINUOUS
 62
     5
 10
-168.77412499999991
 20
-176.5
 30
0.0
 11
-136.47968900000001
 21
-176.50001499999999
 31
0.0
  0
LINE
  8
DETAIL
  6
CONTINUOUS
 62
     5
 10
-169.03269399999999
 20
-196.49932000000001
 30
0.0
 11
-168.76766000000001
 21
-176.49979899999991
 31
0.0
  0
LINE
  8
DETAIL
  6
CONTINUOUS
 62
     5
 10
-194.47968900000001
 20
-176.5
 30
0.0
 11
-194.47968900000001
 21
-217.0
 31
0.0
  0
LINE
  8
DETAIL
  6
CONTINUOUS
 62
     5
 10
-194.47968900000001
 20
-176.5
 30
0.0
 11
-179.76766000000001
 21
-176.5
 31
0.0
  0
LINE
  8
DETAIL
  6
CONTINUOUS
 62
     5
 10
-179.92668300000011
 20
-196.5
 30
0.0
 11
-179.76766000000001
 21
-176.5
 31
0.0
  0
LINE
  8
DETAIL
  6
CONTINUOUS
 62
     5
 10
-105.76034
 20
-217.0
 30
0.0
 11
-105.76034
 21
-214.0
 31
0.0
  0
LINE
  8
DETAIL
  6
CONTINUOUS
 62
     5
 10
-129.97236799999999
 20
-217.5
 30
0.0
 11
-129.97236799999999
 21
-217.0
 31
0.0
  0
LINE
  8
DETAIL
  6
CONTINUOUS
 62
     5
 10
105.8009630000001
 20
217.0
 30
0.0
 11
194.52031099999999
 21
217.0
 31
0.0
  0
ARC
  8
DETAIL
  6
CONTINUOUS
 62
     5
 10
174.520184
 20
196.5
 30
0.0
 40
5.4469940000000001
 50
359.99246699999787
 51
180.0048480000026
  0
LINE
  8
DETAIL
  6
CONTINUOUS
 62
     5
 10
160.01299100000011
 20
217.5
 30
0.0
 11
160.01299100000011
 21
217.0
 31
0.0
  0
LINE
  8
DETAIL
  6
CONTINUOUS
 62
     5
 10
160.01299100000011
 20
217.5
 30
0.0
 11
130.01299100000011
 21
217.5
 31
0.0
  0
LINE
  8
DETAIL
  6
CONTINUOUS
 62
     5
 10
168.81474800000001
 20
176.5
 30
0.0
 11
136.5203120000001
 21
176.50001499999999
 31
0.0
  0
LINE
  8
DETAIL
  6
CONTINUOUS
 62
     5
 10
169.07331699999989
 20
196.49932100000001
 30
0.0
 11
168.8082830000001
 21
176.49980000000011
 31
0.0
  0
LINE
  8
DETAIL
  6
CONTINUOUS
 62
     5
 10
194.5203120000001
 20
176.5
 30
0.0
 11
194.52031099999999
 21
217.0
 31
0.0
  0
LINE
  8
DETAIL
  6
CONTINUOUS
 62
     5
 10
194.5203120000001
 20
176.5
 30
0.0
 11
179.8082830000001
 21
176.5
 31
0.0
  0
LINE
  8
DETAIL
  6
CONTINUOUS
 62
     5
 10
179.96730600000001
 20
196.5
 30
0.0
 11
179.8082830000001
 21
176.5
 31
0.0
  0
LINE
  8
DETAIL
  6
CONTINUOUS
 62
     5
 10
105.8009630000001
 20
217.0
 30
0.0
 11
105.8009630000001
 21
214.0
 31
0.0
  0
LINE
  8
DETAIL
  6
CONTINUOUS
 62
     5
 10
130.01299100000011
 20
217.5
 30
0.0
 11
130.01299100000011
 21
217.0
 31
0.0
  0
LINE
  8
OUTLINE
  6
CONTINUOUS
 62
     3
 10
-136.47968900000001
 20
214.0
 30
0.0
 11
136.5203120000001
 21
214.0
 31
0.0
  0
LINE
  8
OUTLINE
  6
CONTINUOUS
 62
     3
 10
136.52031099999999
 20
-214.0
 30
0.0
 11
-136.47968900000001
 21
-214.0
 31
0.0
  0
LINE
  8
OUTLINE
  6
CONTINUOUS
 62
     3
 10
-136.47968900000001
 20
-214.0
 30
0.0
 11
-136.47968900000001
 21
214.0
 31
0.0
  0
LINE
  8
OUTLINE
  6
CONTINUOUS
 62
     3
 10
136.5203120000001
 20
214.0
 30
0.0
 11
136.52031099999999
 21
-214.0
 31
0.0
  0
LINE
  8
SIZE
  6
CONTINUOUS
 62
    30
 10
-76.641812051288071
 20
284.0
 30
0.0
 11
-438.69832100000008
 21
284.0
 31
0.0
  0
LINE
  8
SIZE
  6
CONTINUOUS
 62
    30
 10
-408.69832100000008
 20
282.0
 30
0.0
 11
-408.69832100000008
 21
216.0
 31
0.0
  0
LINE
  8
SIZE
  6
CONTINUOUS
 62
    30
 10
-408.69832100000008
 20
436.25010900000012
 30
0.0
 11
-408.69832100000008
 21
284.0
 31
0.0
  0
TEXT
  8
SIZE
  6
CONTINUOUS
 62
    30
 10
-428.69832100000008
 20
322.99296657142838
 30
0.0
 40
64.0
  1
70
 50
90.0
 41
0.9
 72
     1
 11
-428.69832100000008
 21
369.62153799999987
 31
0.0
  0
CIRCLE
  8
SIZE
  6
CONTINUOUS
 62
    30
 10
-408.69832100000008
 20
284.0
 30
0.0
 40
6.0
  0
CIRCLE
  8
SIZE
  6
CONTINUOUS
 62
     1
 10
-408.69832100000008
 20
214.0
 30
0.0
 40
6.0
  0
POINT
  8
DEFPOINTS
  6
CONTINUOUS
 62
     1
 10
-21.823734999999939
 20
284.0
 30
0.0
  0
POINT
  8
DEFPOINTS
  6
CONTINUOUS
 62
     1
 10
-35.489345999999841
 20
214.0
 30
0.0
  0
POINT
  8
DEFPOINTS
  6
CONTINUOUS
 62
     1
 10
-408.69832100000008
 20
214.0
 30
0.0
  0
LINE
  8
SIZE
  6
CONTINUOUS
 62
    30
 10
-87.375724646042727
 20
-284.0
 30
0.0
 11
-438.69832100000008
 21
-284.0
 31
0.0
  0
LINE
  8
SIZE
  6
CONTINUOUS
 62
    30
 10
-408.69832100000008
 20
-216.0
 30
0.0
 11
-408.69832100000008
 21
-282.0
 31
0.0
  0
LINE
  8
SIZE
  6
CONTINUOUS
 62
    30
 10
-408.69832100000008
 20
-434.22989699999999
 30
0.0
 11
-408.69832100000008
 21
-284.0
 31
0.0
  0
TEXT
  8
SIZE
  6
CONTINUOUS
 62
    30
 10
-428.69832100000008
 20
-414.22989642857141
 30
0.0
 40
64.0
  1
70
 50
90.0
 41
0.9
 72
     1
 11
-428.69832100000008
 21
-367.60132499999997
 31
0.0
  0
CIRCLE
  8
SIZE
  6
CONTINUOUS
 62
     1
 10
-408.69832100000008
 20
-214.0
 30
0.0
 40
6.0
  0
CIRCLE
  8
SIZE
  6
CONTINUOUS
 62
    30
 10
-408.69832100000008
 20
-284.0
 30
0.0
 40
6.0
  0
POINT
  8
DEFPOINTS
  6
CONTINUOUS
 62
     1
 10
-70.426542000000154
 20
-214.0
 30
0.0
  0
POINT
  8
DEFPOINTS
  6
CONTINUOUS
 62
     1
 10
-51.051082999999842
 20
-284.0
 30
0.0
  0
ENDSEC
  0
EOF
