  0
SECTION
  2
HEADER
  9
$ACADVER
  1
AC1009
  9
$DWGCODEPAGE
  3
dos932
  9
$INSBASE
 10
0.0
 20
0.0
 30
0.0
  9
$EXTMIN
 10
-477.65806432308091
 20
-738.60167320654909
 30
-0.000762485415251
  9
$EXTMAX
 10
1086.2869379067399
 20
279.41895297195151
 30
0.0030525028975603
  9
$LIMMIN
 10
-2970.0
 20
-2100.0
  9
$LIMMAX
 10
2970.0
 20
2100.0
  9
$ORTHOMODE
 70
     1
  9
$REGENMODE
 70
     1
  9
$FILLMODE
 70
     1
  9
$QTEXTMODE
 70
     0
  9
$MIRRTEXT
 70
     0
  9
$LTSCALE
 40
20.0
  9
$ATTMODE
 70
     1
  9
$TEXTSIZE
 40
64.0
  9
$TRACEWID
 40
0.05
  9
$TEXTSTYLE
  7
STANDARD
  9
$CLAYER
  8
SIZE
  9
$CELTYPE
  6
CONTINUOUS
  9
$CECOLOR
 62
     7
  9
$DIMSCALE
 40
1.0
  9
$DIMASZ
 40
12.0
  9
$DIMEXO
 40
20.0
  9
$DIMDLI
 40
200.0
  9
$DIMRND
 40
0.0
  9
$DIMDLE
 40
0.0
  9
$DIMEXE
 40
20.0
  9
$DIMTP
 40
0.0
  9
$DIMTM
 40
0.0
  9
$DIMTXT
 40
64.0
  9
$DIMCEN
 40
0.09
  9
$DIMTSZ
 40
0.0
  9
$DIMTOL
 70
     0
  9
$DIMLIM
 70
     0
  9
$DIMTIH
 70
     0
  9
$DIMTOH
 70
     0
  9
$DIMSE1
 70
     0
  9
$DIMSE2
 70
     0
  9
$DIMTAD
 70
     1
  9
$DIMZIN
 70
     8
  9
$DIMBLK
  1

  9
$DIMASO
 70
     1
  9
$DIMSHO
 70
     0
  9
$DIMPOST
  1

  9
$DIMAPOST
  1

  9
$DIMALT
 70
     0
  9
$DIMALTD
 70
     2
  9
$DIMALTF
 40
25.399999999999999
  9
$DIMLFAC
 40
1.0
  9
$DIMTOFL
 70
     1
  9
$DIMTVP
 40
0.0
  9
$DIMTIX
 70
     1
  9
$DIMSOXD
 70
     0
  9
$DIMSAH
 70
     0
  9
$DIMBLK1
  1

  9
$DIMBLK2
  1

  9
$DIMSTYLE
  2
STANDARD
  9
$DIMCLRD
 70
     7
  9
$DIMCLRE
 70
     7
  9
$DIMCLRT
 70
     7
  9
$DIMTFAC
 40
1.0
  9
$DIMGAP
 40
25.0
  9
$LUNITS
 70
     2
  9
$LUPREC
 70
     4
  9
$SKETCHINC
 40
0.1
  9
$FILLETRAD
 40
3.0
  9
$AUNITS
 70
     1
  9
$AUPREC
 70
     3
  9
$MENU
  1
ACAD
  9
$ELEVATION
 40
0.0
  9
$PELEVATION
 40
0.0
  9
$THICKNESS
 40
0.0
  9
$LIMCHECK
 70
     0
  9
$CHAMFERA
 40
0.0
  9
$CHAMFERB
 40
0.0
  9
$SKPOLY
 70
     0
  9
$TDCREATE
 40
2453019.62301037
  9
$TDUPDATE
 40
2459278.571720695
  9
$TDINDWG
 40
1.728013669
  9
$TDUSRTIMER
 40
1.728013669
  9
$USRTIMER
 70
     1
  9
$ANGBASE
 50
0.0
  9
$ANGDIR
 70
     0
  9
$PDMODE
 70
     3
  9
$PDSIZE
 40
-2.0
  9
$PLINEWID
 40
0.0
  9
$SPLFRAME
 70
     0
  9
$SPLINETYPE
 70
     6
  9
$SPLINESEGS
 70
     8
  9
$SURFTAB1
 70
     6
  9
$SURFTAB2
 70
     6
  9
$SURFTYPE
 70
     6
  9
$SURFU
 70
     6
  9
$SURFV
 70
     6
  9
$UCSNAME
  2

  9
$UCSORG
 10
0.0
 20
0.0
 30
0.0
  9
$UCSXDIR
 10
1.0
 20
0.0
 30
0.0
  9
$UCSYDIR
 10
0.0
 20
1.0
 30
0.0
  9
$PUCSNAME
  2

  9
$PUCSORG
 10
0.0
 20
0.0
 30
0.0
  9
$PUCSXDIR
 10
1.0
 20
0.0
 30
0.0
  9
$PUCSYDIR
 10
0.0
 20
1.0
 30
0.0
  9
$USERI1
 70
     0
  9
$USERI2
 70
     0
  9
$USERI3
 70
     0
  9
$USERI4
 70
     0
  9
$USERI5
 70
     0
  9
$USERR1
 40
20.0
  9
$USERR2
 40
0.0
  9
$USERR3
 40
0.0
  9
$USERR4
 40
0.0
  9
$USERR5
 40
0.0
  9
$WORLDVIEW
 70
     1
  9
$SHADEDGE
 70
     3
  9
$SHADEDIF
 70
    70
  9
$TILEMODE
 70
     1
  9
$MAXACTVP
 70
    48
  9
$PINSBASE
 10
0.0
 20
0.0
 30
0.0
  9
$PLIMCHECK
 70
     0
  9
$PEXTMIN
 10
-100000000000000000000.0
 20
-100000000000000000000.0
 30
-100000000000000000000.0
  9
$PEXTMAX
 10
100000000000000000000.0
 20
100000000000000000000.0
 30
100000000000000000000.0
  9
$PLIMMIN
 10
0.0
 20
0.0
  9
$PLIMMAX
 10
12.0
 20
9.0
  9
$UNITMODE
 70
     0
  9
$VISRETAIN
 70
     0
  9
$PLINEGEN
 70
     0
  9
$PSLTSCALE
 70
     0
  9
$TREEDEPTH
 70
  3020
  9
$ATTDIA
 70
     0
  9
$ATTREQ
 70
     1
  9
$BLIPMODE
 70
     1
  9
$COORDS
 70
     1
  9
$DRAGMODE
 70
     2
  9
$OSMODE
 70
     0
  9
$HANDLING
 70
     0
  9
$HANDSEED
  5
F590
  0
ENDSEC
  0
SECTION
  2
TABLES
  0
TABLE
  2
LTYPE
 70
     2
  0
LTYPE
  2
CONTINUOUS
 70
     0
  3
実線
 72
    65
 73
     0
 40
0.0
  0
LTYPE
  2
DASHDOT
 70
     0
  3
____ _ ____ _ ____ _ ____ _ ____ _ ____ _ ____
 72
    65
 73
     4
 40
5.5
 49
4.0
 49
-0.6
 49
0.3
 49
-0.6
  0
ENDTAB
  0
TABLE
  2
LAYER
 70
    10
  0
LAYER
  2
0
 70
     0
 62
     7
  6
CONTINUOUS
  0
LAYER
  2
BASIS
 70
     0
 62
     6
  6
DASHDOT
  0
LAYER
  2
OUTLINE
 70
     0
 62
     3
  6
CONTINUOUS
  0
LAYER
  2
DETAIL
 70
     0
 62
     5
  6
CONTINUOUS
  0
LAYER
  2
SIZE
 70
     0
 62
    30
  6
CONTINUOUS
  0
LAYER
  2
ARRANGE
 70
     0
 62
     1
  6
CONTINUOUS
  0
LAYER
  2
DEFPOINTS
 70
     0
 62
     7
  6
CONTINUOUS
  0
LAYER
  2
ETC
 70
     0
 62
    61
  6
CONTINUOUS
  0
LAYER
  2
FIX
 70
     0
 62
    11
  6
CONTINUOUS
  0
LAYER
  2
NOTE
 70
     0
 62
     4
  6
CONTINUOUS
  0
ENDTAB
  0
TABLE
  2
STYLE
 70
     1
  0
STYLE
  2
STANDARD
 70
     0
 40
64.0
 41
0.9
 50
0.0
 71
     0
 42
64.0
  3
SIMPLEX.shx
  4
BIGFONT.shx
  0
ENDTAB
  0
TABLE
  2
APPID
 70
    19
  0
APPID
  2
ACAD
 70
     0
  0
APPID
  2
AUTOCAD_POSTSCRIPT_FIGURE
 70
     0
  0
APPID
  2
ACAD_EXEMPT_FROM_CAD_STANDARDS
 70
     0
  0
APPID
  2
ACAD_PSEXT
 70
     0
  0
APPID
  2
ACAUTHENVIRON
 70
     0
  0
APPID
  2
GENIUS_GENOENT_13
 70
     0
  0
APPID
  2
GENIUS_GENCFG_13
 70
     0
  0
APPID
  2
GENIUS_GENCFG0_13
 70
     0
  0
APPID
  2
GENIUS_GENCFG1_13
 70
     0
  0
APPID
  2
GENIUS_GENCFG2_13
 70
     0
  0
APPID
  2
GENIUS_GENCFG3_13
 70
     0
  0
APPID
  2
GENIUS_GENCFG4_13
 70
     0
  0
APPID
  2
GENIUS_GEVCFG0_13
 70
     0
  0
APPID
  2
CONTENTBLOCKICON
 70
     0
  0
APPID
  2
CONTENTBLOCKDESCRIPTION
 70
     0
  0
APPID
  2
ACAD_NAV_VCDISPLAY
 70
     0
  0
APPID
  2
ACAD_MLEADERVER
 70
     0
  0
APPID
  2
ACDBDYNAMICBLOCKTRUENAME
 70
     0
  0
APPID
  2
ACDBDYNAMICBLOCKGUID
 70
     0
  0
ENDTAB
  0
TABLE
  2
DIMSTYLE
 70
     1
  0
DIMSTYLE
  2
STANDARD
 70
     0
  3

  4

  5
_ORIGIN
  6

  7

 40
1.0
 41
12.0
 42
20.0
 43
200.0
 44
20.0
 45
0.0
 46
0.0
 47
0.0
 48
0.0
140
64.0
141
0.09
142
0.0
143
25.399999999999999
144
1.0
145
0.0
146
1.0
147
25.0
 71
     0
 72
     0
 73
     0
 74
     0
 75
     0
 76
     0
 77
     1
 78
     8
170
     0
171
     2
172
     1
173
     0
174
     1
175
     0
176
     7
177
     7
178
     7
  0
ENDTAB
  0
TABLE
  2
VIEW
 70
     1
  0
VIEW
  2
ALL
 70
     0
 40
4282.6198079999986
 10
0.0
 20
41.309904000000003
 41
5940.0
 11
0.0
 21
0.0
 31
1.0
 12
0.0
 22
0.0
 32
0.0
 42
50.0
 43
0.0
 44
0.0
 50
0.0
 71
     0
  0
ENDTAB
  0
TABLE
  2
UCS
 70
     0
  0
ENDTAB
  0
TABLE
  2
VPORT
 70
     1
  0
VPORT
  2
*ACTIVE
 70
     0
 10
0.0
 20
0.0
 11
1.0
 21
1.0
 12
304.31443679182928
 22
-229.59136011729879
 13
0.0
 23
0.0
 14
1.0
 24
1.0
 15
0.0
 25
0.0
 16
0.0
 26
0.0
 36
1.0
 17
0.0
 27
0.0
 37
0.0
 40
650.40464382275081
 41
2.2504409171075839
 42
50.0
 43
0.0
 44
0.0
 50
0.0
 51
0.0
 71
     0
 72
  1000
 73
     1
 74
     3
 75
     0
 76
     0
 77
     0
 78
     0
  0
ENDTAB
  0
ENDSEC
  0
SECTION
  2
BLOCKS
  0
BLOCK
  8
0
  2
_ORIGIN
 70
     0
 10
0.0
 20
0.0
 30
0.0
  3
_ORIGIN
  1
_ORIGIN
  0
CIRCLE
  8
SIZE
  6
CONTINUOUS
 62
    30
 10
0.0
 20
0.0
 30
0.0
 40
0.5
  0
LINE
  8
SIZE
  6
CONTINUOUS
 62
    30
 10
0.0
 20
0.0
 30
0.0
 11
-1.0
 21
0.0
 31
0.0
  0
ENDBLK
  8
0
  0
ENDSEC
  0
SECTION
  2
ENTITIES
  0
CIRCLE
  8
ARRANGE
  6
CONTINUOUS
 62
     1
 10
0.0
 20
0.0
 30
0.0
 40
40.0
  0
LINE
  8
BASIS
  6
DASHDOT
 62
     6
 10
185.3734420000001
 20
0.0
 30
0.0
 11
-181.5831619999999
 21
0.0
 31
0.0
  0
POINT
  8
ARRANGE
  6
CONTINUOUS
 62
     1
 10
0.0
 20
0.0
 30
0.0
 50
180.0
  0
LINE
  8
BASIS
  6
DASHDOT
 62
     6
 10
-0.0000000000005969
 20
-288.83715112625822
 30
0.0
 11
-0.0000000000005969
 21
62.837151126258277
 31
0.0
  0
LINE
  8
DETAIL
  6
CONTINUOUS
 62
     5
 10
105.0
 20
-229.0
 30
0.0
 11
105.0
 21
-147.0
 31
0.0
  0
LINE
  8
DETAIL
  6
CONTINUOUS
 62
     5
 10
-105.0
 20
-229.0
 30
0.0
 11
-105.0
 21
-147.0
 31
0.0
  0
LINE
  8
DETAIL
  6
CONTINUOUS
 62
     5
 10
111.5
 20
0.0
 30
0.0
 11
-111.5
 21
0.0
 31
0.0
  0
LINE
  8
DETAIL
  6
CONTINUOUS
 62
     5
 10
76.090914999999995
 20
-147.0
 30
0.0
 11
143.780316
 21
-147.0
 31
0.0
  0
LINE
  8
NOTE
  6
CONTINUOUS
 62
     4
 10
149.5
 20
-82.0
 30
0.0
 11
149.5
 21
-122.0
 31
0.0
  0
LINE
  8
NOTE
  6
CONTINUOUS
 62
     4
 10
129.5
 20
-102.0
 30
0.0
 11
169.5
 21
-102.0
 31
0.0
  0
LINE
  8
DETAIL
  6
CONTINUOUS
 62
     5
 10
169.5
 20
-122.9856090000001
 30
0.0
 11
169.5
 21
-102.0
 31
0.0
  0
LINE
  8
DETAIL
  6
CONTINUOUS
 62
     5
 10
169.5
 20
-102.0
 30
0.0
 11
89.357946999999967
 21
-102.0
 31
0.0
  0
CIRCLE
  8
FIX
  6
CONTINUOUS
 62
    11
 10
149.5
 20
-102.0
 30
0.0
 40
5.5
  0
ARC
  8
DETAIL
  6
CONTINUOUS
 62
     5
 10
89.357946999999967
 20
-107.0
 30
0.0
 40
5.0
 50
90.0
 51
162.12435200000331
  0
LINE
  8
BASIS
  6
DASHDOT
 62
     6
 10
185.16888700000001
 20
-113.0
 30
0.0
 11
-181.7877169999999
 21
-113.0
 31
0.0
  0
LINE
  8
DETAIL
  6
CONTINUOUS
 62
     5
 10
169.5
 20
-122.9856090000001
 30
0.0
 11
143.780316
 21
-147.0
 31
0.0
  0
ARC
  8
DETAIL
  6
CONTINUOUS
 62
     5
 10
-67.449998999999934
 20
-79.980509999999981
 30
0.0
 40
154.170254
 50
335.96304800000001
 51
350.48519200000112
  0
ARC
  8
DETAIL
  6
CONTINUOUS
 62
     5
 10
76.090914999999995
 20
-144.0
 30
0.0
 40
3.0
 50
155.96304799999999
 51
270.0
  0
POINT
  8
DEFPOINTS
  6
CONTINUOUS
 62
    30
 10
105.0
 20
0.0
 30
0.0
 50
180.0
  0
POINT
  8
DEFPOINTS
  6
CONTINUOUS
 62
    30
 10
169.5
 20
-102.0
 30
0.0
 50
180.0
  0
POINT
  8
DEFPOINTS
  6
CONTINUOUS
 62
    30
 10
-105.0
 20
0.0
 30
0.0
 50
180.0
  0
POINT
  8
DEFPOINTS
  6
CONTINUOUS
 62
    30
 10
-181.7877169999999
 20
-113.0
 30
0.0
 50
180.0
  0
POINT
  8
DEFPOINTS
  6
CONTINUOUS
 62
    30
 10
-111.5
 20
0.0
 30
0.0
 50
180.0
  0
POINT
  8
DEFPOINTS
  6
CONTINUOUS
 62
    30
 10
111.5
 20
0.0
 30
0.0
 50
180.0
  0
POINT
  8
DEFPOINTS
  6
CONTINUOUS
 62
    30
 10
-111.5
 20
0.0
 30
0.0
 50
180.0
  0
POINT
  8
DEFPOINTS
  6
CONTINUOUS
 62
    30
 10
-169.5
 20
-122.9856090000001
 30
0.0
 50
180.0
  0
POINT
  8
DEFPOINTS
  6
CONTINUOUS
 62
    30
 10
169.5
 20
-122.9856090000001
 30
0.0
 50
180.0
  0
POINT
  8
DEFPOINTS
  6
CONTINUOUS
 62
    30
 10
149.5
 20
-122.0
 30
0.0
 50
180.0
  0
POINT
  8
DEFPOINTS
  6
CONTINUOUS
 62
    30
 10
-149.5
 20
-122.0
 30
0.0
 50
180.0
  0
LINE
  8
OUTLINE
  6
CONTINUOUS
 62
     3
 10
111.5
 20
0.0
 30
0.0
 11
-111.5
 21
0.0
 31
0.0
  0
LINE
  8
DETAIL
  6
CONTINUOUS
 62
     5
 10
105.0
 20
-102.0
 30
0.0
 11
105.0
 21
0.0
 31
0.0
  0
LINE
  8
DETAIL
  6
CONTINUOUS
 62
     5
 10
-105.0
 20
-102.0
 30
0.0
 11
-105.0
 21
0.0
 31
0.0
  0
LINE
  8
DETAIL
  6
CONTINUOUS
 62
     5
 10
-169.5
 20
-102.0
 30
0.0
 11
-89.357946999999967
 21
-102.0
 31
0.0
  0
LINE
  8
DETAIL
  6
CONTINUOUS
 62
     5
 10
-76.090914999999995
 20
-147.0
 30
0.0
 11
-143.78031599999991
 21
-147.0
 31
0.0
  0
LINE
  8
NOTE
  6
CONTINUOUS
 62
     4
 10
-149.5
 20
-82.0
 30
0.0
 11
-149.5
 21
-122.0
 31
0.0
  0
LINE
  8
NOTE
  6
CONTINUOUS
 62
     4
 10
-129.5
 20
-102.0
 30
0.0
 11
-169.5
 21
-102.0
 31
0.0
  0
LINE
  8
DETAIL
  6
CONTINUOUS
 62
     5
 10
-169.5
 20
-122.9856090000001
 30
0.0
 11
-143.78031599999991
 21
-147.0
 31
0.0
  0
LINE
  8
DETAIL
  6
CONTINUOUS
 62
     5
 10
-169.5
 20
-122.9856090000001
 30
0.0
 11
-169.5
 21
-102.0
 31
0.0
  0
CIRCLE
  8
FIX
  6
CONTINUOUS
 62
    11
 10
-149.5
 20
-102.0
 30
0.0
 40
5.5
  0
ARC
  8
DETAIL
  6
CONTINUOUS
 62
     5
 10
-76.090914999999995
 20
-144.0
 30
0.0
 40
3.0
 50
270.0
 51
24.036952000000039
  0
ARC
  8
DETAIL
  6
CONTINUOUS
 62
     5
 10
67.449998999999934
 20
-79.980509999999981
 30
0.0
 40
154.170254
 50
189.51480799999891
 51
204.03695200000001
  0
ARC
  8
DETAIL
  6
CONTINUOUS
 62
     5
 10
-89.357946999999967
 20
-107.0
 30
0.0
 40
5.0
 50
17.87564799999668
 51
90.0
  0
POINT
  8
ARRANGE
  6
CONTINUOUS
 62
     1
 10
0.0
 20
0.0
 30
0.0
 50
180.0
  0
POINT
  8
DEFPOINTS
  6
CONTINUOUS
 62
    30
 10
-53.0
 20
-113.0
 30
0.0
 50
180.0
  0
POINT
  8
DEFPOINTS
  6
CONTINUOUS
 62
    30
 10
104.0
 20
-113.0
 30
0.0
 50
180.0
  0
POINT
  8
DEFPOINTS
  6
CONTINUOUS
 62
    30
 10
-96.0
 20
-113.0
 30
0.0
 50
180.0
  0
POINT
  8
DEFPOINTS
  6
CONTINUOUS
 62
    30
 10
96.0
 20
-113.0
 30
0.0
 50
180.0
  0
LINE
  8
DETAIL
  6
CONTINUOUS
 62
     5
 10
111.5
 20
-102.0
 30
0.0
 11
111.5
 21
0.0
 31
0.0
  0
LINE
  8
DETAIL
  6
CONTINUOUS
 62
     5
 10
111.5
 20
-229.0
 30
0.0
 11
111.5
 21
-147.0
 31
0.0
  0
LINE
  8
DETAIL
  6
CONTINUOUS
 62
     5
 10
-111.5
 20
-102.0
 30
0.0
 11
-111.5
 21
0.0
 31
0.0
  0
LINE
  8
DETAIL
  6
CONTINUOUS
 62
     5
 10
-111.5
 20
-229.0
 30
0.0
 11
-111.5
 21
-147.0
 31
0.0
  0
LINE
  8
OUTLINE
  6
CONTINUOUS
 62
     3
 10
111.5
 20
-229.0
 30
0.0
 11
111.5
 21
0.0
 31
0.0
  0
LINE
  8
OUTLINE
  6
CONTINUOUS
 62
     3
 10
-111.5
 20
-229.0
 30
0.0
 11
-111.5
 21
0.0
 31
0.0
  0
TEXT
  8
ETC
  6
CONTINUOUS
 62
    61
 10
468.78569787780879
 20
215.12851168348411
 30
0.0
 40
64.0
  1
BFS-30SYA2_3
 41
0.9
  0
TEXT
  8
ETC
  6
CONTINUOUS
 62
    61
 10
466.577286877809
 20
114.4874656834841
 30
0.0
 40
64.0
  1
産業扇
 41
0.9
  0
TEXT
  8
ETC
  6
CONTINUOUS
 62
    61
 10
606.82156203504724
 20
28.943502418987009
 30
0.0
 40
50.0
  1
BFS-30SYA2
 41
0.9
  0
LINE
  8
SIZE
  6
CONTINUOUS
 62
    30
 10
111.5
 20
20.0
 30
0.0
 11
111.5
 21
192.23928194023981
 31
0.0
  0
LINE
  8
SIZE
  6
CONTINUOUS
 62
    30
 10
-111.5
 20
20.0
 30
0.0
 11
-111.5
 21
192.23928194023981
 31
0.0
  0
LINE
  8
SIZE
  6
CONTINUOUS
 62
    30
 10
99.5
 20
172.23928194023981
 30
0.0
 11
-99.499999999999986
 21
172.23928194023981
 31
0.0
  0
CIRCLE
  8
SIZE
  6
CONTINUOUS
 62
    30
 10
111.5
 20
172.23928194023981
 30
0.0
 40
6.0
  0
LINE
  8
SIZE
  6
CONTINUOUS
 62
    30
 10
111.5
 20
172.23928194023981
 30
0.0
 11
99.5
 21
172.23928194023981
 31
0.0
  0
CIRCLE
  8
SIZE
  6
CONTINUOUS
 62
    30
 10
-111.5
 20
172.23928194023981
 30
0.0
 40
6.0
  0
LINE
  8
SIZE
  6
CONTINUOUS
 62
    30
 10
-111.5
 20
172.23928194023981
 30
0.0
 11
-99.5
 21
172.23928194023981
 31
0.0
  0
TEXT
  8
SIZE
  6
CONTINUOUS
 62
    30
 10
-74.057142857142836
 20
197.23928194023981
 30
0.0
 40
64.0
  1
223
 41
0.9
 72
     1
 11
0.0
 21
197.23928194023981
 31
0.0
  0
POINT
  8
DEFPOINTS
  6
CONTINUOUS
 62
    30
 10
111.5
 20
0.0
 30
0.0
  0
POINT
  8
DEFPOINTS
  6
CONTINUOUS
 62
    30
 10
-111.5
 20
0.0
 30
0.0
  0
POINT
  8
DEFPOINTS
  6
CONTINUOUS
 62
    30
 10
-111.5
 20
172.23928194023981
 30
0.0
  0
LINE
  8
SIZE
  6
CONTINUOUS
 62
    30
 10
-477.61237668724999
 20
-21.895700925544869
 30
0.0
 11
-81.530003131780802
 21
-97.448196589087104
 31
0.0
  0
LINE
  8
SIZE
  6
CONTINUOUS
 62
    30
 10
81.530003131781029
 20
-128.55180341091321
 30
0.0
 11
93.317473464086788
 21
-130.80025691610541
 31
0.0
  0
TEXT
  8
SIZE
  6
CONTINUOUS
 62
    30
 10
-462.3811191445746
 20
0.6496983923511017
 30
0.0
 40
64.0
  1
φ142
 50
349.20059432196422
 41
0.9
 72
     1
 11
-355.41824550056572
 21
-19.753411129050679
 31
0.0
  0
LINE
  8
SIZE
  6
CONTINUOUS
 62
    30
 10
69.742532799475271
 20
-126.30334990572091
 30
0.0
 11
-69.742532799475043
 21
-99.696650094279391
 31
0.0
  0
CIRCLE
  8
SIZE
  6
CONTINUOUS
 62
    30
 10
69.742532799475271
 20
-126.30334990572091
 30
0.0
 40
6.0
  0
LINE
  8
SIZE
  6
CONTINUOUS
 62
    30
 10
69.742532799475271
 20
-126.30334990572091
 30
0.0
 11
81.530003131781029
 21
-128.55180341091321
 31
0.0
  0
CIRCLE
  8
SIZE
  6
CONTINUOUS
 62
    30
 10
-69.742532799475043
 20
-99.696650094279391
 30
0.0
 40
6.0
  0
LINE
  8
SIZE
  6
CONTINUOUS
 62
    30
 10
-69.742532799475043
 20
-99.696650094279391
 30
0.0
 11
-81.530003131780802
 21
-97.448196589087161
 31
0.0
  0
POINT
  8
DEFPOINTS
  6
CONTINUOUS
 62
    30
 10
-69.742532799475043
 20
-99.696650094279391
 30
0.0
  0
POINT
  8
DEFPOINTS
  6
CONTINUOUS
 62
    30
 10
69.742532799475271
 20
-126.30334990572091
 30
0.0
  0
LINE
  8
SIZE
  6
CONTINUOUS
 62
    30
 10
-448.07686962955529
 20
-254.18275572726409
 30
0.0
 11
-87.74731223189076
 21
-140.64795102858369
 31
0.0
  0
LINE
  8
SIZE
  6
CONTINUOUS
 62
    30
 10
87.747312231890874
 20
-85.352048971416309
 30
0.0
 11
99.19261382735499
 21
-81.745794489427112
 31
0.0
  0
TEXT
  8
SIZE
  6
CONTINUOUS
 62
    30
 10
-445.3490799442344
 20
-227.11163827401981
 30
0.0
 40
64.0
  1
φ160
 50
17.48891069474643
 41
0.9
 72
     1
 11
-341.49114318082309
 21
-194.38745474602641
 31
0.0
  0
LINE
  8
SIZE
  6
CONTINUOUS
 62
    30
 10
76.302010636426758
 20
-88.958303453405506
 30
0.0
 11
-76.302010636426701
 21
-137.04169654659449
 31
0.0
  0
CIRCLE
  8
SIZE
  6
CONTINUOUS
 62
    30
 10
76.302010636426758
 20
-88.958303453405506
 30
0.0
 40
6.0
  0
LINE
  8
SIZE
  6
CONTINUOUS
 62
    30
 10
76.302010636426758
 20
-88.958303453405506
 30
0.0
 11
87.747312231890874
 21
-85.352048971416309
 31
0.0
  0
CIRCLE
  8
SIZE
  6
CONTINUOUS
 62
    30
 10
-76.302010636426701
 20
-137.04169654659449
 30
0.0
 40
6.0
  0
LINE
  8
SIZE
  6
CONTINUOUS
 62
    30
 10
-76.302010636426701
 20
-137.04169654659449
 30
0.0
 11
-87.74731223189076
 21
-140.64795102858369
 31
0.0
  0
POINT
  8
DEFPOINTS
  6
CONTINUOUS
 62
    30
 10
-76.302010636426701
 20
-137.04169654659449
 30
0.0
  0
POINT
  8
DEFPOINTS
  6
CONTINUOUS
 62
    30
 10
76.302010636426758
 20
-88.958303453405506
 30
0.0
  0
LINE
  8
SIZE
  6
CONTINUOUS
 62
    30
 10
205.37344200000021
 20
0.0
 30
0.0
 11
281.71131502422668
 21
0.0
 31
0.0
  0
LINE
  8
SIZE
  6
CONTINUOUS
 62
    30
 10
205.16888700000001
 20
-113.0000000000001
 30
0.0
 11
281.71131502422668
 21
-113.0
 31
0.0
  0
LINE
  8
SIZE
  6
CONTINUOUS
 62
    30
 10
261.71131502422668
 20
-101.0
 30
0.0
 11
261.71131502422668
 21
-12.0
 31
0.0
  0
LINE
  8
SIZE
  6
CONTINUOUS
 62
    30
 10
261.71131502422668
 20
0.0
 30
0.0
 11
261.71131502422668
 21
208.6571428571431
 31
0.0
  0
CIRCLE
  8
SIZE
  6
CONTINUOUS
 62
    30
 10
261.71131502422668
 20
-113.0
 30
0.0
 40
6.0
  0
LINE
  8
SIZE
  6
CONTINUOUS
 62
    30
 10
261.71131502422668
 20
-113.0
 30
0.0
 11
261.71131502422668
 21
-101.0
 31
0.0
  0
CIRCLE
  8
SIZE
  6
CONTINUOUS
 62
    30
 10
261.71131502422668
 20
0.0
 30
0.0
 40
6.0
  0
LINE
  8
SIZE
  6
CONTINUOUS
 62
    30
 10
261.71131502422668
 20
0.0
 30
0.0
 11
261.71131502422668
 21
-12.0
 31
0.0
  0
TEXT
  8
SIZE
  6
CONTINUOUS
 62
    30
 10
236.71131502422671
 20
57.485714285714387
 30
0.0
 40
64.0
  1
113
 50
90.0
 41
0.9
 72
     1
 11
236.71131502422671
 21
120.5714285714287
 31
0.0
  0
POINT
  8
DEFPOINTS
  6
CONTINUOUS
 62
    30
 10
185.3734420000001
 20
0.0
 30
0.0
  0
POINT
  8
DEFPOINTS
  6
CONTINUOUS
 62
    30
 10
185.16888700000001
 20
-113.0000000000001
 30
0.0
  0
POINT
  8
DEFPOINTS
  6
CONTINUOUS
 62
    30
 10
261.71131502422668
 20
-113.0
 30
0.0
  0
LINE
  8
DETAIL
  6
CONTINUOUS
 62
     5
 10
113.9674120967009
 20
-281.73997042859992
 30
0.0
 11
115.0081757145006
 21
-280.78246790019989
 31
0.0
  0
LINE
  8
DETAIL
  6
CONTINUOUS
 62
     5
 10
115.9886232219004
 20
-282.00891461100002
 30
0.0
 11
106.4847639535008
 21
-284.79256873840001
 31
0.0
  0
LINE
  8
DETAIL
  6
CONTINUOUS
 62
     5
 10
122.8272246935994
 20
-256.01011089640002
 30
0.0
 11
122.7907657183996
 21
-256.10993807680012
 31
0.0
  0
LINE
  8
DETAIL
  6
CONTINUOUS
 62
     5
 10
122.7907657183996
 20
-256.10993807680012
 30
0.0
 11
122.75437903119931
 21
-256.20729263499987
 31
0.0
  0
LINE
  8
DETAIL
  6
CONTINUOUS
 62
     5
 10
122.75437903119931
 20
-256.20729263499987
 30
0.0
 11
122.71829710759989
 21
-256.30090226200008
 31
0.0
  0
LINE
  8
DETAIL
  6
CONTINUOUS
 62
     5
 10
122.71829710759989
 20
-256.30090226200008
 30
0.0
 11
122.68238838399979
 21
-256.39049651880009
 31
0.0
  0
LINE
  8
DETAIL
  6
CONTINUOUS
 62
     5
 10
122.68238838399979
 20
-256.39049651880009
 30
0.0
 11
122.646611910799
 21
-256.47556818980001
 31
0.0
  0
LINE
  8
DETAIL
  6
CONTINUOUS
 62
     5
 10
122.646611910799
 20
-256.47556818980001
 30
0.0
 11
122.6109266285994
 21
-256.55561318519989
 31
0.0
  0
LINE
  8
DETAIL
  6
CONTINUOUS
 62
     5
 10
122.6109266285994
 20
-256.55561318519989
 30
0.0
 11
122.5752026499995
 21
-256.63030340499989
 31
0.0
  0
LINE
  8
DETAIL
  6
CONTINUOUS
 62
     5
 10
122.5752026499995
 20
-256.63030340499989
 30
0.0
 11
122.5396659443995
 21
-256.69858882900007
 31
0.0
  0
LINE
  8
DETAIL
  6
CONTINUOUS
 62
     5
 10
122.5396659443995
 20
-256.69858882900007
 30
0.0
 11
122.5045367449993
 21
-256.75961558519998
 31
0.0
  0
LINE
  8
DETAIL
  6
CONTINUOUS
 62
     5
 10
122.5045367449993
 20
-256.75961558519998
 30
0.0
 11
122.46967922479961
 21
-256.8132588005999
 31
0.0
  0
LINE
  8
DETAIL
  6
CONTINUOUS
 62
     5
 10
122.46967922479961
 20
-256.8132588005999
 30
0.0
 11
122.43504618739919
 21
-256.85922440500008
 31
0.0
  0
LINE
  8
DETAIL
  6
CONTINUOUS
 62
     5
 10
122.43504618739919
 20
-256.85922440500008
 30
0.0
 11
122.4005902969993
 21
-256.89722355260011
 31
0.0
  0
LINE
  8
DETAIL
  6
CONTINUOUS
 62
     5
 10
122.4005902969993
 20
-256.89722355260011
 30
0.0
 11
122.3661785945997
 21
-256.9270334723999
 31
0.0
  0
LINE
  8
DETAIL
  6
CONTINUOUS
 62
     5
 10
122.3661785945997
 20
-256.9270334723999
 30
0.0
 11
122.3320202951991
 21
-256.94817754780001
 31
0.0
  0
LINE
  8
DETAIL
  6
CONTINUOUS
 62
     5
 10
122.3320202951991
 20
-256.94817754780001
 30
0.0
 11
122.2982887691996
 21
-256.96045114100002
 31
0.0
  0
LINE
  8
DETAIL
  6
CONTINUOUS
 62
     5
 10
122.2982887691996
 20
-256.96045114100002
 30
0.0
 11
122.2649272703993
 21
-256.96388676219999
 31
0.0
  0
LINE
  8
DETAIL
  6
CONTINUOUS
 62
     5
 10
122.8997847057999
 20
-255.80743168559999
 30
0.0
 11
122.8272246935994
 21
-256.01011089640002
 31
0.0
  0
LINE
  8
DETAIL
  6
CONTINUOUS
 62
     5
 10
115.0081757145006
 20
-280.78246790019989
 30
0.0
 11
116.3880152357013
 21
-261.6751300123999
 31
0.0
  0
LINE
  8
DETAIL
  6
CONTINUOUS
 62
     5
 10
116.3880152357013
 20
-261.6751300123999
 30
0.0
 11
116.4277772889007
 21
-261.12452468700008
 31
0.0
  0
LINE
  8
DETAIL
  6
CONTINUOUS
 62
     5
 10
116.6046569389008
 20
-256.87941308979998
 30
0.0
 11
116.6067886313011
 21
-256.82825247279987
 31
0.0
  0
LINE
  8
DETAIL
  6
CONTINUOUS
 62
     5
 10
116.4277772889007
 20
-261.12452468700008
 30
0.0
 11
116.6046569389008
 21
-256.87941308979998
 31
0.0
  0
LINE
  8
DETAIL
  6
CONTINUOUS
 62
     5
 10
112.71849575530069
 20
-281.68793224759997
 30
0.0
 11
113.7592593729003
 21
-256.70960542040012
 31
0.0
  0
LINE
  8
DETAIL
  6
CONTINUOUS
 62
     5
 10
117.6190433303007
 20
-261.7111249858001
 30
0.0
 11
117.0663501251009
 21
-280.61323261019987
 31
0.0
  0
LINE
  8
DETAIL
  6
CONTINUOUS
 62
     5
 10
122.89999999999959
 20
-255.78194327160011
 30
0.0
 11
122.8997847057999
 21
-255.80743168559999
 31
0.0
  0
LINE
  8
DETAIL
  6
CONTINUOUS
 62
     5
 10
124.0999999999995
 20
-242.0
 30
0.0
 11
124.0999999999995
 21
-237.0
 31
0.0
  0
LINE
  8
DETAIL
  6
CONTINUOUS
 62
     5
 10
123.5
 20
-255.7643994120001
 30
0.0
 11
123.5
 21
-237.0
 31
0.0
  0
LINE
  8
DETAIL
  6
CONTINUOUS
 62
     5
 10
122.89999999999959
 20
-255.78194327160011
 30
0.0
 11
122.89999999999959
 21
-232.0
 31
0.0
  0
LINE
  8
DETAIL
  6
CONTINUOUS
 62
     5
 10
117.89999999999959
 20
-228.40000000000009
 30
0.0
 11
117.89999999999959
 21
-231.0
 31
0.0
  0
LINE
  8
DETAIL
  6
CONTINUOUS
 62
     5
 10
91.090990257799604
 20
-234.4090097424
 30
0.0
 11
87.909009694599263
 21
-237.59099030540011
 31
0.0
  0
LINE
  8
DETAIL
  6
CONTINUOUS
 62
     5
 10
96.732366585700959
 20
-281.0218435324
 30
0.0
 11
97.773130203500671
 21
-256.043516705
 31
0.0
  0
LINE
  8
DETAIL
  6
CONTINUOUS
 62
     5
 10
94.746589602900542
 20
-260.22114186699991
 30
0.0
 11
94.912256664901008
 21
-256.24513238000009
 31
0.0
  0
LINE
  8
DETAIL
  6
CONTINUOUS
 62
     5
 10
94.912256664901008
 20
-256.24513238000009
 30
0.0
 11
94.925600945100825
 21
-255.92486965259991
 31
0.0
  0
LINE
  8
DETAIL
  6
CONTINUOUS
 62
     5
 10
93.629296323300707
 20
-261.00967039519992
 30
0.0
 11
93.076603118100877
 21
-279.91177801959998
 31
0.0
  0
LINE
  8
DETAIL
  6
CONTINUOUS
 62
     5
 10
94.525947716100632
 20
-279.92904173359989
 30
0.0
 11
94.737398802901112
 21
-261.04207105239988
 31
0.0
  0
LINE
  8
DETAIL
  6
CONTINUOUS
 62
     5
 10
94.737398802901112
 20
-261.04207105239988
 30
0.0
 11
94.746589602900542
 21
-260.22114186699991
 31
0.0
  0
LINE
  8
DETAIL
  6
CONTINUOUS
 62
     5
 10
113.9674120967009
 20
-281.73997042859992
 30
0.0
 11
95.48345024450083
 21
-280.96980535140011
 31
0.0
  0
LINE
  8
DETAIL
  6
CONTINUOUS
 62
     5
 10
94.525947716100632
 20
-279.92904173359989
 30
0.0
 11
115.0081757145006
 21
-280.78246790019989
 31
0.0
  0
LINE
  8
DETAIL
  6
CONTINUOUS
 62
     5
 10
103.3959141553003
 20
-284.70225149280009
 30
0.0
 11
106.4847639535008
 21
-284.79256873840001
 31
0.0
  0
LINE
  8
DETAIL
  6
CONTINUOUS
 62
     5
 10
115.9886232219004
 20
-282.00891461100002
 30
0.0
 11
94.070939651300989
 21
-281.36804667060011
 31
0.0
  0
LINE
  8
DETAIL
  6
CONTINUOUS
 62
     5
 10
117.0663501251009
 20
-280.61323261019987
 30
0.0
 11
93.076603118100877
 21
-279.91177801959998
 31
0.0
  0
LINE
  8
DETAIL
  6
CONTINUOUS
 62
     5
 10
94.746589602900542
 20
-260.22114186699991
 30
0.0
 11
116.4277772889007
 21
-261.12452468700008
 31
0.0
  0
LINE
  8
DETAIL
  6
CONTINUOUS
 62
     5
 10
93.629296323300707
 20
-261.00967039519992
 30
0.0
 11
117.6190433303007
 21
-261.7111249858001
 31
0.0
  0
LINE
  8
DETAIL
  6
CONTINUOUS
 62
     5
 10
122.2649272703993
 20
-256.96388676219999
 30
0.0
 11
-115.3350727296001
 21
-247.03406220080001
 31
0.0
  0
LINE
  8
DETAIL
  6
CONTINUOUS
 62
     5
 10
123.5
 20
-255.7643994120001
 30
0.0
 11
122.89999999999959
 21
-255.7643994120001
 31
0.0
  0
LINE
  8
DETAIL
  6
CONTINUOUS
 62
     5
 10
123.4983061215989
 20
-255.82813667720009
 30
0.0
 11
122.89915306079909
 21
-255.79626804460011
 31
0.0
  0
LINE
  8
DETAIL
  6
CONTINUOUS
 62
     5
 10
116.6067886313011
 20
-256.82825247279987
 30
0.0
 11
94.925600945100825
 21
-255.92486965259991
 31
0.0
  0
LINE
  8
DETAIL
  6
CONTINUOUS
 62
     5
 10
122.89999999999959
 20
-255.78194327160011
 30
0.0
 11
-115.9000000000005
 21
-245.81703099079999
 31
0.0
  0
LINE
  8
DETAIL
  6
CONTINUOUS
 62
     5
 10
-116.5
 20
-245.83457485060009
 30
0.0
 11
-115.9000000000005
 21
-245.83457485060009
 31
0.0
  0
LINE
  8
DETAIL
  6
CONTINUOUS
 62
     5
 10
-116.5
 20
-245.7994871312001
 30
0.0
 11
-115.9000000000005
 21
-245.7994871312001
 31
0.0
  0
LINE
  8
DETAIL
  6
CONTINUOUS
 62
     5
 10
123.5
 20
-242.0
 30
0.0
 11
124.0999999999995
 21
-242.0
 31
0.0
  0
LINE
  8
DETAIL
  6
CONTINUOUS
 62
     5
 10
-116.5
 20
-242.0
 30
0.0
 11
-117.10000000000041
 21
-242.0
 31
0.0
  0
LINE
  8
DETAIL
  6
CONTINUOUS
 62
     5
 10
123.5
 20
-239.0
 30
0.0
 11
124.0999999999995
 21
-239.0
 31
0.0
  0
LINE
  8
DETAIL
  6
CONTINUOUS
 62
     5
 10
-116.5
 20
-239.0
 30
0.0
 11
-117.10000000000041
 21
-239.0
 31
0.0
  0
LINE
  8
DETAIL
  6
CONTINUOUS
 62
     5
 10
-116.5
 20
-237.0
 30
0.0
 11
-115.9000000000005
 21
-237.0
 31
0.0
  0
LINE
  8
DETAIL
  6
CONTINUOUS
 62
     5
 10
-117.10000000000041
 20
-237.0
 30
0.0
 11
-116.5
 21
-237.0
 31
0.0
  0
LINE
  8
DETAIL
  6
CONTINUOUS
 62
     5
 10
123.5
 20
-237.0
 30
0.0
 11
122.89999999999959
 21
-237.0
 31
0.0
  0
LINE
  8
DETAIL
  6
CONTINUOUS
 62
     5
 10
124.0999999999995
 20
-237.0
 30
0.0
 11
123.5
 21
-237.0
 31
0.0
  0
LINE
  8
DETAIL
  6
CONTINUOUS
 62
     5
 10
114.89999999999959
 20
-234.0
 30
0.0
 11
94.623475382999459
 21
-234.0
 31
0.0
  0
LINE
  8
DETAIL
  6
CONTINUOUS
 62
     5
 10
84.376524616999632
 20
-234.0
 30
0.0
 11
54.623475382999459
 21
-234.0
 31
0.0
  0
LINE
  8
DETAIL
  6
CONTINUOUS
 62
     5
 10
44.376524616999632
 20
-234.0
 30
0.0
 11
-25.376524617000541
 21
-234.0
 31
0.0
  0
LINE
  8
DETAIL
  6
CONTINUOUS
 62
     5
 10
-35.623475383000368
 20
-234.0
 30
0.0
 11
-107.9000000000005
 21
-234.0
 31
0.0
  0
LINE
  8
DETAIL
  6
CONTINUOUS
 62
     5
 10
-116.4996962246005
 20
-245.86157427300009
 30
0.0
 11
-115.8998481122007
 21
-245.8480745618001
 31
0.0
  0
LINE
  8
DETAIL
  6
CONTINUOUS
 62
     5
 10
51.090990257799596
 20
-234.4090097424
 30
0.0
 11
47.909009694599263
 21
-237.59099030540011
 31
0.0
  0
LINE
  8
DETAIL
  6
CONTINUOUS
 62
     5
 10
119.89999999999959
 20
-229.0
 30
0.0
 11
117.89999999999959
 21
-229.0
 31
0.0
  0
LINE
  8
DETAIL
  6
CONTINUOUS
 62
     5
 10
117.89999999999959
 20
-229.0
 30
0.0
 11
-110.4000000000005
 21
-229.0
 31
0.0
  0
LINE
  8
DETAIL
  6
CONTINUOUS
 62
     5
 10
-110.4000000000005
 20
-229.0
 30
0.0
 11
-112.9000000000005
 21
-229.0
 31
0.0
  0
LINE
  8
DETAIL
  6
CONTINUOUS
 62
     5
 10
-28.9090097422004
 20
-234.4090097424
 30
0.0
 11
-32.090990305400737
 21
-237.59099030540011
 31
0.0
  0
LINE
  8
DETAIL
  6
CONTINUOUS
 62
     5
 10
87.909009742399576
 20
-234.4090097424
 30
0.0
 11
91.090990305399828
 21
-237.59099030540011
 31
0.0
  0
LINE
  8
DETAIL
  6
CONTINUOUS
 62
     5
 10
95.48345024450083
 20
-280.96980535140011
 30
0.0
 11
94.525947716100632
 21
-279.92904173359989
 31
0.0
  0
LINE
  8
DETAIL
  6
CONTINUOUS
 62
     5
 10
47.909009742399583
 20
-234.4090097424
 30
0.0
 11
51.090990305399828
 21
-237.59099030540011
 31
0.0
  0
LINE
  8
DETAIL
  6
CONTINUOUS
 62
     5
 10
-32.090990257600417
 20
-234.4090097424
 30
0.0
 11
-28.909009694600169
 21
-237.59099030540011
 31
0.0
  0
LINE
  8
DETAIL
  6
CONTINUOUS
 62
     5
 10
94.070939651300989
 20
-281.36804667060011
 30
0.0
 11
103.3959141553003
 21
-284.70225149280009
 31
0.0
  0
LINE
  8
DETAIL
  6
CONTINUOUS
 62
     5
 10
-110.4000000000005
 20
-228.40000000000009
 30
0.0
 11
-110.9000000000005
 21
-231.0
 31
0.0
  0
LINE
  8
DETAIL
  6
CONTINUOUS
 62
     5
 10
-115.9000000000005
 20
-245.81703099079999
 30
0.0
 11
-115.9005451836001
 21
-245.8816394831999
 31
0.0
  0
LINE
  8
DETAIL
  6
CONTINUOUS
 62
     5
 10
-115.9000000000005
 20
-232.0
 30
0.0
 11
-115.9000000000005
 21
-245.81703099079999
 31
0.0
  0
LINE
  8
DETAIL
  6
CONTINUOUS
 62
     5
 10
-116.5
 20
-237.0
 30
0.0
 11
-116.5
 21
-245.83457485060009
 31
0.0
  0
LINE
  8
DETAIL
  6
CONTINUOUS
 62
     5
 10
-117.10000000000041
 20
-237.0
 30
0.0
 11
-117.10000000000041
 21
-242.0
 31
0.0
  0
LINE
  8
DETAIL
  6
CONTINUOUS
 62
     5
 10
-115.9005451836001
 20
-245.8816394831999
 30
0.0
 11
-115.8703406610002
 21
-245.9828263833999
 31
0.0
  0
LINE
  8
DETAIL
  6
CONTINUOUS
 62
     5
 10
-115.8703406610002
 20
-245.9828263833999
 30
0.0
 11
-115.8308467848001
 21
-246.11284376160009
 31
0.0
  0
LINE
  8
DETAIL
  6
CONTINUOUS
 62
     5
 10
-115.8308467848001
 20
-246.11284376160009
 30
0.0
 11
-115.8094692890008
 21
-246.18210722899991
 31
0.0
  0
LINE
  8
DETAIL
  6
CONTINUOUS
 62
     5
 10
-115.8094692890008
 20
-246.18210722899991
 30
0.0
 11
-115.7788575492004
 21
-246.27845201200009
 31
0.0
  0
LINE
  8
DETAIL
  6
CONTINUOUS
 62
     5
 10
-115.7788575492004
 20
-246.27845201200009
 30
0.0
 11
-115.7483211624003
 21
-246.37101442420001
 31
0.0
  0
LINE
  8
DETAIL
  6
CONTINUOUS
 62
     5
 10
-115.7483211624003
 20
-246.37101442420001
 30
0.0
 11
-115.71772019940001
 21
-246.45955153959989
 31
0.0
  0
LINE
  8
DETAIL
  6
CONTINUOUS
 62
     5
 10
-115.71772019940001
 20
-246.45955153959989
 30
0.0
 11
-115.6869878614007
 21
-246.54359612600001
 31
0.0
  0
LINE
  8
DETAIL
  6
CONTINUOUS
 62
     5
 10
-115.6869878614007
 20
-246.54359612600001
 30
0.0
 11
-115.6560574562009
 21
-246.62268400359989
 31
0.0
  0
LINE
  8
DETAIL
  6
CONTINUOUS
 62
     5
 10
-115.6560574562009
 20
-246.62268400359989
 30
0.0
 11
-115.62478747040041
 21
-246.69651782080001
 31
0.0
  0
LINE
  8
DETAIL
  6
CONTINUOUS
 62
     5
 10
-115.62478747040041
 20
-246.69651782080001
 30
0.0
 11
-115.5933352434004
 21
-246.76411875379981
 31
0.0
  0
LINE
  8
DETAIL
  6
CONTINUOUS
 62
     5
 10
-115.5933352434004
 20
-246.76411875379981
 30
0.0
 11
-115.5618634572002
 21
-246.82469050840001
 31
0.0
  0
LINE
  8
DETAIL
  6
CONTINUOUS
 62
     5
 10
-115.5618634572002
 20
-246.82469050840001
 30
0.0
 11
-115.5302361252006
 21
-246.8781252659999
 31
0.0
  0
LINE
  8
DETAIL
  6
CONTINUOUS
 62
     5
 10
-115.5302361252006
 20
-246.8781252659999
 30
0.0
 11
-115.4983922804004
 21
-246.92415505160011
 31
0.0
  0
LINE
  8
DETAIL
  6
CONTINUOUS
 62
     5
 10
-115.4983922804004
 20
-246.92415505160011
 30
0.0
 11
-115.46627109160001
 21
-246.96251686520009
 31
0.0
  0
LINE
  8
DETAIL
  6
CONTINUOUS
 62
     5
 10
-115.46627109160001
 20
-246.96251686520009
 30
0.0
 11
-115.4337339358008
 21
-246.9930131128001
 31
0.0
  0
LINE
  8
DETAIL
  6
CONTINUOUS
 62
     5
 10
-115.4337339358008
 20
-246.9930131128001
 30
0.0
 11
-115.4009536952008
 21
-247.01519581339991
 31
0.0
  0
LINE
  8
DETAIL
  6
CONTINUOUS
 62
     5
 10
-115.4009536952008
 20
-247.01519581339991
 30
0.0
 11
-115.3680840218003
 21
-247.0288680030001
 31
0.0
  0
LINE
  8
DETAIL
  6
CONTINUOUS
 62
     5
 10
-115.3680840218003
 20
-247.0288680030001
 30
0.0
 11
-115.3350727296001
 21
-247.03406220080001
 31
0.0
  0
ARC
  8
DETAIL
  6
CONTINUOUS
 62
     5
 10
89.5
 20
-236.0
 30
0.0
 40
5.5
 50
21.323686263491599
 51
158.6763137365084
  0
ARC
  8
DETAIL
  6
CONTINUOUS
 62
     5
 10
105.0793230043008
 20
-279.99415902920009
 30
0.0
 40
5.0
 50
250.32516200999069
 51
286.32516201000527
  0
CIRCLE
  8
DETAIL
  6
CONTINUOUS
 62
     5
 10
89.5
 20
-236.0
 30
0.0
 40
4.7000000000000002
  0
ARC
  8
DETAIL
  6
CONTINUOUS
 62
     5
 10
114.89999999999959
 20
-231.0
 30
0.0
 40
3.0
 50
270.0
 51
0.0
  0
ARC
  8
DETAIL
  6
CONTINUOUS
 62
     5
 10
119.89999999999959
 20
-232.0
 30
0.0
 40
3.0
 50
0.0
 51
90.0
  0
ARC
  8
DETAIL
  6
CONTINUOUS
 62
     5
 10
94.575962306101076
 20
-279.95561893140012
 30
0.0
 40
1.5
 50
178.325162009997
 51
250.32516201040599
  0
ARC
  8
DETAIL
  6
CONTINUOUS
 62
     5
 10
115.5669909371007
 20
-280.56939169819998
 30
0.0
 40
1.5
 50
286.32516200959822
 51
358.32516201000999
  0
ARC
  8
DETAIL
  6
CONTINUOUS
 62
     5
 10
122.2999999999993
 20
-255.7643994120001
 30
0.0
 40
1.2
 50
268.32516200948868
 51
0.0
  0
ARC
  8
DETAIL
  6
CONTINUOUS
 62
     5
 10
122.2999999999993
 20
-255.7643994120001
 30
0.0
 40
0.6
 50
324.98650695880087
 51
350.6331628162996
  0
ARC
  8
DETAIL
  6
CONTINUOUS
 62
     5
 10
123.5
 20
-237.0
 30
0.0
 40
0.6
 50
0.0
 51
180.0
  0
ARC
  8
DETAIL
  6
CONTINUOUS
 62
     5
 10
49.5
 20
-236.0
 30
0.0
 40
5.5
 50
21.323686263491599
 51
158.6763137365084
  0
CIRCLE
  8
DETAIL
  6
CONTINUOUS
 62
     5
 10
49.5
 20
-236.0
 30
0.0
 40
4.7000000000000002
  0
ARC
  8
DETAIL
  6
CONTINUOUS
 62
     5
 10
-30.5
 20
-236.0
 30
0.0
 40
5.5
 50
21.323686263491599
 51
158.6763137365084
  0
CIRCLE
  8
DETAIL
  6
CONTINUOUS
 62
     5
 10
-30.5
 20
-236.0
 30
0.0
 40
4.7000000000000002
  0
ARC
  8
DETAIL
  6
CONTINUOUS
 62
     5
 10
-107.9000000000005
 20
-231.0
 30
0.0
 40
3.0
 50
180.0
 51
270.0
  0
ARC
  8
DETAIL
  6
CONTINUOUS
 62
     5
 10
-112.9000000000005
 20
-232.0
 30
0.0
 40
3.0
 50
90.0
 51
180.0
  0
ARC
  8
DETAIL
  6
CONTINUOUS
 62
     5
 10
-115.3000000000002
 20
-245.83457485060009
 30
0.0
 40
1.2
 50
180.0
 51
268.32516200948868
  0
ARC
  8
DETAIL
  6
CONTINUOUS
 62
     5
 10
-115.3000000000002
 20
-245.83457485060009
 30
0.0
 40
0.6
 50
187.49808503460099
 51
199.94731845340121
  0
ARC
  8
DETAIL
  6
CONTINUOUS
 62
     5
 10
-116.5
 20
-237.0
 30
0.0
 40
0.6
 50
0.0
 51
180.0
  0
LINE
  8
OUTLINE
  6
CONTINUOUS
 62
     3
 10
124.0999999999995
 20
-242.0
 30
0.0
 11
124.0999999999995
 21
-237.0
 31
0.0
  0
LINE
  8
OUTLINE
  6
CONTINUOUS
 62
     3
 10
123.5
 20
-255.7643994120001
 30
0.0
 11
123.5
 21
-237.0
 31
0.0
  0
LINE
  8
OUTLINE
  6
CONTINUOUS
 62
     3
 10
122.89999999999959
 20
-255.78194327160011
 30
0.0
 11
122.89999999999959
 21
-232.0
 31
0.0
  0
LINE
  8
OUTLINE
  6
CONTINUOUS
 62
     3
 10
117.89999999999959
 20
-228.40000000000009
 30
0.0
 11
117.89999999999959
 21
-231.0
 31
0.0
  0
LINE
  8
OUTLINE
  6
CONTINUOUS
 62
     3
 10
122.2649272703993
 20
-256.96388676219999
 30
0.0
 11
-115.3350727296001
 21
-247.03406220080001
 31
0.0
  0
LINE
  8
OUTLINE
  6
CONTINUOUS
 62
     3
 10
123.5
 20
-242.0
 30
0.0
 11
124.0999999999995
 21
-242.0
 31
0.0
  0
LINE
  8
OUTLINE
  6
CONTINUOUS
 62
     3
 10
-116.5
 20
-242.0
 30
0.0
 11
-117.10000000000041
 21
-242.0
 31
0.0
  0
LINE
  8
OUTLINE
  6
CONTINUOUS
 62
     3
 10
119.89999999999959
 20
-229.0
 30
0.0
 11
117.89999999999959
 21
-229.0
 31
0.0
  0
LINE
  8
OUTLINE
  6
CONTINUOUS
 62
     3
 10
-110.4000000000005
 20
-229.0
 30
0.0
 11
-112.9000000000005
 21
-229.0
 31
0.0
  0
LINE
  8
OUTLINE
  6
CONTINUOUS
 62
     3
 10
-110.4000000000005
 20
-228.40000000000009
 30
0.0
 11
-110.4000000000005
 21
-229.0
 31
0.0
  0
LINE
  8
OUTLINE
  6
CONTINUOUS
 62
     3
 10
-115.9000000000005
 20
-232.0
 30
0.0
 11
-115.9000000000005
 21
-245.81703099079999
 31
0.0
  0
LINE
  8
OUTLINE
  6
CONTINUOUS
 62
     3
 10
-116.5
 20
-237.0
 30
0.0
 11
-116.5
 21
-245.83457485060009
 31
0.0
  0
LINE
  8
OUTLINE
  6
CONTINUOUS
 62
     3
 10
-117.10000000000041
 20
-237.0
 30
0.0
 11
-117.10000000000041
 21
-242.0
 31
0.0
  0
ARC
  8
OUTLINE
  6
CONTINUOUS
 62
     3
 10
119.89999999999959
 20
-232.0
 30
0.0
 40
3.0
 50
0.0
 51
90.0
  0
ARC
  8
OUTLINE
  6
CONTINUOUS
 62
     3
 10
122.2999999999993
 20
-255.7643994120001
 30
0.0
 40
1.2
 50
268.32516200948868
 51
0.0
  0
ARC
  8
OUTLINE
  6
CONTINUOUS
 62
     3
 10
123.5
 20
-237.0
 30
0.0
 40
0.6
 50
0.0
 51
180.0
  0
ARC
  8
OUTLINE
  6
CONTINUOUS
 62
     3
 10
-112.9000000000005
 20
-232.0
 30
0.0
 40
3.0
 50
90.0
 51
180.0
  0
ARC
  8
OUTLINE
  6
CONTINUOUS
 62
     3
 10
-115.3000000000002
 20
-245.83457485060009
 30
0.0
 40
1.2
 50
180.0
 51
268.32516200948868
  0
ARC
  8
OUTLINE
  6
CONTINUOUS
 62
     3
 10
-116.5
 20
-237.0
 30
0.0
 40
0.6
 50
0.0
 51
180.0
  0
LINE
  8
SIZE
  6
CONTINUOUS
 62
    30
 10
142.36617859459969
 20
-256.9638867623471
 30
0.0
 11
451.86781056006453
 21
-256.96388676234687
 31
0.0
  0
LINE
  8
SIZE
  6
CONTINUOUS
 62
    30
 10
138.7598939533992
 20
-282.00891461100002
 30
0.0
 11
451.86781056006453
 21
-282.00891461100002
 31
0.0
  0
LINE
  8
SIZE
  6
CONTINUOUS
 62
    30
 10
431.86781056006453
 20
-244.9638867623471
 30
0.0
 11
431.86781056006453
 21
-232.9638867623471
 31
0.0
  0
LINE
  8
SIZE
  6
CONTINUOUS
 62
    30
 10
431.86781056006453
 20
-294.00891461100002
 30
0.0
 11
431.86781056006453
 21
-449.266057468143
 31
0.0
  0
LINE
  8
SIZE
  6
CONTINUOUS
 62
    30
 10
431.86781056006453
 20
-256.96388676234687
 30
0.0
 11
431.86781056006453
 21
-282.00891461100002
 31
0.0
  0
CIRCLE
  8
SIZE
  6
CONTINUOUS
 62
    30
 10
431.86781056006453
 20
-256.96388676234687
 30
0.0
 40
6.0
  0
LINE
  8
SIZE
  6
CONTINUOUS
 62
    30
 10
431.86781056006453
 20
-256.96388676234687
 30
0.0
 11
431.86781056006453
 21
-244.96388676234699
 31
0.0
  0
CIRCLE
  8
SIZE
  6
CONTINUOUS
 62
    30
 10
431.86781056006453
 20
-282.00891461100002
 30
0.0
 40
6.0
  0
LINE
  8
SIZE
  6
CONTINUOUS
 62
    30
 10
431.86781056006453
 20
-282.00891461100002
 30
0.0
 11
431.86781056006453
 21
-294.00891461100002
 31
0.0
  0
TEXT
  8
SIZE
  6
CONTINUOUS
 62
    30
 10
406.8678105600643
 20
-424.26605746814312
 30
0.0
 40
64.0
  1
25
 50
90.0
 41
0.9
 72
     1
 11
406.8678105600643
 21
-377.63748603957163
 31
0.0
  0
POINT
  8
DEFPOINTS
  6
CONTINUOUS
 62
    30
 10
122.3661785945997
 20
-256.96388676234722
 30
0.0
  0
POINT
  8
DEFPOINTS
  6
CONTINUOUS
 62
    30
 10
118.7598939533992
 20
-282.00891461100002
 30
0.0
  0
POINT
  8
DEFPOINTS
  6
CONTINUOUS
 62
    30
 10
431.86781056006453
 20
-282.00891461100002
 30
0.0
  0
LINE
  8
SIZE
  6
CONTINUOUS
 62
    30
 10
123.5
 20
-265.7643994120001
 30
0.0
 11
123.5
 21
-472.89562540477033
 31
0.0
  0
LINE
  8
SIZE
  6
CONTINUOUS
 62
    30
 10
-116.5
 20
-255.7994871312001
 30
0.0
 11
-116.5
 21
-472.89562540477033
 31
0.0
  0
LINE
  8
SIZE
  6
CONTINUOUS
 62
    30
 10
111.5
 20
-452.89562540477033
 30
0.0
 11
-104.5
 21
-452.89562540477033
 31
0.0
  0
CIRCLE
  8
SIZE
  6
CONTINUOUS
 62
    30
 10
123.5
 20
-452.89562540477033
 30
0.0
 40
6.0
  0
LINE
  8
SIZE
  6
CONTINUOUS
 62
    30
 10
123.5
 20
-452.89562540477033
 30
0.0
 11
111.5
 21
-452.89562540477033
 31
0.0
  0
CIRCLE
  8
SIZE
  6
CONTINUOUS
 62
    30
 10
-116.5
 20
-452.89562540477033
 30
0.0
 40
6.0
  0
LINE
  8
SIZE
  6
CONTINUOUS
 62
    30
 10
-116.5
 20
-452.89562540477033
 30
0.0
 11
-104.5
 21
-452.89562540477033
 31
0.0
  0
TEXT
  8
SIZE
  6
CONTINUOUS
 62
    30
 10
-74.05714285714285
 20
-427.89562540477033
 30
0.0
 40
64.0
  1
240
 41
0.9
 72
     1
 11
0.0
 21
-427.89562540477033
 31
0.0
  0
POINT
  8
DEFPOINTS
  6
CONTINUOUS
 62
    30
 10
123.5
 20
-245.7643994120001
 30
0.0
  0
POINT
  8
DEFPOINTS
  6
CONTINUOUS
 62
    30
 10
-116.5
 20
-235.7994871312001
 30
0.0
  0
POINT
  8
DEFPOINTS
  6
CONTINUOUS
 62
    30
 10
-116.5
 20
-452.89562540477033
 30
0.0
  0
LINE
  8
DETAIL
  6
CONTINUOUS
 62
     5
 10
163.89999999999779
 20
-196.69999999898729
 30
0.0
 11
163.89999999999779
 21
-129.6999999987884
 31
0.0
  0
LINE
  8
DETAIL
  6
CONTINUOUS
 62
     5
 10
162.29999999999839
 20
-199.09999999898741
 30
0.0
 11
162.29999999999839
 21
-196.69999999898729
 31
0.0
  0
LINE
  8
DETAIL
  6
CONTINUOUS
 62
     5
 10
162.29999999999839
 20
-196.69999999898729
 30
0.0
 11
162.29999999999899
 21
-129.7082271783579
 31
0.0
  0
LINE
  8
DETAIL
  6
CONTINUOUS
 62
     5
 10
112.2999999999884
 20
-199.0999999989881
 30
0.0
 11
162.29999999999839
 21
-199.09999999898741
 31
0.0
  0
LINE
  8
DETAIL
  6
CONTINUOUS
 62
     5
 10
112.2999999999893
 20
-197.49999999898711
 30
0.0
 11
162.29999999999839
 21
-197.49999999898731
 31
0.0
  0
LINE
  8
DETAIL
  6
CONTINUOUS
 62
     5
 10
163.89999999999779
 20
-196.69999999898729
 30
0.0
 11
162.29999999999839
 21
-196.69999999898729
 31
0.0
  0
ARC
  8
DETAIL
  6
CONTINUOUS
 62
     5
 10
162.29999999999839
 20
-196.69999999898729
 30
0.0
 40
1.6000000000000001
 50
270.0
 51
0.0
  0
ARC
  8
DETAIL
  6
CONTINUOUS
 62
     5
 10
162.29999999999839
 20
-196.69999999898729
 30
0.0
 40
0.8
 50
270.0
 51
0.0
  0
LINE
  8
OUTLINE
  6
CONTINUOUS
 62
     3
 10
163.89999999999779
 20
-196.69999999898729
 30
0.0
 11
163.89999999999779
 21
-129.6999999987884
 31
0.0
  0
LINE
  8
OUTLINE
  6
CONTINUOUS
 62
     3
 10
162.29999999999839
 20
-199.09999999898741
 30
0.0
 11
162.29999999999839
 21
-196.69999999898729
 31
0.0
  0
LINE
  8
OUTLINE
  6
CONTINUOUS
 62
     3
 10
112.2999999999884
 20
-199.0999999989881
 30
0.0
 11
162.29999999999839
 21
-199.09999999898741
 31
0.0
  0
ARC
  8
OUTLINE
  6
CONTINUOUS
 62
     3
 10
162.29999999999839
 20
-196.69999999898729
 30
0.0
 40
1.6000000000000001
 50
270.0
 51
0.0
  0
LINE
  8
OUTLINE
  6
CONTINUOUS
 62
     3
 10
163.89999999999961
 20
-196.36887530553551
 30
0.0
 11
163.89999999999961
 21
-128.21431202761141
 31
0.0
  0
LINE
  8
SIZE
  6
CONTINUOUS
 62
    30
 10
149.5
 20
-142.0
 30
0.0
 11
149.5
 21
-606.95285116469563
 31
0.0
  0
LINE
  8
SIZE
  6
CONTINUOUS
 62
    30
 10
-149.5
 20
-142.0
 30
0.0
 11
-149.5
 21
-606.95285116469563
 31
0.0
  0
LINE
  8
SIZE
  6
CONTINUOUS
 62
    30
 10
137.5
 20
-586.95285116469563
 30
0.0
 11
-137.5
 21
-586.95285116469563
 31
0.0
  0
CIRCLE
  8
SIZE
  6
CONTINUOUS
 62
    30
 10
149.5
 20
-586.95285116469563
 30
0.0
 40
6.0
  0
LINE
  8
SIZE
  6
CONTINUOUS
 62
    30
 10
149.5
 20
-586.95285116469563
 30
0.0
 11
137.5
 21
-586.95285116469563
 31
0.0
  0
CIRCLE
  8
SIZE
  6
CONTINUOUS
 62
    30
 10
-149.5
 20
-586.95285116469563
 30
0.0
 40
6.0
  0
LINE
  8
SIZE
  6
CONTINUOUS
 62
    30
 10
-149.5
 20
-586.95285116469563
 30
0.0
 11
-137.5
 21
-586.95285116469563
 31
0.0
  0
TEXT
  8
SIZE
  6
CONTINUOUS
 62
    30
 10
-72.685714285714283
 20
-561.95285116469563
 30
0.0
 40
64.0
  1
299
 41
0.9
 72
     1
 11
0.0
 21
-561.95285116469563
 31
0.0
  0
POINT
  8
DEFPOINTS
  6
CONTINUOUS
 62
    30
 10
149.5
 20
-122.0
 30
0.0
  0
POINT
  8
DEFPOINTS
  6
CONTINUOUS
 62
    30
 10
-149.5
 20
-122.0
 30
0.0
  0
POINT
  8
DEFPOINTS
  6
CONTINUOUS
 62
    30
 10
-149.5
 20
-586.95285116469563
 30
0.0
  0
LINE
  8
SIZE
  6
CONTINUOUS
 62
    30
 10
205.37344200000021
 20
0.0
 30
0.0
 11
451.86781056006708
 21
0.0000000000000568
 31
0.0
  0
LINE
  8
SIZE
  6
CONTINUOUS
 62
    30
 10
142.36617859459969
 20
-256.9638867623471
 30
0.0
 11
451.86781056006731
 21
-256.96388676234687
 31
0.0
  0
LINE
  8
SIZE
  6
CONTINUOUS
 62
    30
 10
431.86781056006731
 20
-11.99999999999994
 30
0.0
 11
431.86781056006731
 21
-244.9638867623471
 31
0.0
  0
CIRCLE
  8
SIZE
  6
CONTINUOUS
 62
    30
 10
431.86781056006731
 20
0.0000000000000568
 30
0.0
 40
6.0
  0
LINE
  8
SIZE
  6
CONTINUOUS
 62
    30
 10
431.86781056006731
 20
0.0000000000000568
 30
0.0
 11
431.86781056006731
 21
-11.99999999999994
 31
0.0
  0
CIRCLE
  8
SIZE
  6
CONTINUOUS
 62
    30
 10
431.86781056006731
 20
-256.96388676234687
 30
0.0
 40
6.0
  0
LINE
  8
SIZE
  6
CONTINUOUS
 62
    30
 10
431.86781056006731
 20
-256.96388676234687
 30
0.0
 11
431.86781056006731
 21
-244.96388676234699
 31
0.0
  0
TEXT
  8
SIZE
  6
CONTINUOUS
 62
    30
 10
406.86781056006708
 20
-202.53908623831649
 30
0.0
 40
64.0
  1
257
 50
90.0
 41
0.9
 72
     1
 11
406.86781056006708
 21
-128.48194338117361
 31
0.0
  0
POINT
  8
DEFPOINTS
  6
CONTINUOUS
 62
    30
 10
185.3734420000001
 20
0.0
 30
0.0
  0
POINT
  8
DEFPOINTS
  6
CONTINUOUS
 62
    30
 10
122.3661785945997
 20
-256.96388676234722
 30
0.0
  0
POINT
  8
DEFPOINTS
  6
CONTINUOUS
 62
    30
 10
431.86781056006731
 20
-256.96388676234687
 30
0.0
  0
LINE
  8
NOTE
  6
CONTINUOUS
 62
     4
 10
83.249999999996646
 20
-281.99352977570288
 30
0.0
 11
126.7499999999967
 21
-281.99352977570288
 31
0.0
  0
LINE
  8
NOTE
  6
CONTINUOUS
 62
     4
 10
104.99999999999621
 20
-262.24352977570288
 30
0.0
 11
104.99999999999621
 21
-301.74352977570288
 31
0.0
  0
CIRCLE
  8
DETAIL
  6
CONTINUOUS
 62
     5
 10
-0.00000000000054
 20
-113.0
 30
0.0
 40
80.0
  0
CIRCLE
  8
DETAIL
  6
CONTINUOUS
 62
     5
 10
-0.00000000000054
 20
-113.0
 30
0.0
 40
71.0
  0
LINE
  8
SIZE
  6
CONTINUOUS
 62
    30
 10
-169.5
 20
-142.9856090000001
 30
0.0
 11
-169.5
 21
-738.54172945817652
 31
0.0
  0
LINE
  8
SIZE
  6
CONTINUOUS
 62
    30
 10
169.5
 20
-142.9856090000001
 30
0.0
 11
169.5
 21
-738.54172945817652
 31
0.0
  0
LINE
  8
SIZE
  6
CONTINUOUS
 62
    30
 10
-157.5
 20
-718.54172945817652
 30
0.0
 11
157.5
 21
-718.54172945817652
 31
0.0
  0
CIRCLE
  8
SIZE
  6
CONTINUOUS
 62
    30
 10
-169.5
 20
-718.54172945817652
 30
0.0
 40
6.0
  0
LINE
  8
SIZE
  6
CONTINUOUS
 62
    30
 10
-169.5
 20
-718.54172945817652
 30
0.0
 11
-157.5
 21
-718.54172945817652
 31
0.0
  0
CIRCLE
  8
SIZE
  6
CONTINUOUS
 62
    30
 10
169.5
 20
-718.54172945817652
 30
0.0
 40
6.0
  0
LINE
  8
SIZE
  6
CONTINUOUS
 62
    30
 10
169.5
 20
-718.54172945817652
 30
0.0
 11
157.5
 21
-718.54172945817652
 31
0.0
  0
TEXT
  8
SIZE
  6
CONTINUOUS
 62
    30
 10
-72.685714285714312
 20
-693.54172945817652
 30
0.0
 40
64.0
  1
339
 41
0.9
 72
     1
 11
-0.0000000000000284
 21
-693.54172945817652
 31
0.0
  0
POINT
  8
DEFPOINTS
  6
CONTINUOUS
 62
    30
 10
-169.5
 20
-122.9856090000001
 30
0.0
  0
POINT
  8
DEFPOINTS
  6
CONTINUOUS
 62
    30
 10
169.5
 20
-122.9856090000001
 30
0.0
  0
POINT
  8
DEFPOINTS
  6
CONTINUOUS
 62
    30
 10
169.5
 20
-718.54172945817652
 30
0.0
  0
TEXT
  8
NOTE
  6
CONTINUOUS
 62
     4
 10
290.65458145929369
 20
54.475018591058017
 30
0.0
 40
64.0
  1
AH
 41
0.9
  0
LINE
  8
NOTE
  6
CONTINUOUS
 62
     4
 10
290.56458145929372
 20
41.675018591058013
 30
0.0
 11
386.65458145929358
 21
41.675018591058013
 31
0.0
  0
LINE
  8
NOTE
  6
CONTINUOUS
 62
     4
 10
171.7780135009429
 20
-88.825655006251566
 30
0.0
 11
149.5
 21
-102.0
 31
0.0
  0
LINE
  8
NOTE
  6
CONTINUOUS
 62
     4
 10
149.5
 20
-102.0
 30
0.0
 11
162.2061191617247
 21
-79.451656659289739
 31
0.0
  0
LINE
  8
NOTE
  6
CONTINUOUS
 62
     4
 10
149.5
 20
-102.0
 30
0.0
 11
184.48413266266761
 21
-66.277311665541276
 31
0.0
  0
LINE
  8
NOTE
  6
CONTINUOUS
 62
     4
 10
184.48413266266749
 20
-66.277311665541276
 30
0.0
 11
290.20458145929359
 21
41.675018591058013
 31
0.0
  0
LINE
  8
NOTE
  6
CONTINUOUS
 62
     4
 10
290.20458145929359
 20
41.675018591058013
 30
0.0
 11
290.56458145929372
 21
41.675018591058013
 31
0.0
  0
TEXT
  8
NOTE
  6
CONTINUOUS
 62
     4
 10
288.7145141357048
 20
-576.16136285059031
 30
0.0
 40
64.0
  1
D φ21.7
 41
0.9
  0
LINE
  8
NOTE
  6
CONTINUOUS
 62
     4
 10
288.62451413570483
 20
-588.96136285059038
 30
0.0
 11
626.08594270713354
 21
-588.96136285059038
 31
0.0
  0
LINE
  8
NOTE
  6
CONTINUOUS
 62
     4
 10
112.0635645596675
 20
-306.89291344827302
 30
0.0
 11
104.99999999999621
 21
-281.99352977570288
 31
0.0
  0
LINE
  8
NOTE
  6
CONTINUOUS
 62
     4
 10
104.99999999999621
 20
-281.99352977570288
 30
0.0
 11
123.5669453589892
 21
-300.02521831556692
 31
0.0
  0
LINE
  8
NOTE
  6
CONTINUOUS
 62
     4
 10
104.99999999999621
 20
-281.99352977570288
 30
0.0
 11
130.63050991866061
 21
-324.92460198813723
 31
0.0
  0
LINE
  8
NOTE
  6
CONTINUOUS
 62
     4
 10
130.63050991866049
 20
-324.92460198813723
 30
0.0
 11
288.26451413570481
 21
-588.96136285059038
 31
0.0
  0
LINE
  8
NOTE
  6
CONTINUOUS
 62
     4
 10
288.26451413570481
 20
-588.96136285059038
 30
0.0
 11
288.62451413570483
 21
-588.96136285059038
 31
0.0
  0
LINE
  8
OUTLINE
  6
CONTINUOUS
 62
     3
 10
115.9886232219004
 20
-282.00891461099991
 30
0.0
 11
106.4847639535008
 21
-284.79256873840001
 31
0.0
  0
LINE
  8
OUTLINE
  6
CONTINUOUS
 62
     3
 10
116.3880152357012
 20
-261.6751300123999
 30
0.0
 11
116.4277772889007
 21
-261.12452468700002
 31
0.0
  0
LINE
  8
OUTLINE
  6
CONTINUOUS
 62
     3
 10
116.4277772889007
 20
-261.12452468700002
 30
0.0
 11
116.6109826497636
 21
-256.7275960291916
 31
0.0
  0
LINE
  8
OUTLINE
  6
CONTINUOUS
 62
     3
 10
117.6190433303007
 20
-261.71112498580021
 30
0.0
 11
117.0663501251009
 21
-280.61323261019987
 31
0.0
  0
LINE
  8
OUTLINE
  6
CONTINUOUS
 62
     3
 10
94.746589602900485
 20
-260.22114186699991
 30
0.0
 11
94.929908163030461
 21
-255.82149642500011
 31
0.0
  0
LINE
  8
OUTLINE
  6
CONTINUOUS
 62
     3
 10
93.629296323300707
 20
-261.00967039519992
 30
0.0
 11
93.076603118100849
 21
-279.91177801959998
 31
0.0
  0
LINE
  8
OUTLINE
  6
CONTINUOUS
 62
     3
 10
94.737398802900998
 20
-261.04207105239988
 30
0.0
 11
94.746589602900485
 21
-260.22114186699991
 31
0.0
  0
LINE
  8
OUTLINE
  6
CONTINUOUS
 62
     3
 10
93.629296323300707
 20
-261.00967039519992
 30
0.0
 11
94.737398802900032
 21
-261.04207105248668
 31
0.0
  0
LINE
  8
OUTLINE
  6
CONTINUOUS
 62
     3
 10
94.070939651300989
 20
-281.36804667059999
 30
0.0
 11
103.3959141553003
 21
-284.70225149280009
 31
0.0
  0
ARC
  8
OUTLINE
  6
CONTINUOUS
 62
     3
 10
105.0793230043008
 20
-279.99415902920009
 30
0.0
 40
5.0
 50
250.32516200999069
 51
286.32516201000487
  0
ARC
  8
OUTLINE
  6
CONTINUOUS
 62
     3
 10
94.575962306101047
 20
-279.95561893140001
 30
0.0
 40
1.5
 50
178.325162009997
 51
250.32516201040579
  0
ARC
  8
OUTLINE
  6
CONTINUOUS
 62
     3
 10
115.5669909371007
 20
-280.56939169819998
 30
0.0
 40
1.5
 50
286.32516200959759
 51
358.32516201000999
  0
LINE
  8
OUTLINE
  6
CONTINUOUS
 62
     3
 10
116.3880152357094
 20
-261.67513001228679
 30
0.0
 11
117.6190433303007
 21
-261.71112498580021
 31
0.0
  0
ENDSEC
  0
EOF
