  0
SECTION
  2
HEADER
  9
$ACADVER
  1
AC1009
  9
$DWGCODEPAGE
  3
dos932
  9
$INSBASE
 10
0.0
 20
0.0
 30
0.0
  9
$EXTMIN
 10
-682.0449664164862
 20
-696.94517901742984
 30
-0.0030516297567118
  9
$EXTMAX
 10
1052.297985230452
 20
352.15760051756843
 30
50.001526135026353
  9
$LIMMIN
 10
-2970.0
 20
-2100.0
  9
$LIMMAX
 10
2970.0
 20
2100.0
  9
$ORTHOMODE
 70
     1
  9
$REGENMODE
 70
     1
  9
$FILLMODE
 70
     1
  9
$QTEXTMODE
 70
     0
  9
$MIRRTEXT
 70
     0
  9
$LTSCALE
 40
20.0
  9
$ATTMODE
 70
     1
  9
$TEXTSIZE
 40
64.0
  9
$TRACEWID
 40
0.05
  9
$TEXTSTYLE
  7
STANDARD
  9
$CLAYER
  8
SIZE
  9
$CELTYPE
  6
CONTINUOUS
  9
$CECOLOR
 62
     7
  9
$DIMSCALE
 40
1.0
  9
$DIMASZ
 40
12.0
  9
$DIMEXO
 40
20.0
  9
$DIMDLI
 40
200.0
  9
$DIMRND
 40
0.0
  9
$DIMDLE
 40
0.0
  9
$DIMEXE
 40
20.0
  9
$DIMTP
 40
0.0
  9
$DIMTM
 40
0.0
  9
$DIMTXT
 40
64.0
  9
$DIMCEN
 40
0.09
  9
$DIMTSZ
 40
0.0
  9
$DIMTOL
 70
     0
  9
$DIMLIM
 70
     0
  9
$DIMTIH
 70
     0
  9
$DIMTOH
 70
     0
  9
$DIMSE1
 70
     0
  9
$DIMSE2
 70
     0
  9
$DIMTAD
 70
     1
  9
$DIMZIN
 70
     8
  9
$DIMBLK
  1

  9
$DIMASO
 70
     1
  9
$DIMSHO
 70
     0
  9
$DIMPOST
  1

  9
$DIMAPOST
  1

  9
$DIMALT
 70
     0
  9
$DIMALTD
 70
     2
  9
$DIMALTF
 40
25.399999999999999
  9
$DIMLFAC
 40
1.0
  9
$DIMTOFL
 70
     1
  9
$DIMTVP
 40
0.0
  9
$DIMTIX
 70
     1
  9
$DIMSOXD
 70
     0
  9
$DIMSAH
 70
     0
  9
$DIMBLK1
  1

  9
$DIMBLK2
  1

  9
$DIMSTYLE
  2
STANDARD
  9
$DIMCLRD
 70
     7
  9
$DIMCLRE
 70
     7
  9
$DIMCLRT
 70
     7
  9
$DIMTFAC
 40
1.0
  9
$DIMGAP
 40
25.0
  9
$LUNITS
 70
     2
  9
$LUPREC
 70
     4
  9
$SKETCHINC
 40
0.1
  9
$FILLETRAD
 40
3.0
  9
$AUNITS
 70
     1
  9
$AUPREC
 70
     3
  9
$MENU
  1
ACAD
  9
$ELEVATION
 40
0.0
  9
$PELEVATION
 40
0.0
  9
$THICKNESS
 40
0.0
  9
$LIMCHECK
 70
     0
  9
$CHAMFERA
 40
0.0
  9
$CHAMFERB
 40
0.0
  9
$SKPOLY
 70
     0
  9
$TDCREATE
 40
2453019.62301037
  9
$TDUPDATE
 40
2459268.66976794
  9
$TDINDWG
 40
1.7279905208
  9
$TDUSRTIMER
 40
1.7279905208
  9
$USRTIMER
 70
     1
  9
$ANGBASE
 50
0.0
  9
$ANGDIR
 70
     0
  9
$PDMODE
 70
     3
  9
$PDSIZE
 40
-2.0
  9
$PLINEWID
 40
0.0
  9
$SPLFRAME
 70
     0
  9
$SPLINETYPE
 70
     6
  9
$SPLINESEGS
 70
     8
  9
$SURFTAB1
 70
     6
  9
$SURFTAB2
 70
     6
  9
$SURFTYPE
 70
     6
  9
$SURFU
 70
     6
  9
$SURFV
 70
     6
  9
$UCSNAME
  2

  9
$UCSORG
 10
0.0
 20
0.0
 30
0.0
  9
$UCSXDIR
 10
1.0
 20
0.0
 30
0.0
  9
$UCSYDIR
 10
0.0
 20
1.0
 30
0.0
  9
$PUCSNAME
  2

  9
$PUCSORG
 10
0.0
 20
0.0
 30
0.0
  9
$PUCSXDIR
 10
1.0
 20
0.0
 30
0.0
  9
$PUCSYDIR
 10
0.0
 20
1.0
 30
0.0
  9
$USERI1
 70
     0
  9
$USERI2
 70
     0
  9
$USERI3
 70
     0
  9
$USERI4
 70
     0
  9
$USERI5
 70
     0
  9
$USERR1
 40
20.0
  9
$USERR2
 40
0.0
  9
$USERR3
 40
0.0
  9
$USERR4
 40
0.0
  9
$USERR5
 40
0.0
  9
$WORLDVIEW
 70
     1
  9
$SHADEDGE
 70
     3
  9
$SHADEDIF
 70
    70
  9
$TILEMODE
 70
     1
  9
$MAXACTVP
 70
    48
  9
$PINSBASE
 10
0.0
 20
0.0
 30
0.0
  9
$PLIMCHECK
 70
     0
  9
$PEXTMIN
 10
-100000000000000000000.0
 20
-100000000000000000000.0
 30
-100000000000000000000.0
  9
$PEXTMAX
 10
100000000000000000000.0
 20
100000000000000000000.0
 30
100000000000000000000.0
  9
$PLIMMIN
 10
0.0
 20
0.0
  9
$PLIMMAX
 10
12.0
 20
9.0
  9
$UNITMODE
 70
     0
  9
$VISRETAIN
 70
     0
  9
$PLINEGEN
 70
     0
  9
$PSLTSCALE
 70
     0
  9
$TREEDEPTH
 70
  3020
  9
$ATTDIA
 70
     0
  9
$ATTREQ
 70
     1
  9
$BLIPMODE
 70
     1
  9
$COORDS
 70
     1
  9
$DRAGMODE
 70
     2
  9
$OSMODE
 70
     0
  9
$HANDLING
 70
     0
  9
$HANDSEED
  5
FB31
  0
ENDSEC
  0
SECTION
  2
TABLES
  0
TABLE
  2
LTYPE
 70
     2
  0
LTYPE
  2
CONTINUOUS
 70
     0
  3
実線
 72
    65
 73
     0
 40
0.0
  0
LTYPE
  2
DASHDOT
 70
     0
  3
____ _ ____ _ ____ _ ____ _ ____ _ ____ _ ____
 72
    65
 73
     4
 40
5.5
 49
4.0
 49
-0.6
 49
0.3
 49
-0.6
  0
ENDTAB
  0
TABLE
  2
LAYER
 70
    12
  0
LAYER
  2
0
 70
     0
 62
     7
  6
CONTINUOUS
  0
LAYER
  2
BASIS
 70
     0
 62
     6
  6
DASHDOT
  0
LAYER
  2
OUTLINE
 70
     0
 62
     3
  6
CONTINUOUS
  0
LAYER
  2
DETAIL
 70
     0
 62
     5
  6
CONTINUOUS
  0
LAYER
  2
SIZE
 70
     0
 62
    30
  6
CONTINUOUS
  0
LAYER
  2
ARRANGE
 70
     0
 62
     1
  6
CONTINUOUS
  0
LAYER
  2
DEFPOINTS
 70
     0
 62
     7
  6
CONTINUOUS
  0
LAYER
  2
ETC
 70
     0
 62
    61
  6
CONTINUOUS
  0
LAYER
  2
FIX
 70
     0
 62
    11
  6
CONTINUOUS
  0
LAYER
  2
NOTE
 70
     0
 62
     4
  6
CONTINUOUS
  0
LAYER
  2
SERVICESPACE
 70
    64
 62
     2
  6
DASHDOT
  0
LAYER
  2
SYMBOLLINE
 70
    64
 62
    15
  6
CONTINUOUS
  0
ENDTAB
  0
TABLE
  2
STYLE
 70
     1
  0
STYLE
  2
STANDARD
 70
     0
 40
64.0
 41
0.9
 50
0.0
 71
     0
 42
64.0
  3
SIMPLEX.shx
  4
BIGFONT.shx
  0
ENDTAB
  0
TABLE
  2
APPID
 70
    19
  0
APPID
  2
ACAD
 70
     0
  0
APPID
  2
AUTOCAD_POSTSCRIPT_FIGURE
 70
     0
  0
APPID
  2
ACAD_EXEMPT_FROM_CAD_STANDARDS
 70
     0
  0
APPID
  2
ACAD_PSEXT
 70
     0
  0
APPID
  2
ACAUTHENVIRON
 70
     0
  0
APPID
  2
GENIUS_GENOENT_13
 70
     0
  0
APPID
  2
GENIUS_GENCFG_13
 70
     0
  0
APPID
  2
GENIUS_GENCFG0_13
 70
     0
  0
APPID
  2
GENIUS_GENCFG1_13
 70
     0
  0
APPID
  2
GENIUS_GENCFG2_13
 70
     0
  0
APPID
  2
GENIUS_GENCFG3_13
 70
     0
  0
APPID
  2
GENIUS_GENCFG4_13
 70
     0
  0
APPID
  2
GENIUS_GEVCFG0_13
 70
     0
  0
APPID
  2
CONTENTBLOCKICON
 70
     0
  0
APPID
  2
CONTENTBLOCKDESCRIPTION
 70
     0
  0
APPID
  2
ACAD_NAV_VCDISPLAY
 70
     0
  0
APPID
  2
ACAD_MLEADERVER
 70
     0
  0
APPID
  2
ACDBDYNAMICBLOCKTRUENAME
 70
     0
  0
APPID
  2
ACDBDYNAMICBLOCKGUID
 70
     0
  0
ENDTAB
  0
TABLE
  2
DIMSTYLE
 70
     1
  0
DIMSTYLE
  2
STANDARD
 70
     0
  3

  4

  5
_ORIGIN
  6

  7

 40
1.0
 41
12.0
 42
20.0
 43
200.0
 44
20.0
 45
0.0
 46
0.0
 47
0.0
 48
0.0
140
64.0
141
0.09
142
0.0
143
25.399999999999999
144
1.0
145
0.0
146
1.0
147
25.0
 71
     0
 72
     0
 73
     0
 74
     0
 75
     0
 76
     0
 77
     1
 78
     8
170
     0
171
     2
172
     1
173
     0
174
     1
175
     0
176
     7
177
     7
178
     7
  0
ENDTAB
  0
TABLE
  2
VIEW
 70
     1
  0
VIEW
  2
ALL
 70
     0
 40
4282.6198079999986
 10
0.0
 20
41.309904000000003
 41
5940.0
 11
0.0
 21
0.0
 31
1.0
 12
0.0
 22
0.0
 32
0.0
 42
50.0
 43
0.0
 44
0.0
 50
0.0
 71
     0
  0
ENDTAB
  0
TABLE
  2
UCS
 70
     0
  0
ENDTAB
  0
TABLE
  2
VPORT
 70
     1
  0
VPORT
  2
*ACTIVE
 70
     0
 10
0.0
 20
0.0
 11
1.0
 21
1.0
 12
185.12650940698319
 22
-172.39378924993071
 13
0.0
 23
0.0
 14
1.0
 24
1.0
 15
0.0
 25
0.0
 16
0.0
 26
0.0
 36
1.0
 17
0.0
 27
0.0
 37
0.0
 40
731.62484904196594
 41
2.1453957996768982
 42
50.0
 43
0.0
 44
0.0
 50
0.0
 51
0.0
 71
     0
 72
  1000
 73
     1
 74
     3
 75
     0
 76
     0
 77
     0
 78
     0
  0
ENDTAB
  0
ENDSEC
  0
SECTION
  2
BLOCKS
  0
BLOCK
  8
0
  2
_ORIGIN
 70
     0
 10
0.0
 20
0.0
 30
0.0
  3
_ORIGIN
  1
_ORIGIN
  0
CIRCLE
  8
SIZE
  6
CONTINUOUS
 62
    30
 10
0.0
 20
0.0
 30
0.0
 40
0.5
  0
LINE
  8
SIZE
  6
CONTINUOUS
 62
    30
 10
0.0
 20
0.0
 30
0.0
 11
-1.0
 21
0.0
 31
0.0
  0
ENDBLK
  8
0
  0
ENDSEC
  0
SECTION
  2
ENTITIES
  0
TEXT
  8
ETC
  6
CONTINUOUS
 62
    61
 10
432.18936401070442
 20
288.10874779786673
 30
0.0
 40
64.0
  1
BFS-30SYA2_4
 41
0.9
  0
TEXT
  8
ETC
  6
CONTINUOUS
 62
    61
 10
429.98095301070452
 20
187.46770179786651
 30
0.0
 40
64.0
  1
産業扇
 41
0.9
  0
TEXT
  8
ETC
  6
CONTINUOUS
 62
    61
 10
570.22522816794276
 20
101.9237385333695
 30
0.0
 40
50.0
  1
BFS-30SYA2
 41
0.9
  0
CIRCLE
  8
ARRANGE
  6
CONTINUOUS
 62
     1
 10
0.0
 20
0.0
 30
0.0
 40
40.0
  0
LINE
  8
BASIS
  6
DASHDOT
 62
     6
 10
267.15281599999997
 20
0.0000000000000568
 30
0.0
 11
-267.15281599999997
 21
-0.0000000000000568
 31
0.0
  0
LINE
  8
SIZE
  6
CONTINUOUS
 62
    30
 10
182.5
 20
-275.78194327160008
 30
0.0
 11
182.5
 21
-696.86514084523333
 31
0.0
  0
LINE
  8
SIZE
  6
CONTINUOUS
 62
    30
 10
-182.50000000000011
 20
-275.81378950070581
 30
0.0
 11
-182.50000000000011
 21
-696.86514084523333
 31
0.0
  0
LINE
  8
SIZE
  6
CONTINUOUS
 62
    30
 10
170.5
 20
-676.86514084523321
 30
0.0
 11
-170.50000000000011
 21
-676.86514084523321
 31
0.0
  0
CIRCLE
  8
SIZE
  6
CONTINUOUS
 62
    30
 10
182.5
 20
-676.86514084523321
 30
0.0
 40
6.0
  0
LINE
  8
SIZE
  6
CONTINUOUS
 62
    30
 10
182.5
 20
-676.86514084523321
 30
0.0
 11
170.5
 21
-676.86514084523321
 31
0.0
  0
CIRCLE
  8
SIZE
  6
CONTINUOUS
 62
    30
 10
-182.50000000000011
 20
-676.86514084523321
 30
0.0
 40
6.0
  0
LINE
  8
SIZE
  6
CONTINUOUS
 62
    30
 10
-182.50000000000011
 20
-676.86514084523321
 30
0.0
 11
-170.50000000000011
 21
-676.86514084523321
 31
0.0
  0
TEXT
  8
SIZE
  6
CONTINUOUS
 62
    30
 10
-76.55714285714302
 20
-651.86514084523321
 30
0.0
 40
64.0
  1
365
 41
0.9
 72
     1
 11
-2.500000000000171
 21
-651.86514084523321
 31
0.0
  0
POINT
  8
DEFPOINTS
  6
CONTINUOUS
 62
    30
 10
182.5
 20
-255.78194327160011
 30
0.0
  0
POINT
  8
DEFPOINTS
  6
CONTINUOUS
 62
    30
 10
-182.50000000000011
 20
-255.81378950070581
 30
0.0
  0
POINT
  8
DEFPOINTS
  6
CONTINUOUS
 62
    30
 10
-182.50000000000011
 20
-676.86514084523321
 30
0.0
  0
LINE
  8
SIZE
  6
CONTINUOUS
 62
    30
 10
170.5
 20
-167.0
 30
0.0
 11
170.5
 21
-577.12870204802846
 31
0.0
  0
LINE
  8
SIZE
  6
CONTINUOUS
 62
    30
 10
-170.5
 20
-167.0
 30
0.0
 11
-170.5
 21
-577.12870204802846
 31
0.0
  0
LINE
  8
SIZE
  6
CONTINUOUS
 62
    30
 10
158.5
 20
-557.12870204802857
 30
0.0
 11
-158.5
 21
-557.12870204802857
 31
0.0
  0
CIRCLE
  8
SIZE
  6
CONTINUOUS
 62
    30
 10
170.5
 20
-557.12870204802857
 30
0.0
 40
6.0
  0
LINE
  8
SIZE
  6
CONTINUOUS
 62
    30
 10
170.5
 20
-557.12870204802857
 30
0.0
 11
158.5
 21
-557.12870204802857
 31
0.0
  0
CIRCLE
  8
SIZE
  6
CONTINUOUS
 62
    30
 10
-170.5
 20
-557.12870204802857
 30
0.0
 40
6.0
  0
LINE
  8
SIZE
  6
CONTINUOUS
 62
    30
 10
-170.5
 20
-557.12870204802857
 30
0.0
 11
-158.5
 21
-557.12870204802857
 31
0.0
  0
TEXT
  8
SIZE
  6
CONTINUOUS
 62
    30
 10
-61.71428571428585
 20
-532.12870204802857
 30
0.0
 40
64.0
  1
341
 41
0.9
 72
     1
 11
-0.0000000000001421
 21
-532.12870204802857
 31
0.0
  0
POINT
  8
DEFPOINTS
  6
CONTINUOUS
 62
    30
 10
170.5
 20
-147.0
 30
0.0
  0
POINT
  8
DEFPOINTS
  6
CONTINUOUS
 62
    30
 10
-170.5
 20
-147.0
 30
0.0
  0
POINT
  8
DEFPOINTS
  6
CONTINUOUS
 62
    30
 10
-170.5
 20
-557.12870204802857
 30
0.0
  0
LINE
  8
SIZE
  6
CONTINUOUS
 62
    30
 10
150.0
 20
-142.0
 30
0.0
 11
150.0
 21
-468.62734838054541
 31
0.0
  0
LINE
  8
SIZE
  6
CONTINUOUS
 62
    30
 10
-150.0
 20
-142.0
 30
0.0
 11
-150.0
 21
-468.62734838054541
 31
0.0
  0
LINE
  8
SIZE
  6
CONTINUOUS
 62
    30
 10
138.0
 20
-448.62734838054541
 30
0.0
 11
-138.0
 21
-448.62734838054541
 31
0.0
  0
CIRCLE
  8
SIZE
  6
CONTINUOUS
 62
    30
 10
150.0
 20
-448.62734838054541
 30
0.0
 40
6.0
  0
LINE
  8
SIZE
  6
CONTINUOUS
 62
    30
 10
150.0
 20
-448.62734838054541
 30
0.0
 11
138.0
 21
-448.62734838054541
 31
0.0
  0
CIRCLE
  8
SIZE
  6
CONTINUOUS
 62
    30
 10
-150.0
 20
-448.62734838054541
 30
0.0
 40
6.0
  0
LINE
  8
SIZE
  6
CONTINUOUS
 62
    30
 10
-150.0
 20
-448.62734838054541
 30
0.0
 11
-138.0
 21
-448.62734838054541
 31
0.0
  0
TEXT
  8
SIZE
  6
CONTINUOUS
 62
    30
 10
-74.057142857142935
 20
-423.62734838054541
 30
0.0
 40
64.0
  1
300
 41
0.9
 72
     1
 11
-0.0000000000000853
 21
-423.62734838054541
 31
0.0
  0
POINT
  8
DEFPOINTS
  6
CONTINUOUS
 62
    30
 10
150.0
 20
-122.0
 30
0.0
  0
POINT
  8
DEFPOINTS
  6
CONTINUOUS
 62
    30
 10
-150.0
 20
-122.0
 30
0.0
  0
POINT
  8
DEFPOINTS
  6
CONTINUOUS
 62
    30
 10
-150.0
 20
-448.62734838054541
 30
0.0
  0
LINE
  8
SIZE
  6
CONTINUOUS
 62
    30
 10
237.5
 20
-22.0
 30
0.0
 11
237.5
 21
169.3823780041636
 31
0.0
  0
LINE
  8
SIZE
  6
CONTINUOUS
 62
    30
 10
168.0
 20
19.99999999999994
 30
0.0
 11
168.0
 21
169.3823780041636
 31
0.0
  0
LINE
  8
SIZE
  6
CONTINUOUS
 62
    30
 10
249.5
 20
149.3823780041636
 30
0.0
 11
261.5
 21
149.3823780041636
 31
0.0
  0
LINE
  8
SIZE
  6
CONTINUOUS
 62
    30
 10
156.0
 20
149.3823780041636
 30
0.0
 11
144.0
 21
149.3823780041636
 31
0.0
  0
LINE
  8
SIZE
  6
CONTINUOUS
 62
    30
 10
237.5
 20
149.3823780041636
 30
0.0
 11
168.0
 21
149.3823780041636
 31
0.0
  0
CIRCLE
  8
SIZE
  6
CONTINUOUS
 62
    30
 10
237.5
 20
149.3823780041636
 30
0.0
 40
6.0
  0
LINE
  8
SIZE
  6
CONTINUOUS
 62
    30
 10
237.5
 20
149.3823780041636
 30
0.0
 11
249.5
 21
149.3823780041636
 31
0.0
  0
CIRCLE
  8
SIZE
  6
CONTINUOUS
 62
    30
 10
168.0
 20
149.3823780041636
 30
0.0
 40
6.0
  0
LINE
  8
SIZE
  6
CONTINUOUS
 62
    30
 10
168.0
 20
149.3823780041636
 30
0.0
 11
156.0
 21
149.3823780041636
 31
0.0
  0
TEXT
  8
SIZE
  6
CONTINUOUS
 62
    30
 10
156.12142857142859
 20
174.38237800416351
 30
0.0
 40
64.0
  1
70
 41
0.9
 72
     1
 11
202.75
 21
174.38237800416351
 31
0.0
  0
POINT
  8
DEFPOINTS
  6
CONTINUOUS
 62
    30
 10
237.5
 20
-42.0
 30
0.0
  0
POINT
  8
DEFPOINTS
  6
CONTINUOUS
 62
    30
 10
168.0
 20
-0.0000000000000568
 30
0.0
  0
POINT
  8
DEFPOINTS
  6
CONTINUOUS
 62
    30
 10
168.0
 20
149.3823780041636
 30
0.0
  0
LINE
  8
SIZE
  6
CONTINUOUS
 62
    30
 10
168.0
 20
19.99999999999994
 30
0.0
 11
168.0
 21
169.3823780041634
 31
0.0
  0
LINE
  8
SIZE
  6
CONTINUOUS
 62
    30
 10
-167.0
 20
20.0
 30
0.0
 11
-167.0
 21
169.3823780041634
 31
0.0
  0
LINE
  8
SIZE
  6
CONTINUOUS
 62
    30
 10
156.0
 20
149.3823780041634
 30
0.0
 11
-155.0
 21
149.3823780041634
 31
0.0
  0
CIRCLE
  8
SIZE
  6
CONTINUOUS
 62
    30
 10
168.0
 20
149.3823780041634
 30
0.0
 40
6.0
  0
LINE
  8
SIZE
  6
CONTINUOUS
 62
    30
 10
168.0
 20
149.3823780041634
 30
0.0
 11
156.0
 21
149.3823780041634
 31
0.0
  0
CIRCLE
  8
SIZE
  6
CONTINUOUS
 62
    30
 10
-167.0
 20
149.3823780041634
 30
0.0
 40
6.0
  0
LINE
  8
SIZE
  6
CONTINUOUS
 62
    30
 10
-167.0
 20
149.3823780041634
 30
0.0
 11
-155.0
 21
149.3823780041634
 31
0.0
  0
TEXT
  8
SIZE
  6
CONTINUOUS
 62
    30
 10
-74.05714285714285
 20
174.3823780041634
 30
0.0
 40
64.0
  1
335
 41
0.9
 72
     1
 11
0.0
 21
174.3823780041634
 31
0.0
  0
POINT
  8
DEFPOINTS
  6
CONTINUOUS
 62
    30
 10
168.0
 20
-0.0000000000000568
 30
0.0
  0
POINT
  8
DEFPOINTS
  6
CONTINUOUS
 62
    30
 10
-167.0
 20
0.0
 30
0.0
  0
POINT
  8
DEFPOINTS
  6
CONTINUOUS
 62
    30
 10
-167.0
 20
149.3823780041634
 30
0.0
  0
LINE
  8
SIZE
  6
CONTINUOUS
 62
    30
 10
-167.0
 20
20.0
 30
0.0
 11
-167.0
 21
169.38237800416391
 31
0.0
  0
LINE
  8
SIZE
  6
CONTINUOUS
 62
    30
 10
-237.0
 20
-22.0
 30
0.0
 11
-237.0
 21
169.38237800416391
 31
0.0
  0
LINE
  8
SIZE
  6
CONTINUOUS
 62
    30
 10
-155.0
 20
149.38237800416391
 30
0.0
 11
-143.0
 21
149.38237800416391
 31
0.0
  0
LINE
  8
SIZE
  6
CONTINUOUS
 62
    30
 10
-249.0
 20
149.38237800416391
 30
0.0
 11
-261.0
 21
149.38237800416391
 31
0.0
  0
LINE
  8
SIZE
  6
CONTINUOUS
 62
    30
 10
-167.0
 20
149.38237800416391
 30
0.0
 11
-237.0
 21
149.38237800416391
 31
0.0
  0
CIRCLE
  8
SIZE
  6
CONTINUOUS
 62
    30
 10
-167.0
 20
149.38237800416391
 30
0.0
 40
6.0
  0
LINE
  8
SIZE
  6
CONTINUOUS
 62
    30
 10
-167.0
 20
149.38237800416391
 30
0.0
 11
-155.0
 21
149.38237800416391
 31
0.0
  0
CIRCLE
  8
SIZE
  6
CONTINUOUS
 62
    30
 10
-237.0
 20
149.38237800416391
 30
0.0
 40
6.0
  0
LINE
  8
SIZE
  6
CONTINUOUS
 62
    30
 10
-237.0
 20
149.38237800416391
 30
0.0
 11
-249.0
 21
149.38237800416391
 31
0.0
  0
TEXT
  8
SIZE
  6
CONTINUOUS
 62
    30
 10
-248.62857142857141
 20
174.38237800416391
 30
0.0
 40
64.0
  1
70
 41
0.9
 72
     1
 11
-202.0
 21
174.38237800416391
 31
0.0
  0
POINT
  8
DEFPOINTS
  6
CONTINUOUS
 62
    30
 10
-167.0
 20
0.0
 30
0.0
  0
POINT
  8
DEFPOINTS
  6
CONTINUOUS
 62
    30
 10
-237.0
 20
-42.0
 30
0.0
  0
POINT
  8
DEFPOINTS
  6
CONTINUOUS
 62
    30
 10
-237.0
 20
149.38237800416391
 30
0.0
  0
LINE
  8
BASIS
  6
DASHDOT
 62
     6
 10
-266.90281599999992
 20
-113.0012428506969
 30
0.0
 11
266.90281599999992
 21
-113.0012428506969
 31
0.0
  0
LINE
  8
BASIS
  6
DASHDOT
 62
     6
 10
0.0
 20
97.892939893169512
 30
0.0
 11
0.0
 21
-323.89542559456328
 31
0.0
  0
POINT
  8
DEFPOINTS
  6
CONTINUOUS
 62
    30
 10
167.0
 20
0.0
 30
0.0
 50
180.0
  0
POINT
  8
DEFPOINTS
  6
CONTINUOUS
 62
    30
 10
-168.5
 20
0.0
 30
0.0
 50
180.0
  0
LINE
  8
DETAIL
  6
CONTINUOUS
 62
     5
 10
-168.5
 20
0.0
 30
0.0
 11
167.0
 21
0.0
 31
0.0
  0
LINE
  8
DETAIL
  6
CONTINUOUS
 62
     5
 10
167.0
 20
0.0
 30
0.0
 11
167.0
 21
-102.0
 31
0.0
  0
LINE
  8
DETAIL
  6
CONTINUOUS
 62
     5
 10
-168.0
 20
0.0
 30
0.0
 11
-168.0
 21
-102.0
 31
0.0
  0
LINE
  8
DETAIL
  6
CONTINUOUS
 62
     5
 10
-179.0
 20
-225.0
 30
0.0
 11
178.5
 21
-225.0
 31
0.0
  0
LINE
  8
NOTE
  6
CONTINUOUS
 62
     4
 10
0.0042944279880999
 20
-261.99416210288689
 30
0.0
 11
0.0042944279880999
 21
-301.99416210288689
 31
0.0
  0
LINE
  8
NOTE
  6
CONTINUOUS
 62
     4
 10
-19.9957055720119
 20
-281.99416210288689
 30
0.0
 11
20.0042944279881
 21
-281.99416210288689
 31
0.0
  0
LINE
  8
DETAIL
  6
CONTINUOUS
 62
     5
 10
-106.5
 20
0.0
 30
0.0
 11
-106.5
 21
-225.0
 31
0.0
  0
LINE
  8
DETAIL
  6
CONTINUOUS
 62
     5
 10
-170.5
 20
-102.0
 30
0.0
 11
-129.5
 21
-102.0
 31
0.0
  0
LINE
  8
DETAIL
  6
CONTINUOUS
 62
     5
 10
-170.0
 20
-122.985609
 30
0.0
 11
-129.5
 21
-122.985609
 31
0.0
  0
LINE
  8
DETAIL
  6
CONTINUOUS
 62
     5
 10
-170.5
 20
-147.0
 30
0.0
 11
-168.0
 21
-147.0
 31
0.0
  0
LINE
  8
DETAIL
  6
CONTINUOUS
 62
     5
 10
-170.5
 20
-102.0
 30
0.0
 11
-170.5
 21
-147.0
 31
0.0
  0
LINE
  8
DETAIL
  6
CONTINUOUS
 62
     5
 10
-129.5
 20
-102.0
 30
0.0
 11
-129.5
 21
-122.985609
 31
0.0
  0
CIRCLE
  8
FIX
  6
CONTINUOUS
 62
    11
 10
-150.0
 20
-102.0
 30
0.0
 40
5.5
  0
LINE
  8
NOTE
  6
CONTINUOUS
 62
     4
 10
-150.0
 20
-122.0
 30
0.0
 11
-150.0
 21
-82.0
 31
0.0
  0
LINE
  8
NOTE
  6
CONTINUOUS
 62
     4
 10
-170.0
 20
-102.0
 30
0.0
 11
-130.0
 21
-102.0
 31
0.0
  0
LINE
  8
DETAIL
  6
CONTINUOUS
 62
     5
 10
169.0
 20
-122.985609
 30
0.0
 11
129.5
 21
-122.985609
 31
0.0
  0
LINE
  8
DETAIL
  6
CONTINUOUS
 62
     5
 10
129.5
 20
-102.0
 30
0.0
 11
129.5
 21
-122.985609
 31
0.0
  0
LINE
  8
DETAIL
  6
CONTINUOUS
 62
     5
 10
170.5
 20
-102.0
 30
0.0
 11
170.5
 21
-147.0
 31
0.0
  0
LINE
  8
DETAIL
  6
CONTINUOUS
 62
     5
 10
169.5
 20
-147.0
 30
0.0
 11
166.0
 21
-147.0
 31
0.0
  0
LINE
  8
DETAIL
  6
CONTINUOUS
 62
     5
 10
170.5
 20
-102.0
 30
0.0
 11
129.5
 21
-102.0
 31
0.0
  0
LINE
  8
NOTE
  6
CONTINUOUS
 62
     4
 10
150.0
 20
-122.0
 30
0.0
 11
150.0
 21
-82.0
 31
0.0
  0
LINE
  8
NOTE
  6
CONTINUOUS
 62
     4
 10
170.0
 20
-102.0
 30
0.0
 11
130.0
 21
-102.0
 31
0.0
  0
CIRCLE
  8
FIX
  6
CONTINUOUS
 62
    11
 10
150.0
 20
-102.0
 30
0.0
 40
5.5
  0
LINE
  8
OUTLINE
  6
CONTINUOUS
 62
     3
 10
-168.5
 20
0.0
 30
0.0
 11
167.0
 21
0.0
 31
0.0
  0
LINE
  8
DETAIL
  6
CONTINUOUS
 62
     5
 10
-168.0
 20
-122.985609
 30
0.0
 11
-168.0
 21
-225.0
 31
0.0
  0
LINE
  8
DETAIL
  6
CONTINUOUS
 62
     5
 10
167.0
 20
-122.985609
 30
0.0
 11
167.0
 21
-225.0
 31
0.0
  0
POINT
  8
DEFPOINTS
  6
CONTINUOUS
 62
    30
 10
-168.5
 20
0.0
 30
0.0
 50
180.0
  0
POINT
  8
DEFPOINTS
  6
CONTINUOUS
 62
    30
 10
-179.0
 20
-225.0
 30
0.0
 50
180.0
  0
POINT
  8
DEFPOINTS
  6
CONTINUOUS
 62
    30
 10
-170.5
 20
-102.0
 30
0.0
 50
180.0
  0
POINT
  8
DEFPOINTS
  6
CONTINUOUS
 62
    30
 10
170.5
 20
-102.0
 30
0.0
 50
180.0
  0
POINT
  8
DEFPOINTS
  6
CONTINUOUS
 62
    30
 10
167.0
 20
0.0
 30
0.0
 50
180.0
  0
POINT
  8
DEFPOINTS
  6
CONTINUOUS
 62
    30
 10
178.5
 20
-225.0
 30
0.0
 50
180.0
  0
POINT
  8
DEFPOINTS
  6
CONTINUOUS
 62
    30
 10
167.0
 20
0.0
 30
0.0
 50
180.0
  0
POINT
  8
DEFPOINTS
  6
CONTINUOUS
 62
    30
 10
265.76992399999989
 20
-113.0
 30
0.0
 50
180.0
  0
POINT
  8
DEFPOINTS
  6
CONTINUOUS
 62
    30
 10
167.0
 20
0.0
 30
0.0
 50
180.0
  0
POINT
  8
DEFPOINTS
  6
CONTINUOUS
 62
    30
 10
170.5
 20
-102.0
 30
0.0
 50
180.0
  0
POINT
  8
DEFPOINTS
  6
CONTINUOUS
 62
    30
 10
150.0
 20
-108.0
 30
0.0
 50
180.0
  0
POINT
  8
DEFPOINTS
  6
CONTINUOUS
 62
    30
 10
-150.0
 20
-108.0
 30
0.0
 50
180.0
  0
POINT
  8
DEFPOINTS
  6
CONTINUOUS
 62
    30
 10
129.5
 20
-102.0
 30
0.0
 50
180.0
  0
POINT
  8
DEFPOINTS
  6
CONTINUOUS
 62
    30
 10
-129.5
 20
-102.0
 30
0.0
 50
180.0
  0
LINE
  8
DETAIL
  6
CONTINUOUS
 62
     5
 10
116.5
 20
0.0
 30
0.0
 11
116.5
 21
-132.85293141612459
 31
0.0
  0
POINT
  8
ARRANGE
  6
CONTINUOUS
 62
     1
 10
0.0
 20
0.0
 30
0.0
 39
50.0
 50
180.0
  0
LINE
  8
DETAIL
  6
CONTINUOUS
 62
     5
 10
-229.5
 20
-184.76190500000001
 30
0.0
 11
-229.5
 21
-41.238095000000037
 31
0.0
  0
LINE
  8
DETAIL
  6
CONTINUOUS
 62
     5
 10
-237.5
 20
-184.0
 30
0.0
 11
-237.5
 21
-42.0
 31
0.0
  0
LINE
  8
DETAIL
  6
CONTINUOUS
 62
     5
 10
-168.5
 20
-193.0
 30
0.0
 11
-237.5
 21
-184.0
 31
0.0
  0
LINE
  8
DETAIL
  6
CONTINUOUS
 62
     5
 10
-168.5
 20
-33.0
 30
0.0
 11
-237.5
 21
-42.0
 31
0.0
  0
LINE
  8
DETAIL
  6
CONTINUOUS
 62
     5
 10
-173.0
 20
-192.38095200000001
 30
0.0
 11
-173.0
 21
-33.619048000000021
 31
0.0
  0
POINT
  8
DEFPOINTS
  6
CONTINUOUS
 62
    30
 10
-237.5
 20
-42.0
 30
0.0
 50
180.0
  0
POINT
  8
DEFPOINTS
  6
CONTINUOUS
 62
    30
 10
-168.5
 20
-193.0
 30
0.0
 50
180.0
  0
POINT
  8
DEFPOINTS
  6
CONTINUOUS
 62
    30
 10
-168.5
 20
-33.0
 30
0.0
 50
180.0
  0
POINT
  8
DEFPOINTS
  6
CONTINUOUS
 62
    30
 10
-168.5
 20
0.0
 30
0.0
 50
180.0
  0
POINT
  8
DEFPOINTS
  6
CONTINUOUS
 62
    30
 10
-237.5
 20
-42.0
 30
0.0
 50
180.0
  0
LINE
  8
DETAIL
  6
CONTINUOUS
 62
     5
 10
237.0
 20
-184.0
 30
0.0
 11
237.0
 21
-42.0
 31
0.0
  0
LINE
  8
DETAIL
  6
CONTINUOUS
 62
     5
 10
229.0
 20
-184.76190500000001
 30
0.0
 11
229.0
 21
-41.238095000000037
 31
0.0
  0
LINE
  8
DETAIL
  6
CONTINUOUS
 62
     5
 10
167.0
 20
-33.0
 30
0.0
 11
237.0
 21
-42.0
 31
0.0
  0
LINE
  8
DETAIL
  6
CONTINUOUS
 62
     5
 10
167.0
 20
-193.0
 30
0.0
 11
237.0
 21
-184.0
 31
0.0
  0
LINE
  8
DETAIL
  6
CONTINUOUS
 62
     5
 10
173.0
 20
-192.38095200000001
 30
0.0
 11
173.0
 21
-33.619048000000021
 31
0.0
  0
POINT
  8
DEFPOINTS
  6
CONTINUOUS
 62
    30
 10
167.0
 20
0.0
 30
0.0
 50
180.0
  0
POINT
  8
DEFPOINTS
  6
CONTINUOUS
 62
    30
 10
237.0
 20
-42.0
 30
0.0
 50
180.0
  0
LINE
  8
OUTLINE
  6
CONTINUOUS
 62
     3
 10
167.0
 20
0.0
 30
0.0
 11
167.0
 21
-225.0
 31
0.0
  0
LINE
  8
OUTLINE
  6
CONTINUOUS
 62
     3
 10
-168.0
 20
0.0
 30
0.0
 11
-168.0
 21
-225.0
 31
0.0
  0
LINE
  8
SIZE
  6
CONTINUOUS
 62
    30
 10
-287.15281600000009
 20
0.0000000000000568
 30
0.0
 11
-391.04952113732782
 21
0.0000000000000568
 31
0.0
  0
LINE
  8
SIZE
  6
CONTINUOUS
 62
    30
 10
-285.76992400000012
 20
-113.0000000000001
 30
0.0
 11
-391.04952113732782
 21
-113.0000000000001
 31
0.0
  0
LINE
  8
SIZE
  6
CONTINUOUS
 62
    30
 10
-371.04952113732782
 20
-101.0000000000001
 30
0.0
 11
-371.04952113732782
 21
-11.99999999999994
 31
0.0
  0
LINE
  8
SIZE
  6
CONTINUOUS
 62
    30
 10
-371.04952113732782
 20
0.0000000000000568
 30
0.0
 11
-371.04952113732782
 21
193.65714285714299
 31
0.0
  0
CIRCLE
  8
SIZE
  6
CONTINUOUS
 62
    30
 10
-371.04952113732782
 20
-113.0000000000001
 30
0.0
 40
6.0
  0
LINE
  8
SIZE
  6
CONTINUOUS
 62
    30
 10
-371.04952113732782
 20
-113.0000000000001
 30
0.0
 11
-371.04952113732782
 21
-101.0000000000001
 31
0.0
  0
CIRCLE
  8
SIZE
  6
CONTINUOUS
 62
    30
 10
-371.04952113732782
 20
0.0000000000000568
 30
0.0
 40
6.0
  0
LINE
  8
SIZE
  6
CONTINUOUS
 62
    30
 10
-371.04952113732782
 20
0.0000000000000568
 30
0.0
 11
-371.04952113732782
 21
-11.99999999999994
 31
0.0
  0
TEXT
  8
SIZE
  6
CONTINUOUS
 62
    30
 10
-396.04952113732759
 20
42.485714285714508
 30
0.0
 40
64.0
  1
113
 50
90.0
 41
0.9
 72
     1
 11
-396.04952113732759
 21
105.5714285714288
 31
0.0
  0
POINT
  8
DEFPOINTS
  6
CONTINUOUS
 62
    30
 10
-267.15281600000009
 20
0.0000000000000568
 30
0.0
  0
POINT
  8
DEFPOINTS
  6
CONTINUOUS
 62
    30
 10
-265.76992400000012
 20
-113.0000000000001
 30
0.0
  0
POINT
  8
DEFPOINTS
  6
CONTINUOUS
 62
    30
 10
-371.04952113732782
 20
-113.0000000000001
 30
0.0
  0
LINE
  8
DETAIL
  6
CONTINUOUS
 62
     5
 10
181.8334813847996
 20
-256.0316989718001
 30
0.0
 11
181.80000005379949
 21
-256.13155969719992
 31
0.0
  0
LINE
  8
DETAIL
  6
CONTINUOUS
 62
     5
 10
181.80000005379949
 20
-256.13155969719992
 30
0.0
 11
181.7665187119992
 21
-256.22868641700012
 31
0.0
  0
LINE
  8
DETAIL
  6
CONTINUOUS
 62
     5
 10
181.7665187119992
 20
-256.22868641700012
 30
0.0
 11
181.7332316115999
 21
-256.3218237051999
 31
0.0
  0
LINE
  8
DETAIL
  6
CONTINUOUS
 62
     5
 10
181.7332316115999
 20
-256.3218237051999
 30
0.0
 11
181.70000001119919
 21
-256.41071346500007
 31
0.0
  0
LINE
  8
DETAIL
  6
CONTINUOUS
 62
     5
 10
181.70000001119919
 20
-256.41071346500007
 30
0.0
 11
181.66676842179911
 21
-256.49486191919999
 31
0.0
  0
LINE
  8
DETAIL
  6
CONTINUOUS
 62
     5
 10
181.66676842179911
 20
-256.49486191919999
 30
0.0
 11
181.63348133659929
 21
-256.57377855700003
 31
0.0
  0
LINE
  8
DETAIL
  6
CONTINUOUS
 62
     5
 10
181.63348133659929
 20
-256.57377855700003
 30
0.0
 11
181.60000000359921
 21
-256.64714504739999
 31
0.0
  0
LINE
  8
DETAIL
  6
CONTINUOUS
 62
     5
 10
181.60000000359921
 20
-256.64714504739999
 30
0.0
 11
181.56651866839999
 21
-256.71393818999991
 31
0.0
  0
LINE
  8
DETAIL
  6
CONTINUOUS
 62
     5
 10
181.56651866839999
 20
-256.71393818999991
 30
0.0
 11
181.53323157519941
 21
-256.77333539779988
 31
0.0
  0
LINE
  8
DETAIL
  6
CONTINUOUS
 62
     5
 10
181.53323157519941
 20
-256.77333539779988
 30
0.0
 11
181.49999997659961
 21
-256.82522620240002
 31
0.0
  0
LINE
  8
DETAIL
  6
CONTINUOUS
 62
     5
 10
181.49999997659961
 20
-256.82522620240002
 30
0.0
 11
181.46676836959981
 21
-256.86933491819991
 31
0.0
  0
LINE
  8
DETAIL
  6
CONTINUOUS
 62
     5
 10
181.46676836959981
 20
-256.86933491819991
 30
0.0
 11
181.43348126439921
 21
-256.90539114400008
 31
0.0
  0
LINE
  8
DETAIL
  6
CONTINUOUS
 62
     5
 10
181.89999999999961
 20
-255.82813667720009
 30
0.0
 11
181.8334813847996
 21
-256.0316989718001
 31
0.0
  0
LINE
  8
DETAIL
  6
CONTINUOUS
 62
     5
 10
182.49972937579969
 20
-255.80743168559999
 30
0.0
 11
182.49313857419929
 21
-255.9090741821999
 31
0.0
  0
LINE
  8
DETAIL
  6
CONTINUOUS
 62
     5
 10
182.49313857419929
 20
-255.9090741821999
 30
0.0
 11
182.47771357339931
 21
-256.01011089640002
 31
0.0
  0
LINE
  8
DETAIL
  6
CONTINUOUS
 62
     5
 10
182.47771357339931
 20
-256.01011089640002
 30
0.0
 11
182.45343299880011
 21
-256.10993807680012
 31
0.0
  0
LINE
  8
DETAIL
  6
CONTINUOUS
 62
     5
 10
182.45343299880011
 20
-256.10993807680012
 30
0.0
 11
182.42053346159989
 21
-256.20729263499987
 31
0.0
  0
LINE
  8
DETAIL
  6
CONTINUOUS
 62
     5
 10
182.42053346159989
 20
-256.20729263499987
 30
0.0
 11
182.37952476939969
 21
-256.30090226200008
 31
0.0
  0
LINE
  8
DETAIL
  6
CONTINUOUS
 62
     5
 10
182.37952476939969
 20
-256.30090226200008
 30
0.0
 11
182.33063141839921
 21
-256.39049651880009
 31
0.0
  0
LINE
  8
DETAIL
  6
CONTINUOUS
 62
     5
 10
182.33063141839921
 20
-256.39049651880009
 30
0.0
 11
182.2741515516
 21
-256.47556818980001
 31
0.0
  0
LINE
  8
DETAIL
  6
CONTINUOUS
 62
     5
 10
182.2741515516
 20
-256.47556818980001
 30
0.0
 11
182.21038847499949
 21
-256.55561318519989
 31
0.0
  0
LINE
  8
DETAIL
  6
CONTINUOUS
 62
     5
 10
182.21038847499949
 20
-256.55561318519989
 30
0.0
 11
182.13946994439991
 21
-256.63030340499989
 31
0.0
  0
LINE
  8
DETAIL
  6
CONTINUOUS
 62
     5
 10
182.13946994439991
 20
-256.63030340499989
 30
0.0
 11
182.06227853179919
 21
-256.69858882900007
 31
0.0
  0
LINE
  8
DETAIL
  6
CONTINUOUS
 62
     5
 10
182.06227853179919
 20
-256.69858882900007
 30
0.0
 11
181.9798889139993
 21
-256.75961558519998
 31
0.0
  0
LINE
  8
DETAIL
  6
CONTINUOUS
 62
     5
 10
181.9798889139993
 20
-256.75961558519998
 30
0.0
 11
181.89262789939951
 21
-256.8132588005999
 31
0.0
  0
LINE
  8
DETAIL
  6
CONTINUOUS
 62
     5
 10
181.89262789939951
 20
-256.8132588005999
 30
0.0
 11
181.80100449299971
 21
-256.85922440500008
 31
0.0
  0
LINE
  8
DETAIL
  6
CONTINUOUS
 62
     5
 10
181.80100449299971
 20
-256.85922440500008
 30
0.0
 11
181.7055307239998
 21
-256.89722355260011
 31
0.0
  0
LINE
  8
DETAIL
  6
CONTINUOUS
 62
     5
 10
181.7055307239998
 20
-256.89722355260011
 30
0.0
 11
181.60647779999999
 21
-256.9270334723999
 31
0.0
  0
LINE
  8
DETAIL
  6
CONTINUOUS
 62
     5
 10
181.60647779999999
 20
-256.9270334723999
 30
0.0
 11
181.5051347891995
 21
-256.94817754780001
 31
0.0
  0
LINE
  8
DETAIL
  6
CONTINUOUS
 62
     5
 10
181.5051347891995
 20
-256.94817754780001
 30
0.0
 11
181.40277492339919
 21
-256.96045114100002
 31
0.0
  0
LINE
  8
DETAIL
  6
CONTINUOUS
 62
     5
 10
181.43348126439921
 20
-256.90539114400008
 30
0.0
 11
181.39999991819971
 21
-256.93318553800009
 31
0.0
  0
LINE
  8
DETAIL
  6
CONTINUOUS
 62
     5
 10
181.39999991819971
 20
-256.93318553800009
 30
0.0
 11
181.3665185873997
 21
-256.95227657100008
 31
0.0
  0
LINE
  8
DETAIL
  6
CONTINUOUS
 62
     5
 10
181.3665185873997
 20
-256.95227657100008
 30
0.0
 11
181.33320378259941
 21
-256.9624931802
 31
0.0
  0
LINE
  8
DETAIL
  6
CONTINUOUS
 62
     5
 10
181.8947984724
 20
-255.85950639440011
 30
0.0
 11
181.88244985879919
 21
-255.92344644280001
 31
0.0
  0
LINE
  8
DETAIL
  6
CONTINUOUS
 62
     5
 10
181.88244985879919
 20
-255.92344644280001
 30
0.0
 11
181.86291526519929
 21
-255.9857747044
 31
0.0
  0
LINE
  8
DETAIL
  6
CONTINUOUS
 62
     5
 10
182.5
 20
-255.78194327160011
 30
0.0
 11
182.49972937579969
 21
-255.80743168559999
 31
0.0
  0
LINE
  8
DETAIL
  6
CONTINUOUS
 62
     5
 10
183.0999999999996
 20
-234.0
 30
0.0
 11
183.0999999999996
 21
-229.0
 31
0.0
  0
LINE
  8
DETAIL
  6
CONTINUOUS
 62
     5
 10
183.0
 20
-240.69999999999999
 30
0.0
 11
183.0
 21
-234.0
 31
0.0
  0
LINE
  8
DETAIL
  6
CONTINUOUS
 62
     5
 10
182.5
 20
-255.78194327160011
 30
0.0
 11
182.5
 21
-229.0
 31
0.0
  0
LINE
  8
DETAIL
  6
CONTINUOUS
 62
     5
 10
181.89999999999961
 20
-255.82813667720009
 30
0.0
 11
181.89999999999961
 21
-226.59999999999991
 31
0.0
  0
LINE
  8
DETAIL
  6
CONTINUOUS
 62
     5
 10
-1.538815946600153
 20
-284.7514739738001
 30
0.0
 11
-1.521611659400151
 21
-284.75525182820002
 31
0.0
  0
LINE
  8
DETAIL
  6
CONTINUOUS
 62
     5
 10
-1.521611659400151
 20
-284.75525182820002
 30
0.0
 11
-1.451904946600735
 21
-284.76285527419998
 31
0.0
  0
LINE
  8
DETAIL
  6
CONTINUOUS
 62
     5
 10
-1.451904946600735
 20
-284.76285527419998
 30
0.0
 11
-1.338082836600734
 21
-284.76998942699993
 31
0.0
  0
LINE
  8
DETAIL
  6
CONTINUOUS
 62
     5
 10
-1.338082836600734
 20
-284.76998942699993
 30
0.0
 11
-1.1836037570001281
 21
-284.77643751879998
 31
0.0
  0
LINE
  8
DETAIL
  6
CONTINUOUS
 62
     5
 10
-1.1836037570001281
 20
-284.77643751879998
 30
0.0
 11
-0.9931614758006617
 21
-284.78200362759998
 31
0.0
  0
LINE
  8
DETAIL
  6
CONTINUOUS
 62
     5
 10
-0.9931614758006617
 20
-284.78200362759998
 30
0.0
 11
-0.7725424860000203
 21
-284.78651863019991
 31
0.0
  0
LINE
  8
DETAIL
  6
CONTINUOUS
 62
     5
 10
-0.7725424860000203
 20
-284.78651863019991
 30
0.0
 11
-0.5284501836003983
 21
-284.78984534019992
 31
0.0
  0
LINE
  8
DETAIL
  6
CONTINUOUS
 62
     5
 10
-0.5284501836003983
 20
-284.78984534019992
 30
0.0
 11
-0.2683011898006953
 21
-284.79188267740011
 31
0.0
  0
LINE
  8
DETAIL
  6
CONTINUOUS
 62
     5
 10
-0.2683011898006953
 20
-284.79188267740011
 30
0.0
 11
0.0
 21
-284.79256873840001
 31
0.0
  0
LINE
  8
DETAIL
  6
CONTINUOUS
 62
     5
 10
-9.9731977594001364
 20
-280.45755294340012
 30
0.0
 11
-10.57844311420013
 21
-280.4280889698
 31
0.0
  0
LINE
  8
DETAIL
  6
CONTINUOUS
 62
     5
 10
-10.57844311420013
 20
-280.4280889698
 30
0.0
 11
-11.082257124600799
 21
-280.39702566580007
 31
0.0
  0
LINE
  8
DETAIL
  6
CONTINUOUS
 62
     5
 10
-11.082257124600799
 20
-280.39702566580007
 30
0.0
 11
-11.47960021440031
 21
-280.36467033780008
 31
0.0
  0
LINE
  8
DETAIL
  6
CONTINUOUS
 62
     5
 10
-11.47960021440031
 20
-280.36467033780008
 30
0.0
 11
-11.766594250000709
 21
-280.33134320840009
 31
0.0
  0
LINE
  8
DETAIL
  6
CONTINUOUS
 62
     5
 10
-11.766594250000709
 20
-280.33134320840009
 30
0.0
 11
-11.9404388110006
 21
-280.29740616780009
 31
0.0
  0
LINE
  8
DETAIL
  6
CONTINUOUS
 62
     5
 10
-11.9404388110006
 20
-280.29740616780009
 30
0.0
 11
-12.0
 21
-280.26250531440002
 31
0.0
  0
LINE
  8
DETAIL
  6
CONTINUOUS
 62
     5
 10
0.0
 20
-284.99415902919998
 30
0.0
 11
-0.0442179057999965
 21
-284.99396347840002
 31
0.0
  0
LINE
  8
DETAIL
  6
CONTINUOUS
 62
     5
 10
-0.0442179057999965
 20
-284.99396347840002
 30
0.0
 11
-0.0878120114002741
 21
-284.99338787480002
 31
0.0
  0
LINE
  8
DETAIL
  6
CONTINUOUS
 62
     5
 10
-0.0878120114002741
 20
-284.99338787480002
 30
0.0
 11
-0.134523254800115
 21
-284.99234903940021
 31
0.0
  0
LINE
  8
DETAIL
  6
CONTINUOUS
 62
     5
 10
-0.134523254800115
 20
-284.99234903940021
 30
0.0
 11
-0.1854268882007091
 21
-284.99071953299989
 31
0.0
  0
LINE
  8
DETAIL
  6
CONTINUOUS
 62
     5
 10
-0.1854268882007091
 20
-284.99071953299989
 30
0.0
 11
-0.2394181552008376
 21
-284.98842363099988
 31
0.0
  0
LINE
  8
DETAIL
  6
CONTINUOUS
 62
     5
 10
-0.2394181552008376
 20
-284.98842363099988
 30
0.0
 11
-0.2970692178005265
 21
-284.98532621520008
 31
0.0
  0
LINE
  8
DETAIL
  6
CONTINUOUS
 62
     5
 10
-0.2970692178005265
 20
-284.98532621520008
 30
0.0
 11
-0.358390534600403
 21
-284.98129810599988
 31
0.0
  0
LINE
  8
DETAIL
  6
CONTINUOUS
 62
     5
 10
-0.358390534600403
 20
-284.98129810599988
 30
0.0
 11
-0.4230382424002528
 21
-284.97623075140001
 31
0.0
  0
LINE
  8
DETAIL
  6
CONTINUOUS
 62
     5
 10
-0.4230382424002528
 20
-284.97623075140001
 30
0.0
 11
-0.490600701200492
 21
-284.9700319082001
 31
0.0
  0
LINE
  8
DETAIL
  6
CONTINUOUS
 62
     5
 10
-0.490600701200492
 20
-284.9700319082001
 30
0.0
 11
-0.5616651082000317
 21
-284.96251210700012
 31
0.0
  0
LINE
  8
DETAIL
  6
CONTINUOUS
 62
     5
 10
-0.5616651082000317
 20
-284.96251210700012
 30
0.0
 11
-0.636776488599935
 21
-284.95344483399998
 31
0.0
  0
LINE
  8
DETAIL
  6
CONTINUOUS
 62
     5
 10
-0.636776488599935
 20
-284.95344483399998
 30
0.0
 11
-0.7160151366006176
 21
-284.94262569300008
 31
0.0
  0
LINE
  8
DETAIL
  6
CONTINUOUS
 62
     5
 10
-0.7160151366006176
 20
-284.94262569300008
 30
0.0
 11
-0.7997900752006899
 21
-284.92977812240002
 31
0.0
  0
LINE
  8
DETAIL
  6
CONTINUOUS
 62
     5
 10
-0.7997900752006899
 20
-284.92977812240002
 30
0.0
 11
-0.8877594722007416
 21
-284.91471622519998
 31
0.0
  0
LINE
  8
DETAIL
  6
CONTINUOUS
 62
     5
 10
-0.8877594722007416
 20
-284.91471622519998
 30
0.0
 11
-0.9796298690007461
 21
-284.89725247279989
 31
0.0
  0
LINE
  8
DETAIL
  6
CONTINUOUS
 62
     5
 10
-0.9796298690007461
 20
-284.89725247279989
 30
0.0
 11
-1.07566864960063
 21
-284.87708202220011
 31
0.0
  0
LINE
  8
DETAIL
  6
CONTINUOUS
 62
     5
 10
-1.07566864960063
 20
-284.87708202220011
 30
0.0
 11
-1.17375921600069
 21
-284.85443569659992
 31
0.0
  0
LINE
  8
DETAIL
  6
CONTINUOUS
 62
     5
 10
-1.17375921600069
 20
-284.85443569659992
 30
0.0
 11
-1.280712621200109
 21
-284.82735416099979
 31
0.0
  0
LINE
  8
DETAIL
  6
CONTINUOUS
 62
     5
 10
-1.280712621200109
 20
-284.82735416099979
 30
0.0
 11
-1.403305661400736
 21
-284.79319364140002
 31
0.0
  0
LINE
  8
DETAIL
  6
CONTINUOUS
 62
     5
 10
-1.403305661400736
 20
-284.79319364140002
 30
0.0
 11
-1.538815946600153
 21
-284.7514739738001
 31
0.0
  0
LINE
  8
DETAIL
  6
CONTINUOUS
 62
     5
 10
0.0
 20
-282.00891461100002
 30
0.0
 11
-1.0711830600002941
 21
-282.00738029419989
 31
0.0
  0
LINE
  8
DETAIL
  6
CONTINUOUS
 62
     5
 10
-1.0711830600002941
 20
-282.00738029419989
 30
0.0
 11
-2.132171533200562
 21
-282.00279505100002
 31
0.0
  0
LINE
  8
DETAIL
  6
CONTINUOUS
 62
     5
 10
-2.132171533200562
 20
-282.00279505100002
 30
0.0
 11
-3.172059525000805
 21
-281.99520935419997
 31
0.0
  0
LINE
  8
DETAIL
  6
CONTINUOUS
 62
     5
 10
-3.172059525000805
 20
-281.99520935419997
 30
0.0
 11
-4.1831287530003456
 21
-281.98467421520007
 31
0.0
  0
LINE
  8
DETAIL
  6
CONTINUOUS
 62
     5
 10
-4.1831287530003456
 20
-281.98467421520007
 30
0.0
 11
-5.15833322600065
 21
-281.97123224279989
 31
0.0
  0
LINE
  8
DETAIL
  6
CONTINUOUS
 62
     5
 10
-5.15833322600065
 20
-281.97123224279989
 30
0.0
 11
-6.0849153422004747
 21
-281.95503059599997
 31
0.0
  0
LINE
  8
DETAIL
  6
CONTINUOUS
 62
     5
 10
-6.0849153422004747
 20
-281.95503059599997
 30
0.0
 11
-6.9522397458003979
 21
-281.93625009440012
 31
0.0
  0
LINE
  8
DETAIL
  6
CONTINUOUS
 62
     5
 10
-6.9522397458003979
 20
-281.93625009440012
 30
0.0
 11
-7.7511414962000336
 21
-281.91509808820001
 31
0.0
  0
LINE
  8
DETAIL
  6
CONTINUOUS
 62
     5
 10
-7.7511414962000336
 20
-281.91509808820001
 30
0.0
 11
-8.4723865524001667
 21
-281.89185208280003
 31
0.0
  0
LINE
  8
DETAIL
  6
CONTINUOUS
 62
     5
 10
-8.4723865524001667
 20
-281.89185208280003
 30
0.0
 11
-9.1117838526006381
 21
-281.86668148119998
 31
0.0
  0
LINE
  8
DETAIL
  6
CONTINUOUS
 62
     5
 10
-9.1117838526006381
 20
-281.86668148119998
 30
0.0
 11
-9.6647524668005644
 21
-281.83976238359992
 31
0.0
  0
LINE
  8
DETAIL
  6
CONTINUOUS
 62
     5
 10
-9.6647524668005644
 20
-281.83976238359992
 30
0.0
 11
-10.125050635200751
 21
-281.81138209999989
 31
0.0
  0
LINE
  8
DETAIL
  6
CONTINUOUS
 62
     5
 10
-10.125050635200751
 20
-281.81138209999989
 30
0.0
 11
-10.4880740988001
 21
-281.78182138500011
 31
0.0
  0
LINE
  8
DETAIL
  6
CONTINUOUS
 62
     5
 10
-10.4880740988001
 20
-281.78182138500011
 30
0.0
 11
-10.750279666400271
 21
-281.75137280780001
 31
0.0
  0
LINE
  8
DETAIL
  6
CONTINUOUS
 62
     5
 10
-10.750279666400271
 20
-281.75137280780001
 30
0.0
 11
-10.91904211080055
 21
-281.71731672940001
 31
0.0
  0
LINE
  8
DETAIL
  6
CONTINUOUS
 62
     5
 10
0.0
 20
-280.61323261019987
 30
0.0
 11
-1.172450593000576
 21
-280.61155427359989
 31
0.0
  0
LINE
  8
DETAIL
  6
CONTINUOUS
 62
     5
 10
-1.172450593000576
 20
-280.61155427359989
 30
0.0
 11
-2.333742651000648
 21
-280.60653576499999
 31
0.0
  0
LINE
  8
DETAIL
  6
CONTINUOUS
 62
     5
 10
-2.333742651000648
 20
-280.60653576499999
 30
0.0
 11
-3.471940777600139
 21
-280.59823193940002
 31
0.0
  0
LINE
  8
DETAIL
  6
CONTINUOUS
 62
     5
 10
-3.471940777600139
 20
-280.59823193940002
 30
0.0
 11
-4.5785965498007499
 21
-280.58669977699992
 31
0.0
  0
LINE
  8
DETAIL
  6
CONTINUOUS
 62
     5
 10
-4.5785965498007499
 20
-280.58669977699992
 30
0.0
 11
-5.645994989200517
 21
-280.57198732199998
 31
0.0
  0
LINE
  8
DETAIL
  6
CONTINUOUS
 62
     5
 10
-5.645994989200517
 20
-280.57198732199998
 30
0.0
 11
-6.6601735724007094
 21
-280.55425453900011
 31
0.0
  0
LINE
  8
DETAIL
  6
CONTINUOUS
 62
     5
 10
-6.6601735724007094
 20
-280.55425453900011
 30
0.0
 11
-7.6094935368000733
 21
-280.53369852660012
 31
0.0
  0
LINE
  8
DETAIL
  6
CONTINUOUS
 62
     5
 10
-7.6094935368000733
 20
-280.53369852660012
 30
0.0
 11
-8.483922607400018
 21
-280.51054671119999
 31
0.0
  0
LINE
  8
DETAIL
  6
CONTINUOUS
 62
     5
 10
-8.483922607400018
 20
-280.51054671119999
 30
0.0
 11
-9.2733529908000492
 21
-280.48510308760001
 31
0.0
  0
LINE
  8
DETAIL
  6
CONTINUOUS
 62
     5
 10
-9.2733529908000492
 20
-280.48510308760001
 30
0.0
 11
-9.9731977594001364
 21
-280.45755294340012
 31
0.0
  0
LINE
  8
DETAIL
  6
CONTINUOUS
 62
     5
 10
10.585440237999141
 20
-280.42770654919991
 30
0.0
 11
9.9789301923992753
 21
-280.45730232900002
 31
0.0
  0
LINE
  8
DETAIL
  6
CONTINUOUS
 62
     5
 10
9.9789301923992753
 20
-280.45730232900002
 30
0.0
 11
9.2755879641999854
 21
-280.48502354459993
 31
0.0
  0
LINE
  8
DETAIL
  6
CONTINUOUS
 62
     5
 10
9.2755879641999854
 20
-280.48502354459993
 30
0.0
 11
8.4825009605992818
 21
-280.51058826839989
 31
0.0
  0
LINE
  8
DETAIL
  6
CONTINUOUS
 62
     5
 10
8.4825009605992818
 20
-280.51058826839989
 30
0.0
 11
7.6078345763999096
 21
-280.53373829420002
 31
0.0
  0
LINE
  8
DETAIL
  6
CONTINUOUS
 62
     5
 10
7.6078345763999096
 20
-280.53373829420002
 30
0.0
 11
6.6596226749998104
 21
-280.55426527959997
 31
0.0
  0
LINE
  8
DETAIL
  6
CONTINUOUS
 62
     5
 10
6.6596226749998104
 20
-280.55426527959997
 30
0.0
 11
5.645757491999575
 21
-280.57199104699998
 31
0.0
  0
LINE
  8
DETAIL
  6
CONTINUOUS
 62
     5
 10
5.645757491999575
 20
-280.57199104699998
 30
0.0
 11
4.5785599593991719
 21
-280.58670026300001
 31
0.0
  0
LINE
  8
DETAIL
  6
CONTINUOUS
 62
     5
 10
4.5785599593991719
 20
-280.58670026300001
 30
0.0
 11
3.4719590071999851
 21
-280.59823179
 31
0.0
  0
LINE
  8
DETAIL
  6
CONTINUOUS
 62
     5
 10
3.4719590071999851
 20
-280.59823179
 30
0.0
 11
2.3337425115996671
 21
-280.60653574200001
 31
0.0
  0
LINE
  8
DETAIL
  6
CONTINUOUS
 62
     5
 10
2.3337425115996671
 20
-280.60653574200001
 30
0.0
 11
1.172455411199735
 21
-280.61155423640002
 31
0.0
  0
LINE
  8
DETAIL
  6
CONTINUOUS
 62
     5
 10
1.172455411199735
 20
-280.61155423640002
 30
0.0
 11
0.0
 21
-280.61323261019987
 31
0.0
  0
LINE
  8
DETAIL
  6
CONTINUOUS
 62
     5
 10
10.91904208199958
 20
-281.71731673879998
 30
0.0
 11
10.75542632479937
 21
-281.75061659779999
 31
0.0
  0
LINE
  8
DETAIL
  6
CONTINUOUS
 62
     5
 10
10.75542632479937
 20
-281.75061659779999
 30
0.0
 11
10.49437774439957
 21
-281.78121419140012
 31
0.0
  0
LINE
  8
DETAIL
  6
CONTINUOUS
 62
     5
 10
10.49437774439957
 20
-281.78121419140012
 30
0.0
 11
10.13171296079963
 21
-281.81091220600001
 31
0.0
  0
LINE
  8
DETAIL
  6
CONTINUOUS
 62
     5
 10
10.13171296079963
 20
-281.81091220600001
 30
0.0
 11
9.6711451887995281
 21
-281.83941300399988
 31
0.0
  0
LINE
  8
DETAIL
  6
CONTINUOUS
 62
     5
 10
9.6711451887995281
 20
-281.83941300399988
 30
0.0
 11
9.1170211205999294
 21
-281.86645252359989
 31
0.0
  0
LINE
  8
DETAIL
  6
CONTINUOUS
 62
     5
 10
9.1170211205999294
 20
-281.86645252359989
 30
0.0
 11
8.4744283415993777
 21
-281.8917794514
 31
0.0
  0
LINE
  8
DETAIL
  6
CONTINUOUS
 62
     5
 10
8.4744283415993777
 20
-281.8917794514
 30
0.0
 11
7.7498424373998196
 21
-281.91513611919999
 31
0.0
  0
LINE
  8
DETAIL
  6
CONTINUOUS
 62
     5
 10
7.7498424373998196
 20
-281.91513611919999
 30
0.0
 11
6.9507240029997774
 21
-281.93628645140012
 31
0.0
  0
LINE
  8
DETAIL
  6
CONTINUOUS
 62
     5
 10
6.9507240029997774
 20
-281.93628645140012
 30
0.0
 11
6.0844120415995349
 21
-281.95504040280002
 31
0.0
  0
LINE
  8
DETAIL
  6
CONTINUOUS
 62
     5
 10
6.0844120415995349
 20
-281.95504040280002
 30
0.0
 11
5.1581161111998881
 21
-281.97123570759999
 31
0.0
  0
LINE
  8
DETAIL
  6
CONTINUOUS
 62
     5
 10
5.1581161111998881
 20
-281.97123570759999
 30
0.0
 11
4.183095128199966
 21
-281.98467477079998
 31
0.0
  0
LINE
  8
DETAIL
  6
CONTINUOUS
 62
     5
 10
4.183095128199966
 20
-281.98467477079998
 30
0.0
 11
3.1720761573997152
 21
-281.99520923040001
 31
0.0
  0
LINE
  8
DETAIL
  6
CONTINUOUS
 62
     5
 10
3.1720761573997152
 20
-281.99520923040001
 30
0.0
 11
2.132171478599957
 21
-282.00279494060021
 31
0.0
  0
LINE
  8
DETAIL
  6
CONTINUOUS
 62
     5
 10
2.132171478599957
 20
-282.00279494060021
 30
0.0
 11
1.071187495799677
 21
-282.00738017959998
 31
0.0
  0
LINE
  8
DETAIL
  6
CONTINUOUS
 62
     5
 10
1.071187495799677
 20
-282.00738017959998
 30
0.0
 11
0.0
 21
-282.00891461100002
 31
0.0
  0
LINE
  8
DETAIL
  6
CONTINUOUS
 62
     5
 10
1.5388159464000639
 20
-284.7514739738001
 30
0.0
 11
1.521611659399241
 21
-284.75525182820002
 31
0.0
  0
LINE
  8
DETAIL
  6
CONTINUOUS
 62
     5
 10
1.521611659399241
 20
-284.75525182820002
 30
0.0
 11
1.4519049465998251
 21
-284.76285527419998
 31
0.0
  0
LINE
  8
DETAIL
  6
CONTINUOUS
 62
     5
 10
1.4519049465998251
 20
-284.76285527419998
 30
0.0
 11
1.3380828365998241
 21
-284.76998942699993
 31
0.0
  0
LINE
  8
DETAIL
  6
CONTINUOUS
 62
     5
 10
1.3380828365998241
 20
-284.76998942699993
 30
0.0
 11
1.18360375679913
 21
-284.77643751879998
 31
0.0
  0
LINE
  8
DETAIL
  6
CONTINUOUS
 62
     5
 10
1.18360375679913
 20
-284.77643751879998
 30
0.0
 11
0.9931614757997522
 21
-284.78200362759998
 31
0.0
  0
LINE
  8
DETAIL
  6
CONTINUOUS
 62
     5
 10
0.9931614757997522
 20
-284.78200362759998
 30
0.0
 11
0.7725424857999315
 21
-284.78651863019991
 31
0.0
  0
LINE
  8
DETAIL
  6
CONTINUOUS
 62
     5
 10
0.7725424857999315
 20
-284.78651863019991
 30
0.0
 11
0.5284501833994
 21
-284.78984534019992
 31
0.0
  0
LINE
  8
DETAIL
  6
CONTINUOUS
 62
     5
 10
0.5284501833994
 20
-284.78984534019992
 30
0.0
 11
0.268301189599697
 21
-284.79188267740011
 31
0.0
  0
LINE
  8
DETAIL
  6
CONTINUOUS
 62
     5
 10
0.268301189599697
 20
-284.79188267740011
 30
0.0
 11
0.0
 21
-284.79256873840001
 31
0.0
  0
LINE
  8
DETAIL
  6
CONTINUOUS
 62
     5
 10
-181.33320378260029
 20
-256.9624931802
 30
0.0
 11
-181.31133815520019
 21
-256.96439941199992
 31
0.0
  0
LINE
  8
DETAIL
  6
CONTINUOUS
 62
     5
 10
-181.40277492360019
 20
-256.96045114100002
 30
0.0
 11
-181.32792709040041
 21
-256.96295319880011
 31
0.0
  0
LINE
  8
DETAIL
  6
CONTINUOUS
 62
     5
 10
0.0
 20
-261.12452468700008
 30
0.0
 11
-1.0634859726005741
 21
-261.12234966939991
 31
0.0
  0
LINE
  8
DETAIL
  6
CONTINUOUS
 62
     5
 10
-1.0634859726005741
 20
-261.12234966939991
 30
0.0
 11
-2.1167299940007069
 21
-261.11584556320008
 31
0.0
  0
LINE
  8
DETAIL
  6
CONTINUOUS
 62
     5
 10
-2.1167299940007069
 20
-261.11584556320008
 30
0.0
 11
-3.149588748200586
 21
-261.10507500659992
 31
0.0
  0
LINE
  8
DETAIL
  6
CONTINUOUS
 62
     5
 10
-3.149588748200586
 20
-261.10507500659992
 30
0.0
 11
-4.1521152412005904
 21
-261.09014172580009
 31
0.0
  0
LINE
  8
DETAIL
  6
CONTINUOUS
 62
     5
 10
-4.1521152412005904
 20
-261.09014172580009
 30
0.0
 11
-5.1146545946003243
 21
-261.07118953640003
 31
0.0
  0
LINE
  8
DETAIL
  6
CONTINUOUS
 62
     5
 10
-5.1146545946003243
 20
-261.07118953640003
 30
0.0
 11
-6.0279370284006291
 21
-261.04840095859998
 31
0.0
  0
LINE
  8
DETAIL
  6
CONTINUOUS
 62
     5
 10
-6.0279370284006291
 20
-261.04840095859998
 30
0.0
 11
-6.8831671332009137
 21
-261.02199545859997
 31
0.0
  0
LINE
  8
DETAIL
  6
CONTINUOUS
 62
     5
 10
-6.8831671332009137
 20
-261.02199545859997
 30
0.0
 11
-7.6721085760000278
 21
-260.99222733599998
 31
0.0
  0
LINE
  8
DETAIL
  6
CONTINUOUS
 62
     5
 10
-7.6721085760000278
 20
-260.99222733599998
 30
0.0
 11
-8.3871634189999895
 21
-260.95938327399989
 31
0.0
  0
LINE
  8
DETAIL
  6
CONTINUOUS
 62
     5
 10
-8.3871634189999895
 20
-260.95938327399989
 30
0.0
 11
-9.0214452936006637
 21
-260.92377957899998
 31
0.0
  0
LINE
  8
DETAIL
  6
CONTINUOUS
 62
     5
 10
-9.0214452936006637
 20
-260.92377957899998
 30
0.0
 11
-9.568845718200464
 21
-260.88575913380009
 31
0.0
  0
LINE
  8
DETAIL
  6
CONTINUOUS
 62
     5
 10
-9.568845718200464
 20
-260.88575913380009
 30
0.0
 11
-10.02409292780067
 21
-260.84568809620009
 31
0.0
  0
LINE
  8
DETAIL
  6
CONTINUOUS
 62
     5
 10
-10.02409292780067
 20
-260.84568809620009
 30
0.0
 11
-10.382802642800019
 21
-260.8039523722
 31
0.0
  0
LINE
  8
DETAIL
  6
CONTINUOUS
 62
     5
 10
-10.382802642800019
 20
-260.8039523722
 30
0.0
 11
-10.641520292399949
 21
-260.76095389960011
 31
0.0
  0
LINE
  8
DETAIL
  6
CONTINUOUS
 62
     5
 10
-10.641520292399949
 20
-260.76095389960011
 30
0.0
 11
-10.797754284400069
 21
-260.71710677719989
 31
0.0
  0
LINE
  8
DETAIL
  6
CONTINUOUS
 62
     5
 10
-10.797754284400069
 20
-260.71710677719989
 30
0.0
 11
-10.84999126340063
 21
-260.67340648940012
 31
0.0
  0
LINE
  8
DETAIL
  6
CONTINUOUS
 62
     5
 10
181.3113381595995
 20
-256.96439941199992
 30
0.0
 11
-181.3113381598005
 21
-256.96439941199992
 31
0.0
  0
LINE
  8
DETAIL
  6
CONTINUOUS
 62
     5
 10
-182.5
 20
-255.78194327160011
 30
0.0
 11
-181.90000000000049
 21
-255.78194327160011
 31
0.0
  0
LINE
  8
DETAIL
  6
CONTINUOUS
 62
     5
 10
182.5
 20
-255.78194327160011
 30
0.0
 11
181.89999999999961
 21
-255.78194327160011
 31
0.0
  0
LINE
  8
DETAIL
  6
CONTINUOUS
 62
     5
 10
-181.90000000000049
 20
-255.7643994120001
 30
0.0
 11
181.89999999999961
 21
-255.7643994120001
 31
0.0
  0
LINE
  8
DETAIL
  6
CONTINUOUS
 62
     5
 10
-182.5
 20
-255.7468555522
 30
0.0
 11
-181.90000000000049
 21
-255.7468555522
 31
0.0
  0
LINE
  8
DETAIL
  6
CONTINUOUS
 62
     5
 10
182.5
 20
-255.7468555522
 30
0.0
 11
181.89999999999961
 21
-255.7468555522
 31
0.0
  0
LINE
  8
DETAIL
  6
CONTINUOUS
 62
     5
 10
0.0
 20
-261.68189771120001
 30
0.0
 11
1.0833054369995809
 21
-261.68032365319999
 31
0.0
  0
LINE
  8
DETAIL
  6
CONTINUOUS
 62
     5
 10
1.0833054369995809
 20
-261.68032365319999
 30
0.0
 11
2.145993542199903
 21
-261.67572017840013
 31
0.0
  0
LINE
  8
DETAIL
  6
CONTINUOUS
 62
     5
 10
2.145993542199903
 20
-261.67572017840013
 30
0.0
 11
3.1930205699991352
 21
-261.66804334499989
 31
0.0
  0
LINE
  8
DETAIL
  6
CONTINUOUS
 62
     5
 10
3.1930205699991352
 20
-261.66804334499989
 30
0.0
 11
4.2095177559995136
 21
-261.65742497939999
 31
0.0
  0
LINE
  8
DETAIL
  6
CONTINUOUS
 62
     5
 10
4.2095177559995136
 20
-261.65742497939999
 30
0.0
 11
5.1851840459994492
 21
-261.6439255496
 31
0.0
  0
LINE
  8
DETAIL
  6
CONTINUOUS
 62
     5
 10
5.1851840459994492
 20
-261.6439255496
 30
0.0
 11
6.1112725631992362
 21
-261.62771518799991
 31
0.0
  0
LINE
  8
DETAIL
  6
CONTINUOUS
 62
     5
 10
6.1112725631992362
 20
-261.62771518799991
 30
0.0
 11
6.9780838071992548
 21
-261.60891193740008
 31
0.0
  0
LINE
  8
DETAIL
  6
CONTINUOUS
 62
     5
 10
6.9780838071992548
 20
-261.60891193740008
 30
0.0
 11
7.778174592999676
 21
-261.58773253520008
 31
0.0
  0
LINE
  8
DETAIL
  6
CONTINUOUS
 62
     5
 10
7.778174592999676
 20
-261.58773253520008
 30
0.0
 11
8.5028197207993799
 21
-261.5643480622
 31
0.0
  0
LINE
  8
DETAIL
  6
CONTINUOUS
 62
     5
 10
8.5028197207993799
 20
-261.5643480622
 30
0.0
 11
9.1461657351992471
 21
-261.53901353200013
 31
0.0
  0
LINE
  8
DETAIL
  6
CONTINUOUS
 62
     5
 10
9.1461657351992471
 20
-261.53901353200013
 30
0.0
 11
9.7007970411996212
 21
-261.51194648860002
 31
0.0
  0
LINE
  8
DETAIL
  6
CONTINUOUS
 62
     5
 10
9.7007970411996212
 20
-261.51194648860002
 30
0.0
 11
10.162674857600001
 21
-261.48343042200008
 31
0.0
  0
LINE
  8
DETAIL
  6
CONTINUOUS
 62
     5
 10
10.162674857600001
 20
-261.48343042200008
 30
0.0
 11
10.5259781713994
 21
-261.45372097960012
 31
0.0
  0
LINE
  8
DETAIL
  6
CONTINUOUS
 62
     5
 10
10.5259781713994
 20
-261.45372097960012
 30
0.0
 11
10.788638084399279
 21
-261.42311923300008
 31
0.0
  0
LINE
  8
DETAIL
  6
CONTINUOUS
 62
     5
 10
10.788638084399279
 20
-261.42311923300008
 30
0.0
 11
10.94665186359998
 21
-261.39190910880012
 31
0.0
  0
LINE
  8
DETAIL
  6
CONTINUOUS
 62
     5
 10
10.94665186359998
 20
-261.39190910880012
 30
0.0
 11
11.0
 21
-261.36039769059988
 31
0.0
  0
LINE
  8
DETAIL
  6
CONTINUOUS
 62
     5
 10
0.0
 20
-261.7111249858001
 30
0.0
 11
1.351862796799651
 21
-261.7088715018001
 31
0.0
  0
LINE
  8
DETAIL
  6
CONTINUOUS
 62
     5
 10
1.351862796799651
 20
-261.7088715018001
 30
0.0
 11
2.670251207399815
 21
-261.7023315202
 31
0.0
  0
LINE
  8
DETAIL
  6
CONTINUOUS
 62
     5
 10
2.670251207399815
 20
-261.7023315202
 30
0.0
 11
3.963114191799832
 21
-261.69142374680001
 31
0.0
  0
LINE
  8
DETAIL
  6
CONTINUOUS
 62
     5
 10
3.963114191799832
 20
-261.69142374680001
 30
0.0
 11
5.2066048693995981
 21
-261.67639206479998
 31
0.0
  0
LINE
  8
DETAIL
  6
CONTINUOUS
 62
     5
 10
5.2066048693995981
 20
-261.67639206479998
 30
0.0
 11
6.3840070891992582
 21
-261.65734940400012
 31
0.0
  0
LINE
  8
DETAIL
  6
CONTINUOUS
 62
     5
 10
6.3840070891992582
 20
-261.65734940400012
 30
0.0
 11
7.4818776222000452
 21
-261.6346073318
 31
0.0
  0
LINE
  8
DETAIL
  6
CONTINUOUS
 62
     5
 10
7.4818776222000452
 20
-261.6346073318
 30
0.0
 11
8.4847792137998113
 21
-261.60838466259997
 31
0.0
  0
LINE
  8
DETAIL
  6
CONTINUOUS
 62
     5
 10
8.4847792137998113
 20
-261.60838466259997
 30
0.0
 11
9.3819777895996594
 21
-261.57907258239987
 31
0.0
  0
LINE
  8
DETAIL
  6
CONTINUOUS
 62
     5
 10
9.3819777895996594
 20
-261.57907258239987
 30
0.0
 11
10.16008907939977
 21
-261.54698481880001
 31
0.0
  0
LINE
  8
DETAIL
  6
CONTINUOUS
 62
     5
 10
10.16008907939977
 20
-261.54698481880001
 30
0.0
 11
10.811626414799321
 21
-261.51257256079998
 31
0.0
  0
LINE
  8
DETAIL
  6
CONTINUOUS
 62
     5
 10
10.811626414799321
 20
-261.51257256079998
 30
0.0
 11
11.325929653599809
 21
-261.47622871740009
 31
0.0
  0
LINE
  8
DETAIL
  6
CONTINUOUS
 62
     5
 10
11.325929653599809
 20
-261.47622871740009
 30
0.0
 11
11.699134946199591
 21
-261.43844185580002
 31
0.0
  0
LINE
  8
DETAIL
  6
CONTINUOUS
 62
     5
 10
11.699134946199591
 20
-261.43844185580002
 30
0.0
 11
11.92384082219996
 21
-261.3996643644
 31
0.0
  0
LINE
  8
DETAIL
  6
CONTINUOUS
 62
     5
 10
11.92384082219996
 20
-261.3996643644
 30
0.0
 11
12.0
 21
-261.36039769059988
 31
0.0
  0
LINE
  8
DETAIL
  6
CONTINUOUS
 62
     5
 10
181.40277492339919
 20
-256.96045114100002
 30
0.0
 11
181.3279270903995
 21
-256.96295319880011
 31
0.0
  0
LINE
  8
DETAIL
  6
CONTINUOUS
 62
     5
 10
-10.833640872400791
 20
-261.20977849780002
 30
0.0
 11
-11.325929653800809
 21
-261.24456666380001
 31
0.0
  0
LINE
  8
DETAIL
  6
CONTINUOUS
 62
     5
 10
-11.325929653800809
 20
-261.24456666380001
 30
0.0
 11
-11.6991349462005
 21
-261.28235352520011
 31
0.0
  0
LINE
  8
DETAIL
  6
CONTINUOUS
 62
     5
 10
-11.6991349462005
 20
-261.28235352520011
 30
0.0
 11
-11.92384082219996
 21
-261.32113101660002
 31
0.0
  0
LINE
  8
DETAIL
  6
CONTINUOUS
 62
     5
 10
-11.92384082219996
 20
-261.32113101660002
 30
0.0
 11
-12.0
 21
-261.36039769059988
 31
0.0
  0
LINE
  8
DETAIL
  6
CONTINUOUS
 62
     5
 10
181.33320378259941
 20
-256.9624931802
 30
0.0
 11
181.31133815519931
 21
-256.96439941199992
 31
0.0
  0
LINE
  8
DETAIL
  6
CONTINUOUS
 62
     5
 10
-10.83070816100008
 20
-261.30598562780011
 30
0.0
 11
-10.94665186359998
 21
-261.32888627220001
 31
0.0
  0
LINE
  8
DETAIL
  6
CONTINUOUS
 62
     5
 10
-10.94665186359998
 20
-261.32888627220001
 30
0.0
 11
-11.0
 21
-261.36039769059988
 31
0.0
  0
LINE
  8
DETAIL
  6
CONTINUOUS
 62
     5
 10
1.5388159464000639
 20
-284.7514739738001
 30
0.0
 11
1.4057499769996871
 21
-284.79247821280001
 31
0.0
  0
LINE
  8
DETAIL
  6
CONTINUOUS
 62
     5
 10
1.4057499769996871
 20
-284.79247821280001
 30
0.0
 11
1.28573285839957
 21
-284.82602109439989
 31
0.0
  0
LINE
  8
DETAIL
  6
CONTINUOUS
 62
     5
 10
1.28573285839957
 20
-284.82602109439989
 30
0.0
 11
1.181644628599315
 21
-284.85252459280008
 31
0.0
  0
LINE
  8
DETAIL
  6
CONTINUOUS
 62
     5
 10
1.181644628599315
 20
-284.85252459280008
 30
0.0
 11
1.0861976163996589
 21
-284.87475066719998
 31
0.0
  0
LINE
  8
DETAIL
  6
CONTINUOUS
 62
     5
 10
1.0861976163996589
 20
-284.87475066719998
 30
0.0
 11
0.9921485405993735
 21
-284.89473463519988
 31
0.0
  0
LINE
  8
DETAIL
  6
CONTINUOUS
 62
     5
 10
0.9921485405993735
 20
-284.89473463519988
 30
0.0
 11
0.9015227249992677
 21
-284.91221319480002
 31
0.0
  0
LINE
  8
DETAIL
  6
CONTINUOUS
 62
     5
 10
0.9015227249992677
 20
-284.91221319480002
 30
0.0
 11
0.8135474565997356
 21
-284.92752912840001
 31
0.0
  0
LINE
  8
DETAIL
  6
CONTINUOUS
 62
     5
 10
0.8135474565997356
 20
-284.92752912840001
 30
0.0
 11
0.7293399221998698
 21
-284.94067934920008
 31
0.0
  0
LINE
  8
DETAIL
  6
CONTINUOUS
 62
     5
 10
0.7293399221998698
 20
-284.94067934920008
 30
0.0
 11
0.6502026493999438
 21
-284.95170242239988
 31
0.0
  0
LINE
  8
DETAIL
  6
CONTINUOUS
 62
     5
 10
0.6502026493999438
 20
-284.95170242239988
 30
0.0
 11
0.5748174097998344
 21
-284.96100762219999
 31
0.0
  0
LINE
  8
DETAIL
  6
CONTINUOUS
 62
     5
 10
0.5748174097998344
 20
-284.96100762219999
 30
0.0
 11
0.5021783899992443
 21
-284.96887679399993
 31
0.0
  0
LINE
  8
DETAIL
  6
CONTINUOUS
 62
     5
 10
0.5021783899992443
 20
-284.96887679399993
 30
0.0
 11
0.4328041387998383
 21
-284.97539186620008
 31
0.0
  0
LINE
  8
DETAIL
  6
CONTINUOUS
 62
     5
 10
0.4328041387998383
 20
-284.97539186620008
 30
0.0
 11
0.3670655815994905
 21
-284.98066710319989
 31
0.0
  0
LINE
  8
DETAIL
  6
CONTINUOUS
 62
     5
 10
0.3670655815994905
 20
-284.98066710319989
 30
0.0
 11
0.3046711613997104
 21
-284.98486794499991
 31
0.0
  0
LINE
  8
DETAIL
  6
CONTINUOUS
 62
     5
 10
0.3046711613997104
 20
-284.98486794499991
 30
0.0
 11
0.2455491887994867
 21
-284.9881259440001
 31
0.0
  0
LINE
  8
DETAIL
  6
CONTINUOUS
 62
     5
 10
0.2455491887994867
 20
-284.9881259440001
 30
0.0
 11
0.189960849599629
 21
-284.99054921359988
 31
0.0
  0
LINE
  8
DETAIL
  6
CONTINUOUS
 62
     5
 10
0.189960849599629
 20
-284.99054921359988
 30
0.0
 11
0.1373617429999285
 21
-284.99227182839991
 31
0.0
  0
LINE
  8
DETAIL
  6
CONTINUOUS
 62
     5
 10
0.1373617429999285
 20
-284.99227182839991
 30
0.0
 11
0.0892630270000154
 21
-284.99336217680002
 31
0.0
  0
LINE
  8
DETAIL
  6
CONTINUOUS
 62
     5
 10
0.0892630270000154
 20
-284.99336217680002
 30
0.0
 11
0.0448357331997613
 21
-284.99395798239988
 31
0.0
  0
LINE
  8
DETAIL
  6
CONTINUOUS
 62
     5
 10
0.0448357331997613
 20
-284.99395798239988
 30
0.0
 11
0.0
 21
-284.99415902919998
 31
0.0
  0
LINE
  8
DETAIL
  6
CONTINUOUS
 62
     5
 10
1.5388159464000639
 20
-284.7514739738001
 30
0.0
 11
10.919042099799301
 21
-281.71731673300002
 31
0.0
  0
LINE
  8
DETAIL
  6
CONTINUOUS
 62
     5
 10
10.919042108599569
 20
-281.71731673020008
 30
0.0
 11
11.024768758999929
 21
-281.67933693179998
 31
0.0
  0
LINE
  8
DETAIL
  6
CONTINUOUS
 62
     5
 10
11.024768758999929
 20
-281.67933693179998
 30
0.0
 11
11.144432658799809
 21
-281.62627036959998
 31
0.0
  0
LINE
  8
DETAIL
  6
CONTINUOUS
 62
     5
 10
11.144432658799809
 20
-281.62627036959998
 30
0.0
 11
11.27535910539973
 21
-281.55391398260008
 31
0.0
  0
LINE
  8
DETAIL
  6
CONTINUOUS
 62
     5
 10
11.27535910539973
 20
-281.55391398260008
 30
0.0
 11
11.41625513419967
 21
-281.45591384499988
 31
0.0
  0
LINE
  8
DETAIL
  6
CONTINUOUS
 62
     5
 10
11.41625513419967
 20
-281.45591384499988
 30
0.0
 11
11.565157884199831
 21
-281.32307612860001
 31
0.0
  0
LINE
  8
DETAIL
  6
CONTINUOUS
 62
     5
 10
11.565157884199831
 20
-281.32307612860001
 30
0.0
 11
11.706666088199199
 21
-281.15684979140002
 31
0.0
  0
LINE
  8
DETAIL
  6
CONTINUOUS
 62
     5
 10
11.706666088199199
 20
-281.15684979140002
 30
0.0
 11
11.82880373339958
 21
-280.96075157859991
 31
0.0
  0
LINE
  8
DETAIL
  6
CONTINUOUS
 62
     5
 10
11.82880373339958
 20
-280.96075157859991
 30
0.0
 11
11.92238897679999
 21
-280.74024954960009
 31
0.0
  0
LINE
  8
DETAIL
  6
CONTINUOUS
 62
     5
 10
11.92238897679999
 20
-280.74024954960009
 30
0.0
 11
11.98016035519959
 21
-280.50639701559999
 31
0.0
  0
LINE
  8
DETAIL
  6
CONTINUOUS
 62
     5
 10
11.98016035519959
 20
-280.50639701559999
 30
0.0
 11
12.0
 21
-280.26250531479991
 31
0.0
  0
LINE
  8
DETAIL
  6
CONTINUOUS
 62
     5
 10
12.0
 20
-280.26250531440002
 30
0.0
 11
11.943985720599811
 21
-280.29635354319998
 31
0.0
  0
LINE
  8
DETAIL
  6
CONTINUOUS
 62
     5
 10
11.943985720599811
 20
-280.29635354319998
 30
0.0
 11
11.77222752619946
 21
-280.33051549300012
 31
0.0
  0
LINE
  8
DETAIL
  6
CONTINUOUS
 62
     5
 10
11.77222752619946
 20
-280.33051549300012
 30
0.0
 11
11.48649986999953
 21
-280.36400572339988
 31
0.0
  0
LINE
  8
DETAIL
  6
CONTINUOUS
 62
     5
 10
11.48649986999953
 20
-280.36400572339988
 30
0.0
 11
11.089549369799901
 21
-280.39651133040002
 31
0.0
  0
LINE
  8
DETAIL
  6
CONTINUOUS
 62
     5
 10
11.089549369799901
 20
-280.39651133040002
 30
0.0
 11
10.585440237999141
 21
-280.42770654919991
 31
0.0
  0
LINE
  8
DETAIL
  6
CONTINUOUS
 62
     5
 10
182.49972937579969
 20
-255.8074316843998
 30
0.0
 11
181.89986468779989
 21
-255.79469521860011
 31
0.0
  0
LINE
  8
DETAIL
  6
CONTINUOUS
 62
     5
 10
-183.0
 20
-240.69999999999999
 30
0.0
 11
-182.5
 21
-240.69999999999999
 31
0.0
  0
LINE
  8
DETAIL
  6
CONTINUOUS
 62
     5
 10
183.0
 20
-240.69999999999999
 30
0.0
 11
182.5
 21
-240.69999999999999
 31
0.0
  0
LINE
  8
DETAIL
  6
CONTINUOUS
 62
     5
 10
182.5
 20
-234.0
 30
0.0
 11
183.0999999999996
 21
-234.0
 31
0.0
  0
LINE
  8
DETAIL
  6
CONTINUOUS
 62
     5
 10
-182.5
 20
-234.0
 30
0.0
 11
-183.10000000000039
 21
-234.0
 31
0.0
  0
LINE
  8
DETAIL
  6
CONTINUOUS
 62
     5
 10
-182.4997293758006
 20
-255.80743168559999
 30
0.0
 11
-181.89986468800089
 21
-255.79469522020011
 31
0.0
  0
LINE
  8
DETAIL
  6
CONTINUOUS
 62
     5
 10
10.84999126319963
 20
-260.67340648940012
 30
0.0
 11
10.79775428439916
 21
-260.71710677719989
 31
0.0
  0
LINE
  8
DETAIL
  6
CONTINUOUS
 62
     5
 10
10.79775428439916
 20
-260.71710677719989
 30
0.0
 11
10.641520292399949
 21
-260.76095389960011
 31
0.0
  0
LINE
  8
DETAIL
  6
CONTINUOUS
 62
     5
 10
10.641520292399949
 20
-260.76095389960011
 30
0.0
 11
10.38280264259993
 21
-260.8039523722
 31
0.0
  0
LINE
  8
DETAIL
  6
CONTINUOUS
 62
     5
 10
10.38280264259993
 20
-260.8039523722
 30
0.0
 11
10.02409292759967
 21
-260.84568809620009
 31
0.0
  0
LINE
  8
DETAIL
  6
CONTINUOUS
 62
     5
 10
10.02409292759967
 20
-260.84568809620009
 30
0.0
 11
9.5688457181995545
 21
-260.88575913380009
 31
0.0
  0
LINE
  8
DETAIL
  6
CONTINUOUS
 62
     5
 10
9.5688457181995545
 20
-260.88575913380009
 30
0.0
 11
9.0214452933996654
 21
-260.92377957899998
 31
0.0
  0
LINE
  8
DETAIL
  6
CONTINUOUS
 62
     5
 10
9.0214452933996654
 20
-260.92377957899998
 30
0.0
 11
8.3871634189999895
 21
-260.95938327399989
 31
0.0
  0
LINE
  8
DETAIL
  6
CONTINUOUS
 62
     5
 10
8.3871634189999895
 20
-260.95938327399989
 30
0.0
 11
7.672108575799939
 21
-260.99222733599998
 31
0.0
  0
LINE
  8
DETAIL
  6
CONTINUOUS
 62
     5
 10
7.672108575799939
 20
-260.99222733599998
 30
0.0
 11
6.8831671332000042
 21
-261.02199545859997
 31
0.0
  0
LINE
  8
DETAIL
  6
CONTINUOUS
 62
     5
 10
6.8831671332000042
 20
-261.02199545859997
 30
0.0
 11
6.0279370281996307
 21
-261.04840095859998
 31
0.0
  0
LINE
  8
DETAIL
  6
CONTINUOUS
 62
     5
 10
6.0279370281996307
 20
-261.04840095859998
 30
0.0
 11
5.1146545945994148
 21
-261.07118953640003
 31
0.0
  0
LINE
  8
DETAIL
  6
CONTINUOUS
 62
     5
 10
5.1146545945994148
 20
-261.07118953640003
 30
0.0
 11
4.1521152411996809
 21
-261.09014172580009
 31
0.0
  0
LINE
  8
DETAIL
  6
CONTINUOUS
 62
     5
 10
4.1521152411996809
 20
-261.09014172580009
 30
0.0
 11
3.149588748199676
 21
-261.10507500659992
 31
0.0
  0
LINE
  8
DETAIL
  6
CONTINUOUS
 62
     5
 10
3.149588748199676
 20
-261.10507500659992
 30
0.0
 11
2.1167299937997091
 21
-261.11584556320008
 31
0.0
  0
LINE
  8
DETAIL
  6
CONTINUOUS
 62
     5
 10
2.1167299937997091
 20
-261.11584556320008
 30
0.0
 11
1.063485972599665
 21
-261.12234966939991
 31
0.0
  0
LINE
  8
DETAIL
  6
CONTINUOUS
 62
     5
 10
1.063485972599665
 20
-261.12234966939991
 30
0.0
 11
0.0
 21
-261.12452468700008
 31
0.0
  0
LINE
  8
DETAIL
  6
CONTINUOUS
 62
     5
 10
181.89999999999961
 20
-232.0
 30
0.0
 11
182.5
 21
-232.0
 31
0.0
  0
LINE
  8
DETAIL
  6
CONTINUOUS
 62
     5
 10
-181.90000000000049
 20
-232.0
 30
0.0
 11
-182.5
 21
-232.0
 31
0.0
  0
LINE
  8
DETAIL
  6
CONTINUOUS
 62
     5
 10
182.5
 20
-231.0
 30
0.0
 11
183.0999999999996
 21
-231.0
 31
0.0
  0
LINE
  8
DETAIL
  6
CONTINUOUS
 62
     5
 10
-182.5
 20
-231.0
 30
0.0
 11
-183.10000000000039
 21
-231.0
 31
0.0
  0
LINE
  8
DETAIL
  6
CONTINUOUS
 62
     5
 10
-183.60000000000039
 20
-229.0
 30
0.0
 11
-183.0
 21
-229.0
 31
0.0
  0
LINE
  8
DETAIL
  6
CONTINUOUS
 62
     5
 10
181.89999999999961
 20
-229.0
 30
0.0
 11
182.5
 21
-229.0
 31
0.0
  0
LINE
  8
DETAIL
  6
CONTINUOUS
 62
     5
 10
183.0999999999996
 20
-229.0
 30
0.0
 11
182.5
 21
-229.0
 31
0.0
  0
LINE
  8
DETAIL
  6
CONTINUOUS
 62
     5
 10
-182.40000000000049
 20
-229.0
 30
0.0
 11
-183.0
 21
-229.0
 31
0.0
  0
LINE
  8
DETAIL
  6
CONTINUOUS
 62
     5
 10
-169.90000000000049
 20
-225.0
 30
0.0
 11
-168.90000000000049
 21
-225.0
 31
0.0
  0
LINE
  8
DETAIL
  6
CONTINUOUS
 62
     5
 10
-167.30000000000021
 20
-225.0
 30
0.0
 11
-98.800000000000182
 21
-225.0
 31
0.0
  0
LINE
  8
DETAIL
  6
CONTINUOUS
 62
     5
 10
-98.800000000000182
 20
-225.0
 30
0.0
 11
-96.900000000000546
 21
-225.0
 31
0.0
  0
LINE
  8
DETAIL
  6
CONTINUOUS
 62
     5
 10
-96.900000000000546
 20
-225.0
 30
0.0
 11
76.699999999999818
 21
-225.0
 31
0.0
  0
LINE
  8
DETAIL
  6
CONTINUOUS
 62
     5
 10
169.89999999999961
 20
-225.0
 30
0.0
 11
180.2999999999993
 21
-225.0
 31
0.0
  0
LINE
  8
DETAIL
  6
CONTINUOUS
 62
     5
 10
169.89999999999961
 20
-225.0
 30
0.0
 11
168.89999999999961
 21
-225.0
 31
0.0
  0
LINE
  8
DETAIL
  6
CONTINUOUS
 62
     5
 10
-169.90000000000049
 20
-225.0
 30
0.0
 11
-180.80000000000021
 21
-225.0
 31
0.0
  0
LINE
  8
DETAIL
  6
CONTINUOUS
 62
     5
 10
10.82737074779925
 20
-261.41546894300001
 30
0.0
 11
10.84999126319963
 21
-260.67340648940012
 31
0.0
  0
LINE
  8
DETAIL
  6
CONTINUOUS
 62
     5
 10
10.849999999999451
 20
-260.67283327700011
 30
0.0
 11
10.84999126319963
 21
-260.67340648940012
 31
0.0
  0
LINE
  8
DETAIL
  6
CONTINUOUS
 62
     5
 10
12.0
 20
-261.36039769059988
 30
0.0
 11
12.0
 21
-280.26250531479991
 31
0.0
  0
LINE
  8
DETAIL
  6
CONTINUOUS
 62
     5
 10
10.849999999999451
 20
-260.67283327700011
 30
0.0
 11
10.849999999999451
 21
-256.96439941199992
 31
0.0
  0
LINE
  8
DETAIL
  6
CONTINUOUS
 62
     5
 10
-10.85000000000036
 20
-260.67283327700011
 30
0.0
 11
-10.85000000000036
 21
-256.96439941199992
 31
0.0
  0
LINE
  8
DETAIL
  6
CONTINUOUS
 62
     5
 10
-12.0
 20
-261.36039769059988
 30
0.0
 11
-12.0
 21
-280.26250531479991
 31
0.0
  0
LINE
  8
DETAIL
  6
CONTINUOUS
 62
     5
 10
-10.84999126340063
 20
-260.67340648940012
 30
0.0
 11
-10.85000000000036
 21
-260.67283327700011
 31
0.0
  0
LINE
  8
DETAIL
  6
CONTINUOUS
 62
     5
 10
-10.82737074800025
 20
-261.41546894300001
 30
0.0
 11
-10.84999126340063
 21
-260.67340648940012
 31
0.0
  0
LINE
  8
DETAIL
  6
CONTINUOUS
 62
     5
 10
-12.0
 20
-280.26250531479991
 30
0.0
 11
-11.98085433980032
 21
-280.5021208352
 31
0.0
  0
LINE
  8
DETAIL
  6
CONTINUOUS
 62
     5
 10
-11.98085433980032
 20
-280.5021208352
 30
0.0
 11
-11.92409611540006
 21
-280.7351022918001
 31
0.0
  0
LINE
  8
DETAIL
  6
CONTINUOUS
 62
     5
 10
-11.92409611540006
 20
-280.7351022918001
 30
0.0
 11
-11.829751290400051
 21
-280.95893149099987
 31
0.0
  0
LINE
  8
DETAIL
  6
CONTINUOUS
 62
     5
 10
-11.829751290400051
 20
-280.95893149099987
 30
0.0
 11
-11.70540373400036
 21
-281.15856652339988
 31
0.0
  0
LINE
  8
DETAIL
  6
CONTINUOUS
 62
     5
 10
-11.70540373400036
 20
-281.15856652339988
 30
0.0
 11
-11.56295813320048
 21
-281.32530838899987
 31
0.0
  0
LINE
  8
DETAIL
  6
CONTINUOUS
 62
     5
 10
-11.56295813320048
 20
-281.32530838899987
 30
0.0
 11
-11.41374153820016
 21
-281.45787383279998
 31
0.0
  0
LINE
  8
DETAIL
  6
CONTINUOUS
 62
     5
 10
-11.41374153820016
 20
-281.45787383279998
 30
0.0
 11
-11.272438302400589
 21
-281.55571011260008
 31
0.0
  0
LINE
  8
DETAIL
  6
CONTINUOUS
 62
     5
 10
-11.272438302400589
 20
-281.55571011260008
 30
0.0
 11
-11.141592825400039
 21
-281.62766584920001
 31
0.0
  0
LINE
  8
DETAIL
  6
CONTINUOUS
 62
     5
 10
-11.141592825400039
 20
-281.62766584920001
 30
0.0
 11
-11.022912069800441
 21
-281.68007224860003
 31
0.0
  0
LINE
  8
DETAIL
  6
CONTINUOUS
 62
     5
 10
-11.022912069800441
 20
-281.68007224860003
 30
0.0
 11
-10.91904212100053
 21
-281.71731672620012
 31
0.0
  0
LINE
  8
DETAIL
  6
CONTINUOUS
 62
     5
 10
11.0
 20
-261.36039769059988
 30
0.0
 11
10.94665186359998
 21
-261.32888627220001
 31
0.0
  0
LINE
  8
DETAIL
  6
CONTINUOUS
 62
     5
 10
10.94665186359998
 20
-261.32888627220001
 30
0.0
 11
10.83070816100008
 21
-261.30598562780011
 31
0.0
  0
LINE
  8
DETAIL
  6
CONTINUOUS
 62
     5
 10
-11.0
 20
-261.36039769059988
 30
0.0
 11
-10.94665186359998
 21
-261.39190910880012
 31
0.0
  0
LINE
  8
DETAIL
  6
CONTINUOUS
 62
     5
 10
-10.94665186359998
 20
-261.39190910880012
 30
0.0
 11
-10.788638084400191
 21
-261.42311923300008
 31
0.0
  0
LINE
  8
DETAIL
  6
CONTINUOUS
 62
     5
 10
-10.788638084400191
 20
-261.42311923300008
 30
0.0
 11
-10.525978171400309
 21
-261.45372097960012
 31
0.0
  0
LINE
  8
DETAIL
  6
CONTINUOUS
 62
     5
 10
-10.525978171400309
 20
-261.45372097960012
 30
0.0
 11
-10.162674857600001
 21
-261.48343042200008
 31
0.0
  0
LINE
  8
DETAIL
  6
CONTINUOUS
 62
     5
 10
-10.162674857600001
 20
-261.48343042200008
 30
0.0
 11
-9.7007970412005307
 21
-261.51194648860002
 31
0.0
  0
LINE
  8
DETAIL
  6
CONTINUOUS
 62
     5
 10
-9.7007970412005307
 20
-261.51194648860002
 30
0.0
 11
-9.1461657354002455
 21
-261.53901353200013
 31
0.0
  0
LINE
  8
DETAIL
  6
CONTINUOUS
 62
     5
 10
-9.1461657354002455
 20
-261.53901353200013
 30
0.0
 11
-8.5028197210003782
 21
-261.5643480622
 31
0.0
  0
LINE
  8
DETAIL
  6
CONTINUOUS
 62
     5
 10
-8.5028197210003782
 20
-261.5643480622
 30
0.0
 11
-7.7781745932006743
 21
-261.58773253520008
 31
0.0
  0
LINE
  8
DETAIL
  6
CONTINUOUS
 62
     5
 10
-7.7781745932006743
 20
-261.58773253520008
 30
0.0
 11
-6.9780838072001643
 21
-261.60891193740008
 31
0.0
  0
LINE
  8
DETAIL
  6
CONTINUOUS
 62
     5
 10
-6.9780838072001643
 20
-261.60891193740008
 30
0.0
 11
-6.1112725632001457
 21
-261.62771518799991
 31
0.0
  0
LINE
  8
DETAIL
  6
CONTINUOUS
 62
     5
 10
-6.1112725632001457
 20
-261.62771518799991
 30
0.0
 11
-5.1851840462004466
 21
-261.6439255496
 31
0.0
  0
LINE
  8
DETAIL
  6
CONTINUOUS
 62
     5
 10
-5.1851840462004466
 20
-261.6439255496
 30
0.0
 11
-4.2095177560004231
 21
-261.65742497939999
 31
0.0
  0
LINE
  8
DETAIL
  6
CONTINUOUS
 62
     5
 10
-4.2095177560004231
 20
-261.65742497939999
 30
0.0
 11
-3.1930205700000438
 21
-261.66804334499989
 31
0.0
  0
LINE
  8
DETAIL
  6
CONTINUOUS
 62
     5
 10
-3.1930205700000438
 20
-261.66804334499989
 30
0.0
 11
-2.145993542200813
 21
-261.67572017840013
 31
0.0
  0
LINE
  8
DETAIL
  6
CONTINUOUS
 62
     5
 10
-2.145993542200813
 20
-261.67572017840013
 30
0.0
 11
-1.083305437200579
 21
-261.68032365319999
 31
0.0
  0
LINE
  8
DETAIL
  6
CONTINUOUS
 62
     5
 10
-1.083305437200579
 20
-261.68032365319999
 30
0.0
 11
0.0
 21
-261.68189771120001
 31
0.0
  0
LINE
  8
DETAIL
  6
CONTINUOUS
 62
     5
 10
12.0
 20
-261.36039769059988
 30
0.0
 11
11.92384082219996
 21
-261.32113101660002
 31
0.0
  0
LINE
  8
DETAIL
  6
CONTINUOUS
 62
     5
 10
11.92384082219996
 20
-261.32113101660002
 30
0.0
 11
11.699134946199591
 21
-261.28235352520011
 31
0.0
  0
LINE
  8
DETAIL
  6
CONTINUOUS
 62
     5
 10
11.699134946199591
 20
-261.28235352520011
 30
0.0
 11
11.325929653599809
 21
-261.24456666380001
 31
0.0
  0
LINE
  8
DETAIL
  6
CONTINUOUS
 62
     5
 10
11.325929653599809
 20
-261.24456666380001
 30
0.0
 11
10.833640872199791
 21
-261.20977849780002
 31
0.0
  0
LINE
  8
DETAIL
  6
CONTINUOUS
 62
     5
 10
-12.0
 20
-261.36039769059988
 30
0.0
 11
-11.92384082219996
 21
-261.3996643644
 31
0.0
  0
LINE
  8
DETAIL
  6
CONTINUOUS
 62
     5
 10
-11.92384082219996
 20
-261.3996643644
 30
0.0
 11
-11.6991349462005
 21
-261.43844185580002
 31
0.0
  0
LINE
  8
DETAIL
  6
CONTINUOUS
 62
     5
 10
-11.6991349462005
 20
-261.43844185580002
 30
0.0
 11
-11.325929653800809
 21
-261.47622871740009
 31
0.0
  0
LINE
  8
DETAIL
  6
CONTINUOUS
 62
     5
 10
-11.325929653800809
 20
-261.47622871740009
 30
0.0
 11
-10.81162641480023
 21
-261.51257256079998
 31
0.0
  0
LINE
  8
DETAIL
  6
CONTINUOUS
 62
     5
 10
-10.81162641480023
 20
-261.51257256079998
 30
0.0
 11
-10.16008907960077
 21
-261.54698481880001
 31
0.0
  0
LINE
  8
DETAIL
  6
CONTINUOUS
 62
     5
 10
-10.16008907960077
 20
-261.54698481880001
 30
0.0
 11
-9.3819777896005689
 21
-261.57907258239987
 31
0.0
  0
LINE
  8
DETAIL
  6
CONTINUOUS
 62
     5
 10
-9.3819777896005689
 20
-261.57907258239987
 30
0.0
 11
-8.4847792140008096
 21
-261.60838466259997
 31
0.0
  0
LINE
  8
DETAIL
  6
CONTINUOUS
 62
     5
 10
-8.4847792140008096
 20
-261.60838466259997
 30
0.0
 11
-7.481877622400134
 21
-261.6346073318
 31
0.0
  0
LINE
  8
DETAIL
  6
CONTINUOUS
 62
     5
 10
-7.481877622400134
 20
-261.6346073318
 30
0.0
 11
-6.3840070894002574
 21
-261.65734940400012
 31
0.0
  0
LINE
  8
DETAIL
  6
CONTINUOUS
 62
     5
 10
-6.3840070894002574
 20
-261.65734940400012
 30
0.0
 11
-5.2066048694005076
 21
-261.67639206479998
 31
0.0
  0
LINE
  8
DETAIL
  6
CONTINUOUS
 62
     5
 10
-5.2066048694005076
 20
-261.67639206479998
 30
0.0
 11
-3.9631141920008299
 21
-261.69142374680001
 31
0.0
  0
LINE
  8
DETAIL
  6
CONTINUOUS
 62
     5
 10
-3.9631141920008299
 20
-261.69142374680001
 30
0.0
 11
-2.6702512076008129
 21
-261.7023315202
 31
0.0
  0
LINE
  8
DETAIL
  6
CONTINUOUS
 62
     5
 10
-2.6702512076008129
 20
-261.7023315202
 30
0.0
 11
-1.3518627970006489
 21
-261.7088715018001
 31
0.0
  0
LINE
  8
DETAIL
  6
CONTINUOUS
 62
     5
 10
-1.3518627970006489
 20
-261.7088715018001
 30
0.0
 11
0.0
 21
-261.7111249858001
 31
0.0
  0
LINE
  8
DETAIL
  6
CONTINUOUS
 62
     5
 10
-1.538815946600153
 20
-284.7514739738001
 30
0.0
 11
-10.91904209980021
 21
-281.71731673300002
 31
0.0
  0
LINE
  8
DETAIL
  6
CONTINUOUS
 62
     5
 10
-181.90000000000049
 20
-255.82813667720009
 30
0.0
 11
-182.40000000000049
 21
-226.59999999999991
 31
0.0
  0
LINE
  8
DETAIL
  6
CONTINUOUS
 62
     5
 10
-182.5
 20
-255.78194327160011
 30
0.0
 11
-183.0
 21
-229.0
 31
0.0
  0
LINE
  8
DETAIL
  6
CONTINUOUS
 62
     5
 10
-183.0
 20
-240.69999999999999
 30
0.0
 11
-183.0
 21
-234.0
 31
0.0
  0
LINE
  8
DETAIL
  6
CONTINUOUS
 62
     5
 10
-183.60000000000039
 20
-229.0
 30
0.0
 11
-183.10000000000039
 21
-234.0
 31
0.0
  0
LINE
  8
DETAIL
  6
CONTINUOUS
 62
     5
 10
-182.5
 20
-255.78194327160011
 30
0.0
 11
-182.4997293758006
 21
-255.80743168559999
 31
0.0
  0
LINE
  8
DETAIL
  6
CONTINUOUS
 62
     5
 10
-182.4997293758006
 20
-255.80743168559999
 30
0.0
 11
-182.4931385742002
 21
-255.9090741821999
 31
0.0
  0
LINE
  8
DETAIL
  6
CONTINUOUS
 62
     5
 10
-182.4931385742002
 20
-255.9090741821999
 30
0.0
 11
-182.47771357360031
 21
-256.01011089640002
 31
0.0
  0
LINE
  8
DETAIL
  6
CONTINUOUS
 62
     5
 10
-182.47771357360031
 20
-256.01011089640002
 30
0.0
 11
-182.45343299880011
 21
-256.10993807680012
 31
0.0
  0
LINE
  8
DETAIL
  6
CONTINUOUS
 62
     5
 10
-182.45343299880011
 20
-256.10993807680012
 30
0.0
 11
-182.42053346180001
 21
-256.20729263499987
 31
0.0
  0
LINE
  8
DETAIL
  6
CONTINUOUS
 62
     5
 10
-182.42053346180001
 20
-256.20729263499987
 30
0.0
 11
-182.37952476960069
 21
-256.30090226200008
 31
0.0
  0
LINE
  8
DETAIL
  6
CONTINUOUS
 62
     5
 10
-182.37952476960069
 20
-256.30090226200008
 30
0.0
 11
-182.33063141840009
 21
-256.39049651880009
 31
0.0
  0
LINE
  8
DETAIL
  6
CONTINUOUS
 62
     5
 10
-182.33063141840009
 20
-256.39049651880009
 30
0.0
 11
-182.27415155160091
 21
-256.47556818980001
 31
0.0
  0
LINE
  8
DETAIL
  6
CONTINUOUS
 62
     5
 10
-182.27415155160091
 20
-256.47556818980001
 30
0.0
 11
-182.2103884750004
 21
-256.55561318519989
 31
0.0
  0
LINE
  8
DETAIL
  6
CONTINUOUS
 62
     5
 10
-182.2103884750004
 20
-256.55561318519989
 30
0.0
 11
-182.13946994459999
 21
-256.63030340499989
 31
0.0
  0
LINE
  8
DETAIL
  6
CONTINUOUS
 62
     5
 10
-182.13946994459999
 20
-256.63030340499989
 30
0.0
 11
-182.0622785318001
 21
-256.69858882900007
 31
0.0
  0
LINE
  8
DETAIL
  6
CONTINUOUS
 62
     5
 10
-182.0622785318001
 20
-256.69858882900007
 30
0.0
 11
-181.97988891400021
 21
-256.75961558519998
 31
0.0
  0
LINE
  8
DETAIL
  6
CONTINUOUS
 62
     5
 10
-181.97988891400021
 20
-256.75961558519998
 30
0.0
 11
-181.8926278994004
 21
-256.8132588005999
 31
0.0
  0
LINE
  8
DETAIL
  6
CONTINUOUS
 62
     5
 10
-181.8926278994004
 20
-256.8132588005999
 30
0.0
 11
-181.80100449300059
 21
-256.85922440500008
 31
0.0
  0
LINE
  8
DETAIL
  6
CONTINUOUS
 62
     5
 10
-181.80100449300059
 20
-256.85922440500008
 30
0.0
 11
-181.7055307242008
 21
-256.89722355260011
 31
0.0
  0
LINE
  8
DETAIL
  6
CONTINUOUS
 62
     5
 10
-181.7055307242008
 20
-256.89722355260011
 30
0.0
 11
-181.60647779999999
 21
-256.9270334723999
 31
0.0
  0
LINE
  8
DETAIL
  6
CONTINUOUS
 62
     5
 10
-181.60647779999999
 20
-256.9270334723999
 30
0.0
 11
-181.5051347894005
 21
-256.94817754780001
 31
0.0
  0
LINE
  8
DETAIL
  6
CONTINUOUS
 62
     5
 10
-181.5051347894005
 20
-256.94817754780001
 30
0.0
 11
-181.40277492360019
 21
-256.96045114100002
 31
0.0
  0
LINE
  8
DETAIL
  6
CONTINUOUS
 62
     5
 10
-181.89479847260009
 20
-255.85950639440011
 30
0.0
 11
-181.88244985900019
 21
-255.92344644280001
 31
0.0
  0
LINE
  8
DETAIL
  6
CONTINUOUS
 62
     5
 10
-181.88244985900019
 20
-255.92344644280001
 30
0.0
 11
-181.8629152652002
 21
-255.9857747044
 31
0.0
  0
LINE
  8
DETAIL
  6
CONTINUOUS
 62
     5
 10
-181.4334812646002
 20
-256.90539114400008
 30
0.0
 11
-181.39999991820059
 21
-256.93318553800009
 31
0.0
  0
LINE
  8
DETAIL
  6
CONTINUOUS
 62
     5
 10
-181.39999991820059
 20
-256.93318553800009
 30
0.0
 11
-181.36651858760069
 21
-256.95227657100008
 31
0.0
  0
LINE
  8
DETAIL
  6
CONTINUOUS
 62
     5
 10
-181.36651858760069
 20
-256.95227657100008
 30
0.0
 11
-181.33320378260029
 21
-256.9624931802
 31
0.0
  0
LINE
  8
DETAIL
  6
CONTINUOUS
 62
     5
 10
-181.90000000000049
 20
-255.82813667720009
 30
0.0
 11
-181.8334813850006
 21
-256.0316989718001
 31
0.0
  0
LINE
  8
DETAIL
  6
CONTINUOUS
 62
     5
 10
-181.8334813850006
 20
-256.0316989718001
 30
0.0
 11
-181.80000005400049
 21
-256.13155969719992
 31
0.0
  0
LINE
  8
DETAIL
  6
CONTINUOUS
 62
     5
 10
-181.80000005400049
 20
-256.13155969719992
 30
0.0
 11
-181.7665187122002
 21
-256.22868641700012
 31
0.0
  0
LINE
  8
DETAIL
  6
CONTINUOUS
 62
     5
 10
-181.7665187122002
 20
-256.22868641700012
 30
0.0
 11
-181.7332316118009
 21
-256.3218237051999
 31
0.0
  0
LINE
  8
DETAIL
  6
CONTINUOUS
 62
     5
 10
-181.7332316118009
 20
-256.3218237051999
 30
0.0
 11
-181.7000000112001
 21
-256.41071346500007
 31
0.0
  0
LINE
  8
DETAIL
  6
CONTINUOUS
 62
     5
 10
-181.7000000112001
 20
-256.41071346500007
 30
0.0
 11
-181.6667684220001
 21
-256.49486191919999
 31
0.0
  0
LINE
  8
DETAIL
  6
CONTINUOUS
 62
     5
 10
-181.6667684220001
 20
-256.49486191919999
 30
0.0
 11
-181.63348133680029
 21
-256.57377855700003
 31
0.0
  0
LINE
  8
DETAIL
  6
CONTINUOUS
 62
     5
 10
-181.63348133680029
 20
-256.57377855700003
 30
0.0
 11
-181.60000000360009
 21
-256.64714504739999
 31
0.0
  0
LINE
  8
DETAIL
  6
CONTINUOUS
 62
     5
 10
-181.60000000360009
 20
-256.64714504739999
 30
0.0
 11
-181.56651866839999
 21
-256.71393818999991
 31
0.0
  0
LINE
  8
DETAIL
  6
CONTINUOUS
 62
     5
 10
-181.56651866839999
 20
-256.71393818999991
 30
0.0
 11
-181.53323157520029
 21
-256.77333539779988
 31
0.0
  0
LINE
  8
DETAIL
  6
CONTINUOUS
 62
     5
 10
-181.53323157520029
 20
-256.77333539779988
 30
0.0
 11
-181.49999997660049
 21
-256.82522620240002
 31
0.0
  0
LINE
  8
DETAIL
  6
CONTINUOUS
 62
     5
 10
-181.49999997660049
 20
-256.82522620240002
 30
0.0
 11
-181.46676836960069
 21
-256.86933491819991
 31
0.0
  0
LINE
  8
DETAIL
  6
CONTINUOUS
 62
     5
 10
-181.46676836960069
 20
-256.86933491819991
 30
0.0
 11
-181.4334812646002
 21
-256.90539114400008
 31
0.0
  0
ARC
  8
DETAIL
  6
CONTINUOUS
 62
     5
 10
178.47749999999999
 20
-236.0
 30
0.0
 40
6.5225
 50
313.89739816709238
 51
44.795412948289567
  0
ARC
  8
DETAIL
  6
CONTINUOUS
 62
     5
 10
180.2999999999993
 20
-226.59999999999991
 30
0.0
 40
1.6000000000000001
 50
0.0
 51
90.0
  0
ARC
  8
DETAIL
  6
CONTINUOUS
 62
     5
 10
182.5
 20
-229.0
 30
0.0
 40
0.6
 50
0.0
 51
180.0
  0
ARC
  8
DETAIL
  6
CONTINUOUS
 62
     5
 10
-178.4775000000009
 20
-236.0
 30
0.0
 40
6.5225
 50
135.2045870517104
 51
226.1026018329076
  0
ARC
  8
DETAIL
  6
CONTINUOUS
 62
     5
 10
-180.80000000000021
 20
-226.59999999999991
 30
0.0
 40
1.6000000000000001
 50
90.0
 51
180.0
  0
ARC
  8
DETAIL
  6
CONTINUOUS
 62
     5
 10
-183.0
 20
-229.0
 30
0.0
 40
0.6
 50
0.0
 51
180.0
  0
LINE
  8
OUTLINE
  6
CONTINUOUS
 62
     3
 10
182.49972937579969
 20
-255.80743168559999
 30
0.0
 11
182.49313857419929
 21
-255.9090741821999
 31
0.0
  0
LINE
  8
OUTLINE
  6
CONTINUOUS
 62
     3
 10
182.49313857419929
 20
-255.9090741821999
 30
0.0
 11
182.47771357339931
 21
-256.01011089640002
 31
0.0
  0
LINE
  8
OUTLINE
  6
CONTINUOUS
 62
     3
 10
182.47771357339931
 20
-256.01011089640002
 30
0.0
 11
182.45343299880011
 21
-256.10993807680012
 31
0.0
  0
LINE
  8
OUTLINE
  6
CONTINUOUS
 62
     3
 10
182.45343299880011
 20
-256.10993807680012
 30
0.0
 11
182.42053346159989
 21
-256.20729263499987
 31
0.0
  0
LINE
  8
OUTLINE
  6
CONTINUOUS
 62
     3
 10
182.42053346159989
 20
-256.20729263499987
 30
0.0
 11
182.37952476939969
 21
-256.30090226200008
 31
0.0
  0
LINE
  8
OUTLINE
  6
CONTINUOUS
 62
     3
 10
182.37952476939969
 20
-256.30090226200008
 30
0.0
 11
182.33063141839921
 21
-256.39049651880009
 31
0.0
  0
LINE
  8
OUTLINE
  6
CONTINUOUS
 62
     3
 10
182.33063141839921
 20
-256.39049651880009
 30
0.0
 11
182.2741515516
 21
-256.47556818980001
 31
0.0
  0
LINE
  8
OUTLINE
  6
CONTINUOUS
 62
     3
 10
182.2741515516
 20
-256.47556818980001
 30
0.0
 11
182.21038847499949
 21
-256.55561318519989
 31
0.0
  0
LINE
  8
OUTLINE
  6
CONTINUOUS
 62
     3
 10
182.21038847499949
 20
-256.55561318519989
 30
0.0
 11
182.13946994439991
 21
-256.63030340499989
 31
0.0
  0
LINE
  8
OUTLINE
  6
CONTINUOUS
 62
     3
 10
182.13946994439991
 20
-256.63030340499989
 30
0.0
 11
182.06227853179919
 21
-256.69858882900007
 31
0.0
  0
LINE
  8
OUTLINE
  6
CONTINUOUS
 62
     3
 10
182.06227853179919
 20
-256.69858882900007
 30
0.0
 11
181.9798889139993
 21
-256.75961558519998
 31
0.0
  0
LINE
  8
OUTLINE
  6
CONTINUOUS
 62
     3
 10
181.9798889139993
 20
-256.75961558519998
 30
0.0
 11
181.89262789939951
 21
-256.8132588005999
 31
0.0
  0
LINE
  8
OUTLINE
  6
CONTINUOUS
 62
     3
 10
181.89262789939951
 20
-256.8132588005999
 30
0.0
 11
181.80100449299971
 21
-256.85922440500008
 31
0.0
  0
LINE
  8
OUTLINE
  6
CONTINUOUS
 62
     3
 10
181.80100449299971
 20
-256.85922440500008
 30
0.0
 11
181.7055307239998
 21
-256.89722355260011
 31
0.0
  0
LINE
  8
OUTLINE
  6
CONTINUOUS
 62
     3
 10
181.7055307239998
 20
-256.89722355260011
 30
0.0
 11
181.60647779999999
 21
-256.9270334723999
 31
0.0
  0
LINE
  8
OUTLINE
  6
CONTINUOUS
 62
     3
 10
181.60647779999999
 20
-256.9270334723999
 30
0.0
 11
181.5051347891995
 21
-256.94817754780001
 31
0.0
  0
LINE
  8
OUTLINE
  6
CONTINUOUS
 62
     3
 10
181.5051347891995
 20
-256.94817754780001
 30
0.0
 11
181.40277492339919
 21
-256.96045114100002
 31
0.0
  0
LINE
  8
OUTLINE
  6
CONTINUOUS
 62
     3
 10
181.43348126439921
 20
-256.90539114400008
 30
0.0
 11
181.39999991819971
 21
-256.93318553800009
 31
0.0
  0
LINE
  8
OUTLINE
  6
CONTINUOUS
 62
     3
 10
181.39999991819971
 20
-256.93318553800009
 30
0.0
 11
181.3665185873997
 21
-256.95227657100008
 31
0.0
  0
LINE
  8
OUTLINE
  6
CONTINUOUS
 62
     3
 10
181.3665185873997
 20
-256.95227657100008
 30
0.0
 11
181.33320378259941
 21
-256.9624931802
 31
0.0
  0
LINE
  8
OUTLINE
  6
CONTINUOUS
 62
     3
 10
182.5
 20
-255.78194327160011
 30
0.0
 11
182.49972937579969
 21
-255.80743168559999
 31
0.0
  0
LINE
  8
OUTLINE
  6
CONTINUOUS
 62
     3
 10
183.0999999999996
 20
-234.0
 30
0.0
 11
183.0999999999996
 21
-229.0
 31
0.0
  0
LINE
  8
OUTLINE
  6
CONTINUOUS
 62
     3
 10
183.0
 20
-240.69999999999999
 30
0.0
 11
183.0
 21
-234.0
 31
0.0
  0
LINE
  8
OUTLINE
  6
CONTINUOUS
 62
     3
 10
182.5
 20
-255.78194327160011
 30
0.0
 11
182.5
 21
-240.69999999999999
 31
0.0
  0
LINE
  8
OUTLINE
  6
CONTINUOUS
 62
     3
 10
181.89999999999961
 20
-229.0
 30
0.0
 11
181.89999999999961
 21
-226.59999999999991
 31
0.0
  0
LINE
  8
OUTLINE
  6
CONTINUOUS
 62
     3
 10
-181.33320378260029
 20
-256.9624931802
 30
0.0
 11
-181.31133815520019
 21
-256.96439941199992
 31
0.0
  0
LINE
  8
OUTLINE
  6
CONTINUOUS
 62
     3
 10
-181.40277492360019
 20
-256.96045114100002
 30
0.0
 11
-181.32792709040041
 21
-256.96295319880011
 31
0.0
  0
LINE
  8
OUTLINE
  6
CONTINUOUS
 62
     3
 10
181.3113381595995
 20
-256.96439941199992
 30
0.0
 11
-181.3113381598005
 21
-256.96439941199992
 31
0.0
  0
LINE
  8
OUTLINE
  6
CONTINUOUS
 62
     3
 10
181.40277492339919
 20
-256.96045114100002
 30
0.0
 11
181.3279270903995
 21
-256.96295319880011
 31
0.0
  0
LINE
  8
OUTLINE
  6
CONTINUOUS
 62
     3
 10
181.33320378259941
 20
-256.9624931802
 30
0.0
 11
181.31133815519931
 21
-256.96439941199992
 31
0.0
  0
LINE
  8
OUTLINE
  6
CONTINUOUS
 62
     3
 10
-183.0
 20
-240.69999999999999
 30
0.0
 11
-182.5
 21
-240.69999999999999
 31
0.0
  0
LINE
  8
OUTLINE
  6
CONTINUOUS
 62
     3
 10
183.0
 20
-240.69999999999999
 30
0.0
 11
182.5
 21
-240.69999999999999
 31
0.0
  0
LINE
  8
OUTLINE
  6
CONTINUOUS
 62
     3
 10
-183.60000000000039
 20
-229.0
 30
0.0
 11
-183.0
 21
-229.0
 31
0.0
  0
LINE
  8
OUTLINE
  6
CONTINUOUS
 62
     3
 10
181.89999999999961
 20
-229.0
 30
0.0
 11
182.5
 21
-229.0
 31
0.0
  0
LINE
  8
OUTLINE
  6
CONTINUOUS
 62
     3
 10
183.0999999999996
 20
-229.0
 30
0.0
 11
182.5
 21
-229.0
 31
0.0
  0
LINE
  8
OUTLINE
  6
CONTINUOUS
 62
     3
 10
-182.40000000000049
 20
-229.0
 30
0.0
 11
-183.0
 21
-229.0
 31
0.0
  0
LINE
  8
OUTLINE
  6
CONTINUOUS
 62
     3
 10
-169.90000000000049
 20
-225.0
 30
0.0
 11
-168.90000000000049
 21
-225.0
 31
0.0
  0
LINE
  8
OUTLINE
  6
CONTINUOUS
 62
     3
 10
169.89999999999961
 20
-225.0
 30
0.0
 11
180.2999999999993
 21
-225.0
 31
0.0
  0
LINE
  8
OUTLINE
  6
CONTINUOUS
 62
     3
 10
169.89999999999961
 20
-225.0
 30
0.0
 11
168.89999999999961
 21
-225.0
 31
0.0
  0
LINE
  8
OUTLINE
  6
CONTINUOUS
 62
     3
 10
-169.90000000000049
 20
-225.0
 30
0.0
 11
-180.80000000000021
 21
-225.0
 31
0.0
  0
LINE
  8
OUTLINE
  6
CONTINUOUS
 62
     3
 10
-182.39999999999961
 20
-229.0
 30
0.0
 11
-182.40000000000049
 21
-226.59999999999991
 31
0.0
  0
LINE
  8
OUTLINE
  6
CONTINUOUS
 62
     3
 10
-182.5
 20
-255.78194327160011
 30
0.0
 11
-183.0
 21
-229.0
 31
0.0
  0
LINE
  8
OUTLINE
  6
CONTINUOUS
 62
     3
 10
-183.0
 20
-240.69999999999999
 30
0.0
 11
-183.0
 21
-234.0
 31
0.0
  0
LINE
  8
OUTLINE
  6
CONTINUOUS
 62
     3
 10
-183.60000000000039
 20
-229.0
 30
0.0
 11
-183.10000000000039
 21
-234.0
 31
0.0
  0
LINE
  8
OUTLINE
  6
CONTINUOUS
 62
     3
 10
-182.5
 20
-255.78194327160011
 30
0.0
 11
-182.4997293758006
 21
-255.80743168559999
 31
0.0
  0
LINE
  8
OUTLINE
  6
CONTINUOUS
 62
     3
 10
-182.4997293758006
 20
-255.80743168559999
 30
0.0
 11
-182.4931385742002
 21
-255.9090741821999
 31
0.0
  0
LINE
  8
OUTLINE
  6
CONTINUOUS
 62
     3
 10
-182.4931385742002
 20
-255.9090741821999
 30
0.0
 11
-182.47771357360031
 21
-256.01011089640002
 31
0.0
  0
LINE
  8
OUTLINE
  6
CONTINUOUS
 62
     3
 10
-182.47771357360031
 20
-256.01011089640002
 30
0.0
 11
-182.45343299880011
 21
-256.10993807680012
 31
0.0
  0
LINE
  8
OUTLINE
  6
CONTINUOUS
 62
     3
 10
-182.45343299880011
 20
-256.10993807680012
 30
0.0
 11
-182.42053346180001
 21
-256.20729263499987
 31
0.0
  0
LINE
  8
OUTLINE
  6
CONTINUOUS
 62
     3
 10
-182.42053346180001
 20
-256.20729263499987
 30
0.0
 11
-182.37952476960069
 21
-256.30090226200008
 31
0.0
  0
LINE
  8
OUTLINE
  6
CONTINUOUS
 62
     3
 10
-182.37952476960069
 20
-256.30090226200008
 30
0.0
 11
-182.33063141840009
 21
-256.39049651880009
 31
0.0
  0
LINE
  8
OUTLINE
  6
CONTINUOUS
 62
     3
 10
-182.33063141840009
 20
-256.39049651880009
 30
0.0
 11
-182.27415155160091
 21
-256.47556818980001
 31
0.0
  0
LINE
  8
OUTLINE
  6
CONTINUOUS
 62
     3
 10
-182.27415155160091
 20
-256.47556818980001
 30
0.0
 11
-182.2103884750004
 21
-256.55561318519989
 31
0.0
  0
LINE
  8
OUTLINE
  6
CONTINUOUS
 62
     3
 10
-182.2103884750004
 20
-256.55561318519989
 30
0.0
 11
-182.13946994459999
 21
-256.63030340499989
 31
0.0
  0
LINE
  8
OUTLINE
  6
CONTINUOUS
 62
     3
 10
-182.13946994459999
 20
-256.63030340499989
 30
0.0
 11
-182.0622785318001
 21
-256.69858882900007
 31
0.0
  0
LINE
  8
OUTLINE
  6
CONTINUOUS
 62
     3
 10
-182.0622785318001
 20
-256.69858882900007
 30
0.0
 11
-181.97988891400021
 21
-256.75961558519998
 31
0.0
  0
LINE
  8
OUTLINE
  6
CONTINUOUS
 62
     3
 10
-181.97988891400021
 20
-256.75961558519998
 30
0.0
 11
-181.8926278994004
 21
-256.8132588005999
 31
0.0
  0
LINE
  8
OUTLINE
  6
CONTINUOUS
 62
     3
 10
-181.8926278994004
 20
-256.8132588005999
 30
0.0
 11
-181.80100449300059
 21
-256.85922440500008
 31
0.0
  0
LINE
  8
OUTLINE
  6
CONTINUOUS
 62
     3
 10
-181.80100449300059
 20
-256.85922440500008
 30
0.0
 11
-181.7055307242008
 21
-256.89722355260011
 31
0.0
  0
LINE
  8
OUTLINE
  6
CONTINUOUS
 62
     3
 10
-181.7055307242008
 20
-256.89722355260011
 30
0.0
 11
-181.60647779999999
 21
-256.9270334723999
 31
0.0
  0
LINE
  8
OUTLINE
  6
CONTINUOUS
 62
     3
 10
-181.60647779999999
 20
-256.9270334723999
 30
0.0
 11
-181.5051347894005
 21
-256.94817754780001
 31
0.0
  0
LINE
  8
OUTLINE
  6
CONTINUOUS
 62
     3
 10
-181.5051347894005
 20
-256.94817754780001
 30
0.0
 11
-181.40277492360019
 21
-256.96045114100002
 31
0.0
  0
LINE
  8
OUTLINE
  6
CONTINUOUS
 62
     3
 10
-181.4334812646002
 20
-256.90539114400008
 30
0.0
 11
-181.39999991820059
 21
-256.93318553800009
 31
0.0
  0
LINE
  8
OUTLINE
  6
CONTINUOUS
 62
     3
 10
-181.39999991820059
 20
-256.93318553800009
 30
0.0
 11
-181.36651858760069
 21
-256.95227657100008
 31
0.0
  0
LINE
  8
OUTLINE
  6
CONTINUOUS
 62
     3
 10
-181.36651858760069
 20
-256.95227657100008
 30
0.0
 11
-181.33320378260029
 21
-256.9624931802
 31
0.0
  0
ARC
  8
OUTLINE
  6
CONTINUOUS
 62
     3
 10
180.2999999999993
 20
-226.59999999999991
 30
0.0
 40
1.6000000000000001
 50
0.0
 51
90.0
  0
ARC
  8
OUTLINE
  6
CONTINUOUS
 62
     3
 10
182.5
 20
-229.0
 30
0.0
 40
0.6
 50
0.0
 51
180.0
  0
ARC
  8
OUTLINE
  6
CONTINUOUS
 62
     3
 10
-180.80000000000021
 20
-226.59999999999991
 30
0.0
 40
1.6000000000000001
 50
90.0
 51
180.0
  0
ARC
  8
OUTLINE
  6
CONTINUOUS
 62
     3
 10
-183.0
 20
-229.0
 30
0.0
 40
0.6
 50
0.0
 51
180.0
  0
LINE
  8
SIZE
  6
CONTINUOUS
 62
    30
 10
287.15281599999997
 20
0.0000000000000568
 30
0.0
 11
520.55145738988051
 21
0.0000000000001137
 31
0.0
  0
LINE
  8
SIZE
  6
CONTINUOUS
 62
    30
 10
201.31133815959959
 20
-256.96439941199998
 30
0.0
 11
520.55145738988085
 21
-256.96439941199998
 31
0.0
  0
LINE
  8
SIZE
  6
CONTINUOUS
 62
    30
 10
500.55145738988062
 20
-11.99999999999989
 30
0.0
 11
500.55145738988062
 21
-244.96439941200001
 31
0.0
  0
CIRCLE
  8
SIZE
  6
CONTINUOUS
 62
    30
 10
500.55145738988062
 20
0.0000000000001137
 30
0.0
 40
6.0
  0
LINE
  8
SIZE
  6
CONTINUOUS
 62
    30
 10
500.55145738988062
 20
0.0000000000001137
 30
0.0
 11
500.55145738988062
 21
-11.99999999999989
 31
0.0
  0
CIRCLE
  8
SIZE
  6
CONTINUOUS
 62
    30
 10
500.55145738988062
 20
-256.96439941199998
 30
0.0
 40
6.0
  0
LINE
  8
SIZE
  6
CONTINUOUS
 62
    30
 10
500.55145738988062
 20
-256.96439941199998
 30
0.0
 11
500.55145738988062
 21
-244.96439941200001
 31
0.0
  0
TEXT
  8
SIZE
  6
CONTINUOUS
 62
    30
 10
475.55145738988051
 20
-202.5393425631429
 30
0.0
 40
64.0
  1
257
 50
90.0
 41
0.9
 72
     1
 11
475.55145738988051
 21
-128.48219970599999
 31
0.0
  0
POINT
  8
DEFPOINTS
  6
CONTINUOUS
 62
    30
 10
267.15281600000009
 20
0.0000000000000568
 30
0.0
  0
POINT
  8
DEFPOINTS
  6
CONTINUOUS
 62
    30
 10
181.3113381595995
 20
-256.96439941199998
 30
0.0
  0
POINT
  8
DEFPOINTS
  6
CONTINUOUS
 62
    30
 10
500.55145738988062
 20
-256.96439941199998
 30
0.0
  0
LINE
  8
DETAIL
  6
CONTINUOUS
 62
     5
 10
96.291054316834391
 20
-225.0
 30
0.0
 11
96.291054316834561
 21
0.0
 31
0.0
  0
LINE
  8
DETAIL
  6
CONTINUOUS
 62
     5
 10
93.499998934835332
 20
-225.0
 30
0.0
 11
93.499998934835332
 21
0.0
 31
0.0
  0
LINE
  8
DETAIL
  6
CONTINUOUS
 62
     5
 39
50.0
 10
116.5
 20
-132.85293141612459
 30
0.0
 11
116.5
 21
-225.0
 31
0.0
  0
LINE
  8
SIZE
  6
CONTINUOUS
 62
    30
 10
201.31133815959959
 20
-256.96439941199998
 30
0.0
 11
520.55145738987903
 21
-256.96439941199998
 31
0.0
  0
LINE
  8
SIZE
  6
CONTINUOUS
 62
    30
 10
20.0
 20
-282.00891461100002
 30
0.0
 11
520.55145738987881
 21
-282.00891461100002
 31
0.0
  0
LINE
  8
SIZE
  6
CONTINUOUS
 62
    30
 10
500.55145738987892
 20
-244.96439941200001
 30
0.0
 11
500.55145738987892
 21
-232.96439941200001
 31
0.0
  0
LINE
  8
SIZE
  6
CONTINUOUS
 62
    30
 10
500.55145738987892
 20
-294.00891461100002
 30
0.0
 11
500.55145738987892
 21
-449.26605746814278
 31
0.0
  0
LINE
  8
SIZE
  6
CONTINUOUS
 62
    30
 10
500.55145738987892
 20
-256.96439941199998
 30
0.0
 11
500.55145738987892
 21
-282.00891461100002
 31
0.0
  0
CIRCLE
  8
SIZE
  6
CONTINUOUS
 62
    30
 10
500.55145738987892
 20
-256.96439941199998
 30
0.0
 40
6.0
  0
LINE
  8
SIZE
  6
CONTINUOUS
 62
    30
 10
500.55145738987892
 20
-256.96439941199998
 30
0.0
 11
500.55145738987892
 21
-244.96439941200001
 31
0.0
  0
CIRCLE
  8
SIZE
  6
CONTINUOUS
 62
    30
 10
500.55145738987892
 20
-282.00891461100002
 30
0.0
 40
6.0
  0
LINE
  8
SIZE
  6
CONTINUOUS
 62
    30
 10
500.55145738987892
 20
-282.00891461100002
 30
0.0
 11
500.55145738987892
 21
-294.00891461100002
 31
0.0
  0
TEXT
  8
SIZE
  6
CONTINUOUS
 62
    30
 10
475.55145738987881
 20
-424.26605746814289
 30
0.0
 40
64.0
  1
25
 50
90.0
 41
0.9
 72
     1
 11
475.55145738987881
 21
-377.63748603957151
 31
0.0
  0
POINT
  8
DEFPOINTS
  6
CONTINUOUS
 62
    30
 10
181.3113381595995
 20
-256.96439941199998
 30
0.0
  0
POINT
  8
DEFPOINTS
  6
CONTINUOUS
 62
    30
 10
0.0
 20
-282.00891461100002
 30
0.0
  0
POINT
  8
DEFPOINTS
  6
CONTINUOUS
 62
    30
 10
500.55145738987892
 20
-282.00891461100002
 30
0.0
  0
LINE
  8
SIZE
  6
CONTINUOUS
 62
    30
 10
-187.00000000000011
 20
-33.000000000000028
 30
0.0
 11
-612.85715971865795
 21
-33.000000000000092
 31
0.0
  0
LINE
  8
SIZE
  6
CONTINUOUS
 62
    30
 10
-189.50000000000011
 20
-192.71428571428581
 30
0.0
 11
-612.85715971865795
 21
-192.71428571428589
 31
0.0
  0
LINE
  8
SIZE
  6
CONTINUOUS
 62
    30
 10
-592.85715971865795
 20
-45.000000000000092
 30
0.0
 11
-592.85715971865795
 21
-180.71428571428589
 31
0.0
  0
CIRCLE
  8
SIZE
  6
CONTINUOUS
 62
    30
 10
-592.85715971865795
 20
-33.000000000000092
 30
0.0
 40
6.0
  0
LINE
  8
SIZE
  6
CONTINUOUS
 62
    30
 10
-592.85715971865795
 20
-33.000000000000092
 30
0.0
 11
-592.85715971865795
 21
-45.000000000000092
 31
0.0
  0
CIRCLE
  8
SIZE
  6
CONTINUOUS
 62
    30
 10
-592.85715971865795
 20
-192.71428571428589
 30
0.0
 40
6.0
  0
LINE
  8
SIZE
  6
CONTINUOUS
 62
    30
 10
-592.85715971865795
 20
-192.71428571428589
 30
0.0
 11
-592.85715971865795
 21
-180.71428571428589
 31
0.0
  0
TEXT
  8
SIZE
  6
CONTINUOUS
 62
    30
 10
-617.85715971865773
 20
-221.74857142857141
 30
0.0
 40
64.0
  1
φ160
 50
90.0
 41
0.9
 72
     1
 11
-617.85715971865773
 21
-112.8571428571428
 31
0.0
  0
POINT
  8
DEFPOINTS
  6
CONTINUOUS
 62
    30
 10
-167.00000000000011
 20
-33.0
 30
0.0
  0
POINT
  8
DEFPOINTS
  6
CONTINUOUS
 62
    30
 10
-169.50000000000011
 20
-192.71428571428581
 30
0.0
  0
POINT
  8
DEFPOINTS
  6
CONTINUOUS
 62
    30
 10
-592.85715971865795
 20
-192.71428571428589
 30
0.0
  0
LINE
  8
SIZE
  6
CONTINUOUS
 62
    30
 10
-257.00000000000011
 20
-42.0
 30
0.0
 11
-510.63572893400408
 21
-42.000000000000057
 31
0.0
  0
LINE
  8
SIZE
  6
CONTINUOUS
 62
    30
 10
-257.00000000000011
 20
-184.00000000000011
 30
0.0
 11
-510.63572893400402
 21
-184.00000000000011
 31
0.0
  0
LINE
  8
SIZE
  6
CONTINUOUS
 62
    30
 10
-490.63572893400402
 20
-172.00000000000011
 30
0.0
 11
-490.63572893400408
 21
-54.000000000000057
 31
0.0
  0
LINE
  8
SIZE
  6
CONTINUOUS
 62
    30
 10
-490.63572893400408
 20
-42.000000000000057
 30
0.0
 11
-490.63572893400408
 21
214.7428571428571
 31
0.0
  0
CIRCLE
  8
SIZE
  6
CONTINUOUS
 62
    30
 10
-490.63572893400402
 20
-184.00000000000011
 30
0.0
 40
6.0
  0
LINE
  8
SIZE
  6
CONTINUOUS
 62
    30
 10
-490.63572893400402
 20
-184.00000000000011
 30
0.0
 11
-490.63572893400402
 21
-172.00000000000011
 31
0.0
  0
CIRCLE
  8
SIZE
  6
CONTINUOUS
 62
    30
 10
-490.63572893400408
 20
-42.000000000000057
 30
0.0
 40
6.0
  0
LINE
  8
SIZE
  6
CONTINUOUS
 62
    30
 10
-490.63572893400408
 20
-42.000000000000057
 30
0.0
 11
-490.63572893400408
 21
-54.000000000000057
 31
0.0
  0
TEXT
  8
SIZE
  6
CONTINUOUS
 62
    30
 10
-515.63572893400396
 20
-16.519999999999921
 30
0.0
 40
64.0
  1
φ142
 50
90.0
 41
0.9
 72
     1
 11
-515.63572893400396
 21
92.371428571428623
 31
0.0
  0
POINT
  8
DEFPOINTS
  6
CONTINUOUS
 62
    30
 10
-237.00000000000011
 20
-42.0
 30
0.0
  0
POINT
  8
DEFPOINTS
  6
CONTINUOUS
 62
    30
 10
-237.00000000000011
 20
-184.00000000000011
 30
0.0
  0
POINT
  8
DEFPOINTS
  6
CONTINUOUS
 62
    30
 10
-490.63572893400402
 20
-184.00000000000011
 30
0.0
  0
TEXT
  8
NOTE
  6
CONTINUOUS
 62
     4
 10
338.15303250619849
 20
41.667353777844198
 30
0.0
 40
64.0
  1
AH
 41
0.9
  0
LINE
  8
NOTE
  6
CONTINUOUS
 62
     4
 10
338.06303250619862
 20
28.86735377784424
 30
0.0
 11
434.15303250619849
 21
28.86735377784424
 31
0.0
  0
LINE
  8
NOTE
  6
CONTINUOUS
 62
     4
 10
174.33886095904131
 20
-93.196983540913095
 30
0.0
 11
150.0
 21
-102.0
 31
0.0
  0
LINE
  8
NOTE
  6
CONTINUOUS
 62
     4
 10
150.0
 20
-102.0
 30
0.0
 11
166.6765338331073
 21
-82.206908506356854
 31
0.0
  0
LINE
  8
NOTE
  6
CONTINUOUS
 62
     4
 10
150.0
 20
-102.0
 30
0.0
 11
191.0153947921485
 21
-73.403892047269949
 31
0.0
  0
LINE
  8
NOTE
  6
CONTINUOUS
 62
     4
 10
191.01539479214861
 20
-73.40389204726992
 30
0.0
 11
337.70303250619861
 21
28.86735377784424
 31
0.0
  0
LINE
  8
NOTE
  6
CONTINUOUS
 62
     4
 10
337.70303250619861
 20
28.86735377784424
 30
0.0
 11
338.06303250619862
 21
28.86735377784424
 31
0.0
  0
TEXT
  8
NOTE
  6
CONTINUOUS
 62
     4
 10
332.31120155072551
 20
-562.86252816182673
 30
0.0
 40
64.0
  1
D φ21.7
 41
0.9
  0
LINE
  8
NOTE
  6
CONTINUOUS
 62
     4
 10
332.22120155072548
 20
-575.66252816182691
 30
0.0
 11
669.68263012215402
 21
-575.6625281618268
 31
0.0
  0
LINE
  8
NOTE
  6
CONTINUOUS
 62
     4
 10
14.243651425345551
 20
-303.57717419961108
 30
0.0
 11
-0.0405413052116614
 21
-281.99396105608679
 31
0.0
  0
LINE
  8
NOTE
  6
CONTINUOUS
 62
     4
 10
-0.0405413052116614
 20
-281.99396105608679
 30
0.0
 11
23.121556448208249
 21
-293.54344066442928
 31
0.0
  0
LINE
  8
NOTE
  6
CONTINUOUS
 62
     4
 10
-0.0405413052116614
 20
-281.99396105608679
 30
0.0
 11
37.405749178765397
 21
-315.12665380795357
 31
0.0
  0
LINE
  8
NOTE
  6
CONTINUOUS
 62
     4
 10
37.405749178765461
 20
-315.12665380795357
 30
0.0
 11
331.86120155072558
 21
-575.66252816182691
 31
0.0
  0
LINE
  8
NOTE
  6
CONTINUOUS
 62
     4
 10
331.86120155072558
 20
-575.66252816182691
 30
0.0
 11
332.22120155072548
 21
-575.66252816182691
 31
0.0
  0
LINE
  8
OUTLINE
  6
CONTINUOUS
 62
     3
 10
0.0
 20
-284.99415902919998
 30
0.0
 11
-0.0442179057999965
 21
-284.99396347840002
 31
0.0
  0
LINE
  8
OUTLINE
  6
CONTINUOUS
 62
     3
 10
-0.0442179057999965
 20
-284.99396347840002
 30
0.0
 11
-0.0878120114002741
 21
-284.99338787480002
 31
0.0
  0
LINE
  8
OUTLINE
  6
CONTINUOUS
 62
     3
 10
-0.0878120114002741
 20
-284.99338787480002
 30
0.0
 11
-0.134523254800115
 21
-284.99234903940021
 31
0.0
  0
LINE
  8
OUTLINE
  6
CONTINUOUS
 62
     3
 10
-0.134523254800115
 20
-284.99234903940021
 30
0.0
 11
-0.1854268882007091
 21
-284.99071953299989
 31
0.0
  0
LINE
  8
OUTLINE
  6
CONTINUOUS
 62
     3
 10
-0.1854268882007091
 20
-284.99071953299989
 30
0.0
 11
-0.2394181552008376
 21
-284.98842363099988
 31
0.0
  0
LINE
  8
OUTLINE
  6
CONTINUOUS
 62
     3
 10
-0.2394181552008376
 20
-284.98842363099988
 30
0.0
 11
-0.2970692178005265
 21
-284.98532621520008
 31
0.0
  0
LINE
  8
OUTLINE
  6
CONTINUOUS
 62
     3
 10
-0.2970692178005265
 20
-284.98532621520008
 30
0.0
 11
-0.358390534600403
 21
-284.98129810599988
 31
0.0
  0
LINE
  8
OUTLINE
  6
CONTINUOUS
 62
     3
 10
-0.358390534600403
 20
-284.98129810599988
 30
0.0
 11
-0.4230382424002528
 21
-284.97623075140001
 31
0.0
  0
LINE
  8
OUTLINE
  6
CONTINUOUS
 62
     3
 10
-0.4230382424002528
 20
-284.97623075140001
 30
0.0
 11
-0.490600701200492
 21
-284.9700319082001
 31
0.0
  0
LINE
  8
OUTLINE
  6
CONTINUOUS
 62
     3
 10
-0.490600701200492
 20
-284.9700319082001
 30
0.0
 11
-0.5616651082000317
 21
-284.96251210700012
 31
0.0
  0
LINE
  8
OUTLINE
  6
CONTINUOUS
 62
     3
 10
-0.5616651082000317
 20
-284.96251210700012
 30
0.0
 11
-0.636776488599935
 21
-284.95344483399998
 31
0.0
  0
LINE
  8
OUTLINE
  6
CONTINUOUS
 62
     3
 10
-0.636776488599935
 20
-284.95344483399998
 30
0.0
 11
-0.7160151366006176
 21
-284.94262569300008
 31
0.0
  0
LINE
  8
OUTLINE
  6
CONTINUOUS
 62
     3
 10
-0.7160151366006176
 20
-284.94262569300008
 30
0.0
 11
-0.7997900752006899
 21
-284.92977812240002
 31
0.0
  0
LINE
  8
OUTLINE
  6
CONTINUOUS
 62
     3
 10
-0.7997900752006899
 20
-284.92977812240002
 30
0.0
 11
-0.8877594722007416
 21
-284.91471622519998
 31
0.0
  0
LINE
  8
OUTLINE
  6
CONTINUOUS
 62
     3
 10
-0.8877594722007416
 20
-284.91471622519998
 30
0.0
 11
-0.9796298690007461
 21
-284.89725247279989
 31
0.0
  0
LINE
  8
OUTLINE
  6
CONTINUOUS
 62
     3
 10
-0.9796298690007461
 20
-284.89725247279989
 30
0.0
 11
-1.07566864960063
 21
-284.87708202220011
 31
0.0
  0
LINE
  8
OUTLINE
  6
CONTINUOUS
 62
     3
 10
-1.07566864960063
 20
-284.87708202220011
 30
0.0
 11
-1.17375921600069
 21
-284.85443569659992
 31
0.0
  0
LINE
  8
OUTLINE
  6
CONTINUOUS
 62
     3
 10
-1.17375921600069
 20
-284.85443569659992
 30
0.0
 11
-1.280712621200109
 21
-284.82735416099979
 31
0.0
  0
LINE
  8
OUTLINE
  6
CONTINUOUS
 62
     3
 10
-1.280712621200109
 20
-284.82735416099979
 30
0.0
 11
-1.403305661400736
 21
-284.79319364140002
 31
0.0
  0
LINE
  8
OUTLINE
  6
CONTINUOUS
 62
     3
 10
-1.403305661400736
 20
-284.79319364140002
 30
0.0
 11
-1.538815946600153
 21
-284.7514739738001
 31
0.0
  0
LINE
  8
OUTLINE
  6
CONTINUOUS
 62
     3
 10
-10.833640872400791
 20
-261.20977849780002
 30
0.0
 11
-11.325929653800809
 21
-261.24456666380001
 31
0.0
  0
LINE
  8
OUTLINE
  6
CONTINUOUS
 62
     3
 10
-11.325929653800809
 20
-261.24456666380001
 30
0.0
 11
-11.6991349462005
 21
-261.28235352520011
 31
0.0
  0
LINE
  8
OUTLINE
  6
CONTINUOUS
 62
     3
 10
-11.6991349462005
 20
-261.28235352520011
 30
0.0
 11
-11.92384082219996
 21
-261.32113101660002
 31
0.0
  0
LINE
  8
OUTLINE
  6
CONTINUOUS
 62
     3
 10
-11.92384082219996
 20
-261.32113101660002
 30
0.0
 11
-12.0
 21
-261.36039769059988
 31
0.0
  0
LINE
  8
OUTLINE
  6
CONTINUOUS
 62
     3
 10
1.5388159464000639
 20
-284.7514739738001
 30
0.0
 11
1.4057499769996871
 21
-284.79247821280001
 31
0.0
  0
LINE
  8
OUTLINE
  6
CONTINUOUS
 62
     3
 10
1.4057499769996871
 20
-284.79247821280001
 30
0.0
 11
1.28573285839957
 21
-284.82602109439989
 31
0.0
  0
LINE
  8
OUTLINE
  6
CONTINUOUS
 62
     3
 10
1.28573285839957
 20
-284.82602109439989
 30
0.0
 11
1.181644628599315
 21
-284.85252459280008
 31
0.0
  0
LINE
  8
OUTLINE
  6
CONTINUOUS
 62
     3
 10
1.181644628599315
 20
-284.85252459280008
 30
0.0
 11
1.0861976163996589
 21
-284.87475066719998
 31
0.0
  0
LINE
  8
OUTLINE
  6
CONTINUOUS
 62
     3
 10
1.0861976163996589
 20
-284.87475066719998
 30
0.0
 11
0.9921485405993735
 21
-284.89473463519988
 31
0.0
  0
LINE
  8
OUTLINE
  6
CONTINUOUS
 62
     3
 10
0.9921485405993735
 20
-284.89473463519988
 30
0.0
 11
0.9015227249992677
 21
-284.91221319480002
 31
0.0
  0
LINE
  8
OUTLINE
  6
CONTINUOUS
 62
     3
 10
0.9015227249992677
 20
-284.91221319480002
 30
0.0
 11
0.8135474565997356
 21
-284.92752912840001
 31
0.0
  0
LINE
  8
OUTLINE
  6
CONTINUOUS
 62
     3
 10
0.8135474565997356
 20
-284.92752912840001
 30
0.0
 11
0.7293399221998698
 21
-284.94067934920008
 31
0.0
  0
LINE
  8
OUTLINE
  6
CONTINUOUS
 62
     3
 10
0.7293399221998698
 20
-284.94067934920008
 30
0.0
 11
0.6502026493999438
 21
-284.95170242239988
 31
0.0
  0
LINE
  8
OUTLINE
  6
CONTINUOUS
 62
     3
 10
0.6502026493999438
 20
-284.95170242239988
 30
0.0
 11
0.5748174097998344
 21
-284.96100762219999
 31
0.0
  0
LINE
  8
OUTLINE
  6
CONTINUOUS
 62
     3
 10
0.5748174097998344
 20
-284.96100762219999
 30
0.0
 11
0.5021783899992443
 21
-284.96887679399993
 31
0.0
  0
LINE
  8
OUTLINE
  6
CONTINUOUS
 62
     3
 10
0.5021783899992443
 20
-284.96887679399993
 30
0.0
 11
0.4328041387998383
 21
-284.97539186620008
 31
0.0
  0
LINE
  8
OUTLINE
  6
CONTINUOUS
 62
     3
 10
0.4328041387998383
 20
-284.97539186620008
 30
0.0
 11
0.3670655815994905
 21
-284.98066710319989
 31
0.0
  0
LINE
  8
OUTLINE
  6
CONTINUOUS
 62
     3
 10
0.3670655815994905
 20
-284.98066710319989
 30
0.0
 11
0.3046711613997104
 21
-284.98486794499991
 31
0.0
  0
LINE
  8
OUTLINE
  6
CONTINUOUS
 62
     3
 10
0.3046711613997104
 20
-284.98486794499991
 30
0.0
 11
0.2455491887994867
 21
-284.9881259440001
 31
0.0
  0
LINE
  8
OUTLINE
  6
CONTINUOUS
 62
     3
 10
0.2455491887994867
 20
-284.9881259440001
 30
0.0
 11
0.189960849599629
 21
-284.99054921359988
 31
0.0
  0
LINE
  8
OUTLINE
  6
CONTINUOUS
 62
     3
 10
0.189960849599629
 20
-284.99054921359988
 30
0.0
 11
0.1373617429999285
 21
-284.99227182839991
 31
0.0
  0
LINE
  8
OUTLINE
  6
CONTINUOUS
 62
     3
 10
0.1373617429999285
 20
-284.99227182839991
 30
0.0
 11
0.0892630270000154
 21
-284.99336217680002
 31
0.0
  0
LINE
  8
OUTLINE
  6
CONTINUOUS
 62
     3
 10
0.0892630270000154
 20
-284.99336217680002
 30
0.0
 11
0.0448357331997613
 21
-284.99395798239988
 31
0.0
  0
LINE
  8
OUTLINE
  6
CONTINUOUS
 62
     3
 10
0.0448357331997613
 20
-284.99395798239988
 30
0.0
 11
0.0
 21
-284.99415902919998
 31
0.0
  0
LINE
  8
OUTLINE
  6
CONTINUOUS
 62
     3
 10
1.5388159464000639
 20
-284.7514739738001
 30
0.0
 11
10.919042099799301
 21
-281.71731673300002
 31
0.0
  0
LINE
  8
OUTLINE
  6
CONTINUOUS
 62
     3
 10
10.919042108599569
 20
-281.71731673020008
 30
0.0
 11
11.024768758999929
 21
-281.67933693179998
 31
0.0
  0
LINE
  8
OUTLINE
  6
CONTINUOUS
 62
     3
 10
11.024768758999929
 20
-281.67933693179998
 30
0.0
 11
11.144432658799809
 21
-281.62627036959998
 31
0.0
  0
LINE
  8
OUTLINE
  6
CONTINUOUS
 62
     3
 10
11.144432658799809
 20
-281.62627036959998
 30
0.0
 11
11.27535910539973
 21
-281.55391398260008
 31
0.0
  0
LINE
  8
OUTLINE
  6
CONTINUOUS
 62
     3
 10
11.27535910539973
 20
-281.55391398260008
 30
0.0
 11
11.41625513419967
 21
-281.45591384499988
 31
0.0
  0
LINE
  8
OUTLINE
  6
CONTINUOUS
 62
     3
 10
11.41625513419967
 20
-281.45591384499988
 30
0.0
 11
11.565157884199831
 21
-281.32307612860001
 31
0.0
  0
LINE
  8
OUTLINE
  6
CONTINUOUS
 62
     3
 10
11.565157884199831
 20
-281.32307612860001
 30
0.0
 11
11.706666088199199
 21
-281.15684979140002
 31
0.0
  0
LINE
  8
OUTLINE
  6
CONTINUOUS
 62
     3
 10
11.706666088199199
 20
-281.15684979140002
 30
0.0
 11
11.82880373339958
 21
-280.96075157859991
 31
0.0
  0
LINE
  8
OUTLINE
  6
CONTINUOUS
 62
     3
 10
11.82880373339958
 20
-280.96075157859991
 30
0.0
 11
11.92238897679999
 21
-280.74024954960009
 31
0.0
  0
LINE
  8
OUTLINE
  6
CONTINUOUS
 62
     3
 10
11.92238897679999
 20
-280.74024954960009
 30
0.0
 11
11.98016035519959
 21
-280.50639701559999
 31
0.0
  0
LINE
  8
OUTLINE
  6
CONTINUOUS
 62
     3
 10
11.98016035519959
 20
-280.50639701559999
 30
0.0
 11
12.0
 21
-280.26250531479991
 31
0.0
  0
LINE
  8
OUTLINE
  6
CONTINUOUS
 62
     3
 10
10.82737074779925
 20
-261.41546894300001
 30
0.0
 11
10.84999126319963
 21
-260.67340648940012
 31
0.0
  0
LINE
  8
OUTLINE
  6
CONTINUOUS
 62
     3
 10
12.0
 20
-261.36039769059988
 30
0.0
 11
12.0
 21
-280.26250531479991
 31
0.0
  0
LINE
  8
OUTLINE
  6
CONTINUOUS
 62
     3
 10
10.849999999999451
 20
-260.67283327700011
 30
0.0
 11
10.849999999999451
 21
-256.96439941199992
 31
0.0
  0
LINE
  8
OUTLINE
  6
CONTINUOUS
 62
     3
 10
-10.85000000000036
 20
-260.67283327700011
 30
0.0
 11
-10.85000000000036
 21
-256.96439941199992
 31
0.0
  0
LINE
  8
OUTLINE
  6
CONTINUOUS
 62
     3
 10
-12.0
 20
-261.36039769059988
 30
0.0
 11
-12.0
 21
-280.26250531479991
 31
0.0
  0
LINE
  8
OUTLINE
  6
CONTINUOUS
 62
     3
 10
-10.82737074800025
 20
-261.41546894300001
 30
0.0
 11
-10.84999126340063
 21
-260.67340648940012
 31
0.0
  0
LINE
  8
OUTLINE
  6
CONTINUOUS
 62
     3
 10
-12.0
 20
-280.26250531479991
 30
0.0
 11
-11.98085433980032
 21
-280.5021208352
 31
0.0
  0
LINE
  8
OUTLINE
  6
CONTINUOUS
 62
     3
 10
-11.98085433980032
 20
-280.5021208352
 30
0.0
 11
-11.92409611540006
 21
-280.7351022918001
 31
0.0
  0
LINE
  8
OUTLINE
  6
CONTINUOUS
 62
     3
 10
-11.92409611540006
 20
-280.7351022918001
 30
0.0
 11
-11.829751290400051
 21
-280.95893149099987
 31
0.0
  0
LINE
  8
OUTLINE
  6
CONTINUOUS
 62
     3
 10
-11.829751290400051
 20
-280.95893149099987
 30
0.0
 11
-11.70540373400036
 21
-281.15856652339988
 31
0.0
  0
LINE
  8
OUTLINE
  6
CONTINUOUS
 62
     3
 10
-11.70540373400036
 20
-281.15856652339988
 30
0.0
 11
-11.56295813320048
 21
-281.32530838899987
 31
0.0
  0
LINE
  8
OUTLINE
  6
CONTINUOUS
 62
     3
 10
-11.56295813320048
 20
-281.32530838899987
 30
0.0
 11
-11.41374153820016
 21
-281.45787383279998
 31
0.0
  0
LINE
  8
OUTLINE
  6
CONTINUOUS
 62
     3
 10
-11.41374153820016
 20
-281.45787383279998
 30
0.0
 11
-11.272438302400589
 21
-281.55571011260008
 31
0.0
  0
LINE
  8
OUTLINE
  6
CONTINUOUS
 62
     3
 10
-11.272438302400589
 20
-281.55571011260008
 30
0.0
 11
-11.141592825400039
 21
-281.62766584920001
 31
0.0
  0
LINE
  8
OUTLINE
  6
CONTINUOUS
 62
     3
 10
-11.141592825400039
 20
-281.62766584920001
 30
0.0
 11
-11.022912069800441
 21
-281.68007224860003
 31
0.0
  0
LINE
  8
OUTLINE
  6
CONTINUOUS
 62
     3
 10
-11.022912069800441
 20
-281.68007224860003
 30
0.0
 11
-10.91904212100053
 21
-281.71731672620012
 31
0.0
  0
LINE
  8
OUTLINE
  6
CONTINUOUS
 62
     3
 10
12.0
 20
-261.36039769059988
 30
0.0
 11
11.92384082219996
 21
-261.32113101660002
 31
0.0
  0
LINE
  8
OUTLINE
  6
CONTINUOUS
 62
     3
 10
11.92384082219996
 20
-261.32113101660002
 30
0.0
 11
11.699134946199591
 21
-261.28235352520011
 31
0.0
  0
LINE
  8
OUTLINE
  6
CONTINUOUS
 62
     3
 10
11.699134946199591
 20
-261.28235352520011
 30
0.0
 11
11.325929653599809
 21
-261.24456666380001
 31
0.0
  0
LINE
  8
OUTLINE
  6
CONTINUOUS
 62
     3
 10
11.325929653599809
 20
-261.24456666380001
 30
0.0
 11
10.833640872199791
 21
-261.20977849780002
 31
0.0
  0
LINE
  8
OUTLINE
  6
CONTINUOUS
 62
     3
 10
-1.538815946600153
 20
-284.7514739738001
 30
0.0
 11
-10.91904209980021
 21
-281.71731673300002
 31
0.0
  0
LINE
  8
OUTLINE
  6
CONTINUOUS
 62
     3
 10
-237.5
 20
-184.0
 30
0.0
 11
-237.5
 21
-42.0
 31
0.0
  0
LINE
  8
OUTLINE
  6
CONTINUOUS
 62
     3
 10
-168.5
 20
-193.0
 30
0.0
 11
-237.5
 21
-184.0
 31
0.0
  0
LINE
  8
OUTLINE
  6
CONTINUOUS
 62
     3
 10
-168.5
 20
-33.0
 30
0.0
 11
-237.5
 21
-42.0
 31
0.0
  0
LINE
  8
OUTLINE
  6
CONTINUOUS
 62
     3
 10
237.0
 20
-184.0
 30
0.0
 11
237.0
 21
-42.0
 31
0.0
  0
LINE
  8
OUTLINE
  6
CONTINUOUS
 62
     3
 10
167.0
 20
-33.0
 30
0.0
 11
237.0
 21
-42.0
 31
0.0
  0
LINE
  8
OUTLINE
  6
CONTINUOUS
 62
     3
 10
167.0
 20
-193.0
 30
0.0
 11
237.0
 21
-184.0
 31
0.0
  0
ENDSEC
  0
EOF
