  0
SECTION
  2
HEADER
  9
$ACADVER
  1
AC1009
  9
$DWGCODEPAGE
  3
dos932
  9
$INSBASE
 10
0.0
 20
0.0
 30
0.0
  9
$EXTMIN
 10
-682.0449664164862
 20
-696.94517901742984
 30
-0.0030516297567118
  9
$EXTMAX
 10
1049.5788690163499
 20
352.15760051756843
 30
50.001526135026353
  9
$LIMMIN
 10
-2970.0
 20
-2100.0
  9
$LIMMAX
 10
2970.0
 20
2100.0
  9
$ORTHOMODE
 70
     1
  9
$REGENMODE
 70
     1
  9
$FILLMODE
 70
     1
  9
$QTEXTMODE
 70
     0
  9
$MIRRTEXT
 70
     0
  9
$LTSCALE
 40
20.0
  9
$ATTMODE
 70
     1
  9
$TEXTSIZE
 40
64.0
  9
$TRACEWID
 40
0.05
  9
$TEXTSTYLE
  7
STANDARD
  9
$CLAYER
  8
SIZE
  9
$CELTYPE
  6
CONTINUOUS
  9
$CECOLOR
 62
     7
  9
$DIMSCALE
 40
1.0
  9
$DIMASZ
 40
12.0
  9
$DIMEXO
 40
20.0
  9
$DIMDLI
 40
200.0
  9
$DIMRND
 40
0.0
  9
$DIMDLE
 40
0.0
  9
$DIMEXE
 40
20.0
  9
$DIMTP
 40
0.0
  9
$DIMTM
 40
0.0
  9
$DIMTXT
 40
64.0
  9
$DIMCEN
 40
0.09
  9
$DIMTSZ
 40
0.0
  9
$DIMTOL
 70
     0
  9
$DIMLIM
 70
     0
  9
$DIMTIH
 70
     0
  9
$DIMTOH
 70
     0
  9
$DIMSE1
 70
     0
  9
$DIMSE2
 70
     0
  9
$DIMTAD
 70
     1
  9
$DIMZIN
 70
     8
  9
$DIMBLK
  1

  9
$DIMASO
 70
     1
  9
$DIMSHO
 70
     0
  9
$DIMPOST
  1

  9
$DIMAPOST
  1

  9
$DIMALT
 70
     0
  9
$DIMALTD
 70
     2
  9
$DIMALTF
 40
25.399999999999999
  9
$DIMLFAC
 40
1.0
  9
$DIMTOFL
 70
     1
  9
$DIMTVP
 40
0.0
  9
$DIMTIX
 70
     1
  9
$DIMSOXD
 70
     0
  9
$DIMSAH
 70
     0
  9
$DIMBLK1
  1

  9
$DIMBLK2
  1

  9
$DIMSTYLE
  2
STANDARD
  9
$DIMCLRD
 70
     7
  9
$DIMCLRE
 70
     7
  9
$DIMCLRT
 70
     7
  9
$DIMTFAC
 40
1.0
  9
$DIMGAP
 40
25.0
  9
$LUNITS
 70
     2
  9
$LUPREC
 70
     4
  9
$SKETCHINC
 40
0.1
  9
$FILLETRAD
 40
3.0
  9
$AUNITS
 70
     1
  9
$AUPREC
 70
     3
  9
$MENU
  1
ACAD
  9
$ELEVATION
 40
0.0
  9
$PELEVATION
 40
0.0
  9
$THICKNESS
 40
0.0
  9
$LIMCHECK
 70
     0
  9
$CHAMFERA
 40
0.0
  9
$CHAMFERB
 40
0.0
  9
$SKPOLY
 70
     0
  9
$TDCREATE
 40
2453019.62301037
  9
$TDUPDATE
 40
2459268.670027569
  9
$TDINDWG
 40
1.7281294097
  9
$TDUSRTIMER
 40
1.7281294097
  9
$USRTIMER
 70
     1
  9
$ANGBASE
 50
0.0
  9
$ANGDIR
 70
     0
  9
$PDMODE
 70
     3
  9
$PDSIZE
 40
-2.0
  9
$PLINEWID
 40
0.0
  9
$SPLFRAME
 70
     0
  9
$SPLINETYPE
 70
     6
  9
$SPLINESEGS
 70
     8
  9
$SURFTAB1
 70
     6
  9
$SURFTAB2
 70
     6
  9
$SURFTYPE
 70
     6
  9
$SURFU
 70
     6
  9
$SURFV
 70
     6
  9
$UCSNAME
  2

  9
$UCSORG
 10
0.0
 20
0.0
 30
0.0
  9
$UCSXDIR
 10
1.0
 20
0.0
 30
0.0
  9
$UCSYDIR
 10
0.0
 20
1.0
 30
0.0
  9
$PUCSNAME
  2

  9
$PUCSORG
 10
0.0
 20
0.0
 30
0.0
  9
$PUCSXDIR
 10
1.0
 20
0.0
 30
0.0
  9
$PUCSYDIR
 10
0.0
 20
1.0
 30
0.0
  9
$USERI1
 70
     0
  9
$USERI2
 70
     0
  9
$USERI3
 70
     0
  9
$USERI4
 70
     0
  9
$USERI5
 70
     0
  9
$USERR1
 40
20.0
  9
$USERR2
 40
0.0
  9
$USERR3
 40
0.0
  9
$USERR4
 40
0.0
  9
$USERR5
 40
0.0
  9
$WORLDVIEW
 70
     1
  9
$SHADEDGE
 70
     3
  9
$SHADEDIF
 70
    70
  9
$TILEMODE
 70
     1
  9
$MAXACTVP
 70
    48
  9
$PINSBASE
 10
0.0
 20
0.0
 30
0.0
  9
$PLIMCHECK
 70
     0
  9
$PEXTMIN
 10
-100000000000000000000.0
 20
-100000000000000000000.0
 30
-100000000000000000000.0
  9
$PEXTMAX
 10
100000000000000000000.0
 20
100000000000000000000.0
 30
100000000000000000000.0
  9
$PLIMMIN
 10
0.0
 20
0.0
  9
$PLIMMAX
 10
12.0
 20
9.0
  9
$UNITMODE
 70
     0
  9
$VISRETAIN
 70
     0
  9
$PLINEGEN
 70
     0
  9
$PSLTSCALE
 70
     0
  9
$TREEDEPTH
 70
  3020
  9
$ATTDIA
 70
     0
  9
$ATTREQ
 70
     1
  9
$BLIPMODE
 70
     1
  9
$COORDS
 70
     1
  9
$DRAGMODE
 70
     2
  9
$OSMODE
 70
     0
  9
$HANDLING
 70
     0
  9
$HANDSEED
  5
103E3
  0
ENDSEC
  0
SECTION
  2
TABLES
  0
TABLE
  2
LTYPE
 70
     2
  0
LTYPE
  2
CONTINUOUS
 70
     0
  3
実線
 72
    65
 73
     0
 40
0.0
  0
LTYPE
  2
DASHDOT
 70
     0
  3
____ _ ____ _ ____ _ ____ _ ____ _ ____ _ ____
 72
    65
 73
     4
 40
5.5
 49
4.0
 49
-0.6
 49
0.3
 49
-0.6
  0
ENDTAB
  0
TABLE
  2
LAYER
 70
    12
  0
LAYER
  2
0
 70
     0
 62
     7
  6
CONTINUOUS
  0
LAYER
  2
BASIS
 70
     0
 62
     6
  6
DASHDOT
  0
LAYER
  2
OUTLINE
 70
     0
 62
     3
  6
CONTINUOUS
  0
LAYER
  2
DETAIL
 70
     0
 62
     5
  6
CONTINUOUS
  0
LAYER
  2
SIZE
 70
     0
 62
    30
  6
CONTINUOUS
  0
LAYER
  2
ARRANGE
 70
     0
 62
     1
  6
CONTINUOUS
  0
LAYER
  2
DEFPOINTS
 70
     0
 62
     7
  6
CONTINUOUS
  0
LAYER
  2
ETC
 70
     0
 62
    61
  6
CONTINUOUS
  0
LAYER
  2
FIX
 70
     0
 62
    11
  6
CONTINUOUS
  0
LAYER
  2
NOTE
 70
     0
 62
     4
  6
CONTINUOUS
  0
LAYER
  2
SERVICESPACE
 70
    64
 62
     2
  6
DASHDOT
  0
LAYER
  2
SYMBOLLINE
 70
    64
 62
    15
  6
CONTINUOUS
  0
ENDTAB
  0
TABLE
  2
STYLE
 70
     1
  0
STYLE
  2
STANDARD
 70
     0
 40
64.0
 41
0.9
 50
0.0
 71
     0
 42
64.0
  3
SIMPLEX.shx
  4
BIGFONT.shx
  0
ENDTAB
  0
TABLE
  2
APPID
 70
    19
  0
APPID
  2
ACAD
 70
     0
  0
APPID
  2
AUTOCAD_POSTSCRIPT_FIGURE
 70
     0
  0
APPID
  2
ACAD_EXEMPT_FROM_CAD_STANDARDS
 70
     0
  0
APPID
  2
ACAD_PSEXT
 70
     0
  0
APPID
  2
ACAUTHENVIRON
 70
     0
  0
APPID
  2
GENIUS_GENOENT_13
 70
     0
  0
APPID
  2
GENIUS_GENCFG_13
 70
     0
  0
APPID
  2
GENIUS_GENCFG0_13
 70
     0
  0
APPID
  2
GENIUS_GENCFG1_13
 70
     0
  0
APPID
  2
GENIUS_GENCFG2_13
 70
     0
  0
APPID
  2
GENIUS_GENCFG3_13
 70
     0
  0
APPID
  2
GENIUS_GENCFG4_13
 70
     0
  0
APPID
  2
GENIUS_GEVCFG0_13
 70
     0
  0
APPID
  2
CONTENTBLOCKICON
 70
     0
  0
APPID
  2
CONTENTBLOCKDESCRIPTION
 70
     0
  0
APPID
  2
ACAD_NAV_VCDISPLAY
 70
     0
  0
APPID
  2
ACAD_MLEADERVER
 70
     0
  0
APPID
  2
ACDBDYNAMICBLOCKTRUENAME
 70
     0
  0
APPID
  2
ACDBDYNAMICBLOCKGUID
 70
     0
  0
ENDTAB
  0
TABLE
  2
DIMSTYLE
 70
     1
  0
DIMSTYLE
  2
STANDARD
 70
     0
  3

  4

  5
_ORIGIN
  6

  7

 40
1.0
 41
12.0
 42
20.0
 43
200.0
 44
20.0
 45
0.0
 46
0.0
 47
0.0
 48
0.0
140
64.0
141
0.09
142
0.0
143
25.399999999999999
144
1.0
145
0.0
146
1.0
147
25.0
 71
     0
 72
     0
 73
     0
 74
     0
 75
     0
 76
     0
 77
     1
 78
     8
170
     0
171
     2
172
     1
173
     0
174
     1
175
     0
176
     7
177
     7
178
     7
  0
ENDTAB
  0
TABLE
  2
VIEW
 70
     1
  0
VIEW
  2
ALL
 70
     0
 40
4282.6198079999986
 10
0.0
 20
41.309904000000003
 41
5940.0
 11
0.0
 21
0.0
 31
1.0
 12
0.0
 22
0.0
 32
0.0
 42
50.0
 43
0.0
 44
0.0
 50
0.0
 71
     0
  0
ENDTAB
  0
TABLE
  2
UCS
 70
     0
  0
ENDTAB
  0
TABLE
  2
VPORT
 70
     1
  0
VPORT
  2
*ACTIVE
 70
     0
 10
0.0
 20
0.0
 11
1.0
 21
1.0
 12
183.766951299932
 22
-172.39378924993071
 13
0.0
 23
0.0
 14
1.0
 24
1.0
 15
0.0
 25
0.0
 16
0.0
 26
0.0
 36
1.0
 17
0.0
 27
0.0
 37
0.0
 40
700.94380698536725
 41
2.195615514333896
 42
50.0
 43
0.0
 44
0.0
 50
0.0
 51
0.0
 71
     0
 72
  1000
 73
     1
 74
     3
 75
     0
 76
     0
 77
     0
 78
     0
  0
ENDTAB
  0
ENDSEC
  0
SECTION
  2
BLOCKS
  0
BLOCK
  8
0
  2
_ORIGIN
 70
     0
 10
0.0
 20
0.0
 30
0.0
  3
_ORIGIN
  1
_ORIGIN
  0
CIRCLE
  8
SIZE
  6
CONTINUOUS
 62
    30
 10
0.0
 20
0.0
 30
0.0
 40
0.5
  0
LINE
  8
SIZE
  6
CONTINUOUS
 62
    30
 10
0.0
 20
0.0
 30
0.0
 11
-1.0
 21
0.0
 31
0.0
  0
ENDBLK
  8
0
  0
ENDSEC
  0
SECTION
  2
ENTITIES
  0
TEXT
  8
ETC
  6
CONTINUOUS
 62
    61
 10
432.18936401070442
 20
288.10874779786673
 30
0.0
 40
64.0
  1
BFS-30SYA2_5
 41
0.9
  0
TEXT
  8
ETC
  6
CONTINUOUS
 62
    61
 10
429.98095301070452
 20
187.46770179786651
 30
0.0
 40
64.0
  1
産業扇
 41
0.9
  0
TEXT
  8
ETC
  6
CONTINUOUS
 62
    61
 10
570.22522816794276
 20
101.9237385333695
 30
0.0
 40
50.0
  1
BFS-30SYA2
 41
0.9
  0
CIRCLE
  8
ARRANGE
  6
CONTINUOUS
 62
     1
 10
0.0
 20
0.0
 30
0.0
 40
40.0
  0
LINE
  8
BASIS
  6
DASHDOT
 62
     6
 10
-267.15281599999997
 20
0.0000000000000568
 30
0.0
 11
267.15281599999997
 21
-0.0000000000000568
 31
0.0
  0
LINE
  8
SIZE
  6
CONTINUOUS
 62
    30
 10
182.5
 20
-275.78194327160008
 30
0.0
 11
182.5
 21
-696.86514084523333
 31
0.0
  0
LINE
  8
SIZE
  6
CONTINUOUS
 62
    30
 10
-182.50000000000011
 20
-275.81378950070581
 30
0.0
 11
-182.50000000000011
 21
-696.86514084523333
 31
0.0
  0
LINE
  8
SIZE
  6
CONTINUOUS
 62
    30
 10
170.5
 20
-676.86514084523321
 30
0.0
 11
-170.50000000000011
 21
-676.86514084523321
 31
0.0
  0
CIRCLE
  8
SIZE
  6
CONTINUOUS
 62
    30
 10
182.5
 20
-676.86514084523321
 30
0.0
 40
6.0
  0
LINE
  8
SIZE
  6
CONTINUOUS
 62
    30
 10
182.5
 20
-676.86514084523321
 30
0.0
 11
170.5
 21
-676.86514084523321
 31
0.0
  0
CIRCLE
  8
SIZE
  6
CONTINUOUS
 62
    30
 10
-182.50000000000011
 20
-676.86514084523321
 30
0.0
 40
6.0
  0
LINE
  8
SIZE
  6
CONTINUOUS
 62
    30
 10
-182.50000000000011
 20
-676.86514084523321
 30
0.0
 11
-170.50000000000011
 21
-676.86514084523321
 31
0.0
  0
TEXT
  8
SIZE
  6
CONTINUOUS
 62
    30
 10
-76.55714285714302
 20
-651.86514084523321
 30
0.0
 40
64.0
  1
365
 41
0.9
 72
     1
 11
-2.500000000000171
 21
-651.86514084523321
 31
0.0
  0
POINT
  8
DEFPOINTS
  6
CONTINUOUS
 62
    30
 10
182.5
 20
-255.78194327160011
 30
0.0
  0
POINT
  8
DEFPOINTS
  6
CONTINUOUS
 62
    30
 10
-182.50000000000011
 20
-255.81378950070581
 30
0.0
  0
POINT
  8
DEFPOINTS
  6
CONTINUOUS
 62
    30
 10
-182.50000000000011
 20
-676.86514084523321
 30
0.0
  0
LINE
  8
SIZE
  6
CONTINUOUS
 62
    30
 10
170.5
 20
-167.0
 30
0.0
 11
170.5
 21
-577.12870204802846
 31
0.0
  0
LINE
  8
SIZE
  6
CONTINUOUS
 62
    30
 10
-170.5
 20
-167.0
 30
0.0
 11
-170.5
 21
-577.12870204802846
 31
0.0
  0
LINE
  8
SIZE
  6
CONTINUOUS
 62
    30
 10
158.5
 20
-557.12870204802857
 30
0.0
 11
-158.5
 21
-557.12870204802857
 31
0.0
  0
CIRCLE
  8
SIZE
  6
CONTINUOUS
 62
    30
 10
170.5
 20
-557.12870204802857
 30
0.0
 40
6.0
  0
LINE
  8
SIZE
  6
CONTINUOUS
 62
    30
 10
170.5
 20
-557.12870204802857
 30
0.0
 11
158.5
 21
-557.12870204802857
 31
0.0
  0
CIRCLE
  8
SIZE
  6
CONTINUOUS
 62
    30
 10
-170.5
 20
-557.12870204802857
 30
0.0
 40
6.0
  0
LINE
  8
SIZE
  6
CONTINUOUS
 62
    30
 10
-170.5
 20
-557.12870204802857
 30
0.0
 11
-158.5
 21
-557.12870204802857
 31
0.0
  0
TEXT
  8
SIZE
  6
CONTINUOUS
 62
    30
 10
-61.71428571428585
 20
-532.12870204802857
 30
0.0
 40
64.0
  1
341
 41
0.9
 72
     1
 11
-0.0000000000001421
 21
-532.12870204802857
 31
0.0
  0
POINT
  8
DEFPOINTS
  6
CONTINUOUS
 62
    30
 10
170.5
 20
-147.0
 30
0.0
  0
POINT
  8
DEFPOINTS
  6
CONTINUOUS
 62
    30
 10
-170.5
 20
-147.0
 30
0.0
  0
POINT
  8
DEFPOINTS
  6
CONTINUOUS
 62
    30
 10
-170.5
 20
-557.12870204802857
 30
0.0
  0
LINE
  8
SIZE
  6
CONTINUOUS
 62
    30
 10
150.0
 20
-142.0
 30
0.0
 11
150.0
 21
-468.62734838054541
 31
0.0
  0
LINE
  8
SIZE
  6
CONTINUOUS
 62
    30
 10
-150.0
 20
-142.0
 30
0.0
 11
-150.0
 21
-468.62734838054541
 31
0.0
  0
LINE
  8
SIZE
  6
CONTINUOUS
 62
    30
 10
138.0
 20
-448.62734838054541
 30
0.0
 11
-138.0
 21
-448.62734838054541
 31
0.0
  0
CIRCLE
  8
SIZE
  6
CONTINUOUS
 62
    30
 10
150.0
 20
-448.62734838054541
 30
0.0
 40
6.0
  0
LINE
  8
SIZE
  6
CONTINUOUS
 62
    30
 10
150.0
 20
-448.62734838054541
 30
0.0
 11
138.0
 21
-448.62734838054541
 31
0.0
  0
CIRCLE
  8
SIZE
  6
CONTINUOUS
 62
    30
 10
-150.0
 20
-448.62734838054541
 30
0.0
 40
6.0
  0
LINE
  8
SIZE
  6
CONTINUOUS
 62
    30
 10
-150.0
 20
-448.62734838054541
 30
0.0
 11
-138.0
 21
-448.62734838054541
 31
0.0
  0
TEXT
  8
SIZE
  6
CONTINUOUS
 62
    30
 10
-74.057142857142935
 20
-423.62734838054541
 30
0.0
 40
64.0
  1
300
 41
0.9
 72
     1
 11
-0.0000000000000853
 21
-423.62734838054541
 31
0.0
  0
POINT
  8
DEFPOINTS
  6
CONTINUOUS
 62
    30
 10
150.0
 20
-122.0
 30
0.0
  0
POINT
  8
DEFPOINTS
  6
CONTINUOUS
 62
    30
 10
-150.0
 20
-122.0
 30
0.0
  0
POINT
  8
DEFPOINTS
  6
CONTINUOUS
 62
    30
 10
-150.0
 20
-448.62734838054541
 30
0.0
  0
LINE
  8
SIZE
  6
CONTINUOUS
 62
    30
 10
237.5
 20
-22.0
 30
0.0
 11
237.5
 21
169.3823780041636
 31
0.0
  0
LINE
  8
SIZE
  6
CONTINUOUS
 62
    30
 10
168.0
 20
19.99999999999994
 30
0.0
 11
168.0
 21
169.3823780041636
 31
0.0
  0
LINE
  8
SIZE
  6
CONTINUOUS
 62
    30
 10
249.5
 20
149.3823780041636
 30
0.0
 11
261.5
 21
149.3823780041636
 31
0.0
  0
LINE
  8
SIZE
  6
CONTINUOUS
 62
    30
 10
156.0
 20
149.3823780041636
 30
0.0
 11
144.0
 21
149.3823780041636
 31
0.0
  0
LINE
  8
SIZE
  6
CONTINUOUS
 62
    30
 10
237.5
 20
149.3823780041636
 30
0.0
 11
168.0
 21
149.3823780041636
 31
0.0
  0
CIRCLE
  8
SIZE
  6
CONTINUOUS
 62
    30
 10
237.5
 20
149.3823780041636
 30
0.0
 40
6.0
  0
LINE
  8
SIZE
  6
CONTINUOUS
 62
    30
 10
237.5
 20
149.3823780041636
 30
0.0
 11
249.5
 21
149.3823780041636
 31
0.0
  0
CIRCLE
  8
SIZE
  6
CONTINUOUS
 62
    30
 10
168.0
 20
149.3823780041636
 30
0.0
 40
6.0
  0
LINE
  8
SIZE
  6
CONTINUOUS
 62
    30
 10
168.0
 20
149.3823780041636
 30
0.0
 11
156.0
 21
149.3823780041636
 31
0.0
  0
TEXT
  8
SIZE
  6
CONTINUOUS
 62
    30
 10
156.12142857142859
 20
174.38237800416351
 30
0.0
 40
64.0
  1
70
 41
0.9
 72
     1
 11
202.75
 21
174.38237800416351
 31
0.0
  0
POINT
  8
DEFPOINTS
  6
CONTINUOUS
 62
    30
 10
237.5
 20
-42.0
 30
0.0
  0
POINT
  8
DEFPOINTS
  6
CONTINUOUS
 62
    30
 10
168.0
 20
-0.0000000000000568
 30
0.0
  0
POINT
  8
DEFPOINTS
  6
CONTINUOUS
 62
    30
 10
168.0
 20
149.3823780041636
 30
0.0
  0
LINE
  8
SIZE
  6
CONTINUOUS
 62
    30
 10
168.0
 20
19.99999999999994
 30
0.0
 11
168.0
 21
169.3823780041634
 31
0.0
  0
LINE
  8
SIZE
  6
CONTINUOUS
 62
    30
 10
-167.0
 20
20.0
 30
0.0
 11
-167.0
 21
169.3823780041634
 31
0.0
  0
LINE
  8
SIZE
  6
CONTINUOUS
 62
    30
 10
156.0
 20
149.3823780041634
 30
0.0
 11
-155.0
 21
149.3823780041634
 31
0.0
  0
CIRCLE
  8
SIZE
  6
CONTINUOUS
 62
    30
 10
168.0
 20
149.3823780041634
 30
0.0
 40
6.0
  0
LINE
  8
SIZE
  6
CONTINUOUS
 62
    30
 10
168.0
 20
149.3823780041634
 30
0.0
 11
156.0
 21
149.3823780041634
 31
0.0
  0
CIRCLE
  8
SIZE
  6
CONTINUOUS
 62
    30
 10
-167.0
 20
149.3823780041634
 30
0.0
 40
6.0
  0
LINE
  8
SIZE
  6
CONTINUOUS
 62
    30
 10
-167.0
 20
149.3823780041634
 30
0.0
 11
-155.0
 21
149.3823780041634
 31
0.0
  0
TEXT
  8
SIZE
  6
CONTINUOUS
 62
    30
 10
-74.05714285714285
 20
174.3823780041634
 30
0.0
 40
64.0
  1
335
 41
0.9
 72
     1
 11
0.0
 21
174.3823780041634
 31
0.0
  0
POINT
  8
DEFPOINTS
  6
CONTINUOUS
 62
    30
 10
168.0
 20
-0.0000000000000568
 30
0.0
  0
POINT
  8
DEFPOINTS
  6
CONTINUOUS
 62
    30
 10
-167.0
 20
0.0
 30
0.0
  0
POINT
  8
DEFPOINTS
  6
CONTINUOUS
 62
    30
 10
-167.0
 20
149.3823780041634
 30
0.0
  0
LINE
  8
SIZE
  6
CONTINUOUS
 62
    30
 10
-167.0
 20
20.0
 30
0.0
 11
-167.0
 21
169.38237800416391
 31
0.0
  0
LINE
  8
SIZE
  6
CONTINUOUS
 62
    30
 10
-237.0
 20
-22.0
 30
0.0
 11
-237.0
 21
169.38237800416391
 31
0.0
  0
LINE
  8
SIZE
  6
CONTINUOUS
 62
    30
 10
-155.0
 20
149.38237800416391
 30
0.0
 11
-143.0
 21
149.38237800416391
 31
0.0
  0
LINE
  8
SIZE
  6
CONTINUOUS
 62
    30
 10
-249.0
 20
149.38237800416391
 30
0.0
 11
-261.0
 21
149.38237800416391
 31
0.0
  0
LINE
  8
SIZE
  6
CONTINUOUS
 62
    30
 10
-167.0
 20
149.38237800416391
 30
0.0
 11
-237.0
 21
149.38237800416391
 31
0.0
  0
CIRCLE
  8
SIZE
  6
CONTINUOUS
 62
    30
 10
-167.0
 20
149.38237800416391
 30
0.0
 40
6.0
  0
LINE
  8
SIZE
  6
CONTINUOUS
 62
    30
 10
-167.0
 20
149.38237800416391
 30
0.0
 11
-155.0
 21
149.38237800416391
 31
0.0
  0
CIRCLE
  8
SIZE
  6
CONTINUOUS
 62
    30
 10
-237.0
 20
149.38237800416391
 30
0.0
 40
6.0
  0
LINE
  8
SIZE
  6
CONTINUOUS
 62
    30
 10
-237.0
 20
149.38237800416391
 30
0.0
 11
-249.0
 21
149.38237800416391
 31
0.0
  0
TEXT
  8
SIZE
  6
CONTINUOUS
 62
    30
 10
-248.62857142857141
 20
174.38237800416391
 30
0.0
 40
64.0
  1
70
 41
0.9
 72
     1
 11
-202.0
 21
174.38237800416391
 31
0.0
  0
POINT
  8
DEFPOINTS
  6
CONTINUOUS
 62
    30
 10
-167.0
 20
0.0
 30
0.0
  0
POINT
  8
DEFPOINTS
  6
CONTINUOUS
 62
    30
 10
-237.0
 20
-42.0
 30
0.0
  0
POINT
  8
DEFPOINTS
  6
CONTINUOUS
 62
    30
 10
-237.0
 20
149.38237800416391
 30
0.0
  0
LINE
  8
BASIS
  6
DASHDOT
 62
     6
 10
266.90281599999992
 20
-113.0012428506969
 30
0.0
 11
-266.90281599999992
 21
-113.0012428506969
 31
0.0
  0
LINE
  8
BASIS
  6
DASHDOT
 62
     6
 10
0.0
 20
97.892939893169512
 30
0.0
 11
0.0
 21
-323.89542559456328
 31
0.0
  0
POINT
  8
DEFPOINTS
  6
CONTINUOUS
 62
    30
 10
-167.0
 20
0.0
 30
0.0
  0
POINT
  8
DEFPOINTS
  6
CONTINUOUS
 62
    30
 10
168.5
 20
0.0
 30
0.0
  0
LINE
  8
DETAIL
  6
CONTINUOUS
 62
     5
 10
168.5
 20
0.0
 30
0.0
 11
-167.0
 21
0.0
 31
0.0
  0
LINE
  8
DETAIL
  6
CONTINUOUS
 62
     5
 10
-167.0
 20
0.0
 30
0.0
 11
-167.0
 21
-102.0
 31
0.0
  0
LINE
  8
DETAIL
  6
CONTINUOUS
 62
     5
 10
168.0
 20
0.0
 30
0.0
 11
168.0
 21
-102.0
 31
0.0
  0
LINE
  8
DETAIL
  6
CONTINUOUS
 62
     5
 10
179.0
 20
-225.0
 30
0.0
 11
-178.5
 21
-225.0
 31
0.0
  0
LINE
  8
NOTE
  6
CONTINUOUS
 62
     4
 10
0.0
 20
-261.99415902920009
 30
0.0
 11
0.0
 21
-301.99415902919998
 31
0.0
  0
LINE
  8
NOTE
  6
CONTINUOUS
 62
     4
 10
20.0
 20
-281.99415902919998
 30
0.0
 11
-20.0
 21
-281.99415902919998
 31
0.0
  0
LINE
  8
DETAIL
  6
CONTINUOUS
 62
     5
 10
106.5
 20
0.0
 30
0.0
 11
106.5
 21
-225.0
 31
0.0
  0
LINE
  8
DETAIL
  6
CONTINUOUS
 62
     5
 10
170.5
 20
-102.0
 30
0.0
 11
129.5
 21
-102.0
 31
0.0
  0
LINE
  8
DETAIL
  6
CONTINUOUS
 62
     5
 10
170.0
 20
-122.985609
 30
0.0
 11
129.5
 21
-122.985609
 31
0.0
  0
LINE
  8
DETAIL
  6
CONTINUOUS
 62
     5
 10
170.5
 20
-147.0
 30
0.0
 11
168.0
 21
-147.0
 31
0.0
  0
LINE
  8
DETAIL
  6
CONTINUOUS
 62
     5
 10
170.5
 20
-102.0
 30
0.0
 11
170.5
 21
-147.0
 31
0.0
  0
LINE
  8
DETAIL
  6
CONTINUOUS
 62
     5
 10
129.5
 20
-102.0
 30
0.0
 11
129.5
 21
-122.985609
 31
0.0
  0
CIRCLE
  8
FIX
  6
CONTINUOUS
 62
    11
 10
150.0
 20
-102.0
 30
0.0
 40
5.5
  0
LINE
  8
NOTE
  6
CONTINUOUS
 62
     4
 10
150.0
 20
-122.0
 30
0.0
 11
150.0
 21
-82.0
 31
0.0
  0
LINE
  8
NOTE
  6
CONTINUOUS
 62
     4
 10
170.0
 20
-102.0
 30
0.0
 11
130.0
 21
-102.0
 31
0.0
  0
LINE
  8
DETAIL
  6
CONTINUOUS
 62
     5
 10
-169.0
 20
-122.985609
 30
0.0
 11
-129.5
 21
-122.985609
 31
0.0
  0
LINE
  8
DETAIL
  6
CONTINUOUS
 62
     5
 10
-129.5
 20
-102.0
 30
0.0
 11
-129.5
 21
-122.985609
 31
0.0
  0
LINE
  8
DETAIL
  6
CONTINUOUS
 62
     5
 10
-170.5
 20
-102.0
 30
0.0
 11
-170.5
 21
-147.0
 31
0.0
  0
LINE
  8
DETAIL
  6
CONTINUOUS
 62
     5
 10
-169.5
 20
-147.0
 30
0.0
 11
-166.0
 21
-147.0
 31
0.0
  0
LINE
  8
DETAIL
  6
CONTINUOUS
 62
     5
 10
-170.5
 20
-102.0
 30
0.0
 11
-129.5
 21
-102.0
 31
0.0
  0
LINE
  8
NOTE
  6
CONTINUOUS
 62
     4
 10
-150.0
 20
-122.0
 30
0.0
 11
-150.0
 21
-82.0
 31
0.0
  0
LINE
  8
NOTE
  6
CONTINUOUS
 62
     4
 10
-170.0
 20
-102.0
 30
0.0
 11
-130.0
 21
-102.0
 31
0.0
  0
CIRCLE
  8
FIX
  6
CONTINUOUS
 62
    11
 10
-150.0
 20
-102.0
 30
0.0
 40
5.5
  0
LINE
  8
OUTLINE
  6
CONTINUOUS
 62
     3
 10
168.5
 20
0.0
 30
0.0
 11
-167.0
 21
0.0
 31
0.0
  0
LINE
  8
DETAIL
  6
CONTINUOUS
 62
     5
 10
168.0
 20
-122.985609
 30
0.0
 11
168.0
 21
-225.0
 31
0.0
  0
LINE
  8
DETAIL
  6
CONTINUOUS
 62
     5
 10
-167.0
 20
-122.985609
 30
0.0
 11
-167.0
 21
-225.0
 31
0.0
  0
POINT
  8
DEFPOINTS
  6
CONTINUOUS
 62
    30
 10
168.5
 20
0.0
 30
0.0
  0
POINT
  8
DEFPOINTS
  6
CONTINUOUS
 62
    30
 10
179.0
 20
-225.0
 30
0.0
  0
POINT
  8
DEFPOINTS
  6
CONTINUOUS
 62
    30
 10
170.5
 20
-102.0
 30
0.0
  0
POINT
  8
DEFPOINTS
  6
CONTINUOUS
 62
    30
 10
-170.5
 20
-102.0
 30
0.0
  0
POINT
  8
DEFPOINTS
  6
CONTINUOUS
 62
    30
 10
-167.0
 20
0.0
 30
0.0
  0
POINT
  8
DEFPOINTS
  6
CONTINUOUS
 62
    30
 10
-178.5
 20
-225.0
 30
0.0
  0
POINT
  8
DEFPOINTS
  6
CONTINUOUS
 62
    30
 10
-167.0
 20
0.0
 30
0.0
  0
POINT
  8
DEFPOINTS
  6
CONTINUOUS
 62
    30
 10
-265.76992399999989
 20
-113.0
 30
0.0
  0
POINT
  8
DEFPOINTS
  6
CONTINUOUS
 62
    30
 10
-167.0
 20
0.0
 30
0.0
  0
POINT
  8
DEFPOINTS
  6
CONTINUOUS
 62
    30
 10
-170.5
 20
-102.0
 30
0.0
  0
POINT
  8
DEFPOINTS
  6
CONTINUOUS
 62
    30
 10
-150.0
 20
-108.0
 30
0.0
  0
POINT
  8
DEFPOINTS
  6
CONTINUOUS
 62
    30
 10
150.0
 20
-108.0
 30
0.0
  0
POINT
  8
DEFPOINTS
  6
CONTINUOUS
 62
    30
 10
-129.5
 20
-102.0
 30
0.0
  0
POINT
  8
DEFPOINTS
  6
CONTINUOUS
 62
    30
 10
129.5
 20
-102.0
 30
0.0
  0
LINE
  8
DETAIL
  6
CONTINUOUS
 62
     5
 10
-116.5
 20
0.0
 30
0.0
 11
-116.5
 21
-132.85293141612459
 31
0.0
  0
POINT
  8
ARRANGE
  6
CONTINUOUS
 62
     1
 10
0.0
 20
0.0
 30
0.0
 39
50.0
  0
LINE
  8
DETAIL
  6
CONTINUOUS
 62
     5
 10
229.5
 20
-184.76190500000001
 30
0.0
 11
229.5
 21
-41.238095000000037
 31
0.0
  0
LINE
  8
DETAIL
  6
CONTINUOUS
 62
     5
 10
237.5
 20
-184.0
 30
0.0
 11
237.5
 21
-42.0
 31
0.0
  0
LINE
  8
DETAIL
  6
CONTINUOUS
 62
     5
 10
168.5
 20
-193.0
 30
0.0
 11
237.5
 21
-184.0
 31
0.0
  0
LINE
  8
DETAIL
  6
CONTINUOUS
 62
     5
 10
168.5
 20
-33.0
 30
0.0
 11
237.5
 21
-42.0
 31
0.0
  0
LINE
  8
DETAIL
  6
CONTINUOUS
 62
     5
 10
173.0
 20
-192.38095200000001
 30
0.0
 11
173.0
 21
-33.619048000000021
 31
0.0
  0
POINT
  8
DEFPOINTS
  6
CONTINUOUS
 62
    30
 10
237.5
 20
-42.0
 30
0.0
  0
POINT
  8
DEFPOINTS
  6
CONTINUOUS
 62
    30
 10
168.5
 20
-193.0
 30
0.0
  0
POINT
  8
DEFPOINTS
  6
CONTINUOUS
 62
    30
 10
168.5
 20
-33.0
 30
0.0
  0
POINT
  8
DEFPOINTS
  6
CONTINUOUS
 62
    30
 10
168.5
 20
0.0
 30
0.0
  0
POINT
  8
DEFPOINTS
  6
CONTINUOUS
 62
    30
 10
237.5
 20
-42.0
 30
0.0
  0
LINE
  8
DETAIL
  6
CONTINUOUS
 62
     5
 10
-237.0
 20
-184.0
 30
0.0
 11
-237.0
 21
-42.0
 31
0.0
  0
LINE
  8
DETAIL
  6
CONTINUOUS
 62
     5
 10
-229.0
 20
-184.76190500000001
 30
0.0
 11
-229.0
 21
-41.238095000000037
 31
0.0
  0
LINE
  8
DETAIL
  6
CONTINUOUS
 62
     5
 10
-167.0
 20
-33.0
 30
0.0
 11
-237.0
 21
-42.0
 31
0.0
  0
LINE
  8
DETAIL
  6
CONTINUOUS
 62
     5
 10
-167.0
 20
-193.0
 30
0.0
 11
-237.0
 21
-184.0
 31
0.0
  0
LINE
  8
DETAIL
  6
CONTINUOUS
 62
     5
 10
-173.0
 20
-192.38095200000001
 30
0.0
 11
-173.0
 21
-33.619048000000021
 31
0.0
  0
POINT
  8
DEFPOINTS
  6
CONTINUOUS
 62
    30
 10
-167.0
 20
0.0
 30
0.0
  0
POINT
  8
DEFPOINTS
  6
CONTINUOUS
 62
    30
 10
-237.0
 20
-42.0
 30
0.0
  0
LINE
  8
OUTLINE
  6
CONTINUOUS
 62
     3
 10
-167.0
 20
0.0
 30
0.0
 11
-167.0
 21
-225.0
 31
0.0
  0
LINE
  8
OUTLINE
  6
CONTINUOUS
 62
     3
 10
168.0
 20
0.0
 30
0.0
 11
168.0
 21
-225.0
 31
0.0
  0
LINE
  8
SIZE
  6
CONTINUOUS
 62
    30
 10
-287.15281600000009
 20
0.0000000000000568
 30
0.0
 11
-391.04952113732782
 21
0.0000000000000568
 31
0.0
  0
LINE
  8
SIZE
  6
CONTINUOUS
 62
    30
 10
-285.76992400000012
 20
-113.0000000000001
 30
0.0
 11
-391.04952113732782
 21
-113.0000000000001
 31
0.0
  0
LINE
  8
SIZE
  6
CONTINUOUS
 62
    30
 10
-371.04952113732782
 20
-101.0000000000001
 30
0.0
 11
-371.04952113732782
 21
-11.99999999999994
 31
0.0
  0
LINE
  8
SIZE
  6
CONTINUOUS
 62
    30
 10
-371.04952113732782
 20
0.0000000000000568
 30
0.0
 11
-371.04952113732782
 21
193.65714285714299
 31
0.0
  0
CIRCLE
  8
SIZE
  6
CONTINUOUS
 62
    30
 10
-371.04952113732782
 20
-113.0000000000001
 30
0.0
 40
6.0
  0
LINE
  8
SIZE
  6
CONTINUOUS
 62
    30
 10
-371.04952113732782
 20
-113.0000000000001
 30
0.0
 11
-371.04952113732782
 21
-101.0000000000001
 31
0.0
  0
CIRCLE
  8
SIZE
  6
CONTINUOUS
 62
    30
 10
-371.04952113732782
 20
0.0000000000000568
 30
0.0
 40
6.0
  0
LINE
  8
SIZE
  6
CONTINUOUS
 62
    30
 10
-371.04952113732782
 20
0.0000000000000568
 30
0.0
 11
-371.04952113732782
 21
-11.99999999999994
 31
0.0
  0
TEXT
  8
SIZE
  6
CONTINUOUS
 62
    30
 10
-396.04952113732759
 20
42.485714285714508
 30
0.0
 40
64.0
  1
113
 50
90.0
 41
0.9
 72
     1
 11
-396.04952113732759
 21
105.5714285714288
 31
0.0
  0
POINT
  8
DEFPOINTS
  6
CONTINUOUS
 62
    30
 10
-267.15281600000009
 20
0.0000000000000568
 30
0.0
  0
POINT
  8
DEFPOINTS
  6
CONTINUOUS
 62
    30
 10
-265.76992400000012
 20
-113.0000000000001
 30
0.0
  0
POINT
  8
DEFPOINTS
  6
CONTINUOUS
 62
    30
 10
-371.04952113732782
 20
-113.0000000000001
 30
0.0
  0
LINE
  8
DETAIL
  6
CONTINUOUS
 62
     5
 10
-181.8334813847996
 20
-256.0316989718001
 30
0.0
 11
-181.80000005379949
 21
-256.13155969719992
 31
0.0
  0
LINE
  8
DETAIL
  6
CONTINUOUS
 62
     5
 10
-181.80000005379949
 20
-256.13155969719992
 30
0.0
 11
-181.7665187119992
 21
-256.22868641700012
 31
0.0
  0
LINE
  8
DETAIL
  6
CONTINUOUS
 62
     5
 10
-181.7665187119992
 20
-256.22868641700012
 30
0.0
 11
-181.7332316115999
 21
-256.3218237051999
 31
0.0
  0
LINE
  8
DETAIL
  6
CONTINUOUS
 62
     5
 10
-181.7332316115999
 20
-256.3218237051999
 30
0.0
 11
-181.70000001119931
 21
-256.41071346500007
 31
0.0
  0
LINE
  8
DETAIL
  6
CONTINUOUS
 62
     5
 10
-181.70000001119931
 20
-256.41071346500007
 30
0.0
 11
-181.66676842179911
 21
-256.49486191919999
 31
0.0
  0
LINE
  8
DETAIL
  6
CONTINUOUS
 62
     5
 10
-181.66676842179911
 20
-256.49486191919999
 30
0.0
 11
-181.63348133659929
 21
-256.57377855700003
 31
0.0
  0
LINE
  8
DETAIL
  6
CONTINUOUS
 62
     5
 10
-181.63348133659929
 20
-256.57377855700003
 30
0.0
 11
-181.60000000359921
 21
-256.64714504739999
 31
0.0
  0
LINE
  8
DETAIL
  6
CONTINUOUS
 62
     5
 10
-181.60000000359921
 20
-256.64714504739999
 30
0.0
 11
-181.56651866839999
 21
-256.71393818999991
 31
0.0
  0
LINE
  8
DETAIL
  6
CONTINUOUS
 62
     5
 10
-181.56651866839999
 20
-256.71393818999991
 30
0.0
 11
-181.53323157519941
 21
-256.77333539779988
 31
0.0
  0
LINE
  8
DETAIL
  6
CONTINUOUS
 62
     5
 10
-181.53323157519941
 20
-256.77333539779988
 30
0.0
 11
-181.49999997659961
 21
-256.82522620240002
 31
0.0
  0
LINE
  8
DETAIL
  6
CONTINUOUS
 62
     5
 10
-181.49999997659961
 20
-256.82522620240002
 30
0.0
 11
-181.46676836959981
 21
-256.86933491819991
 31
0.0
  0
LINE
  8
DETAIL
  6
CONTINUOUS
 62
     5
 10
-181.46676836959981
 20
-256.86933491819991
 30
0.0
 11
-181.43348126439921
 21
-256.90539114400008
 31
0.0
  0
LINE
  8
DETAIL
  6
CONTINUOUS
 62
     5
 10
-181.89999999999961
 20
-255.82813667720009
 30
0.0
 11
-181.8334813847996
 21
-256.0316989718001
 31
0.0
  0
LINE
  8
DETAIL
  6
CONTINUOUS
 62
     5
 10
-182.49972937579969
 20
-255.80743168559999
 30
0.0
 11
-182.49313857419929
 21
-255.9090741821999
 31
0.0
  0
LINE
  8
DETAIL
  6
CONTINUOUS
 62
     5
 10
-182.49313857419929
 20
-255.9090741821999
 30
0.0
 11
-182.47771357339931
 21
-256.01011089640002
 31
0.0
  0
LINE
  8
DETAIL
  6
CONTINUOUS
 62
     5
 10
-182.47771357339931
 20
-256.01011089640002
 30
0.0
 11
-182.45343299880011
 21
-256.10993807680012
 31
0.0
  0
LINE
  8
DETAIL
  6
CONTINUOUS
 62
     5
 10
-182.45343299880011
 20
-256.10993807680012
 30
0.0
 11
-182.42053346159989
 21
-256.20729263499987
 31
0.0
  0
LINE
  8
DETAIL
  6
CONTINUOUS
 62
     5
 10
-182.42053346159989
 20
-256.20729263499987
 30
0.0
 11
-182.37952476939969
 21
-256.30090226200008
 31
0.0
  0
LINE
  8
DETAIL
  6
CONTINUOUS
 62
     5
 10
-182.37952476939969
 20
-256.30090226200008
 30
0.0
 11
-182.33063141839921
 21
-256.39049651880009
 31
0.0
  0
LINE
  8
DETAIL
  6
CONTINUOUS
 62
     5
 10
-182.33063141839921
 20
-256.39049651880009
 30
0.0
 11
-182.2741515516
 21
-256.47556818980001
 31
0.0
  0
LINE
  8
DETAIL
  6
CONTINUOUS
 62
     5
 10
-182.2741515516
 20
-256.47556818980001
 30
0.0
 11
-182.21038847499949
 21
-256.55561318519989
 31
0.0
  0
LINE
  8
DETAIL
  6
CONTINUOUS
 62
     5
 10
-182.21038847499949
 20
-256.55561318519989
 30
0.0
 11
-182.13946994439991
 21
-256.63030340499989
 31
0.0
  0
LINE
  8
DETAIL
  6
CONTINUOUS
 62
     5
 10
-182.13946994439991
 20
-256.63030340499989
 30
0.0
 11
-182.06227853179919
 21
-256.69858882900007
 31
0.0
  0
LINE
  8
DETAIL
  6
CONTINUOUS
 62
     5
 10
-182.06227853179919
 20
-256.69858882900007
 30
0.0
 11
-181.9798889139993
 21
-256.75961558519998
 31
0.0
  0
LINE
  8
DETAIL
  6
CONTINUOUS
 62
     5
 10
-181.9798889139993
 20
-256.75961558519998
 30
0.0
 11
-181.89262789939951
 21
-256.8132588005999
 31
0.0
  0
LINE
  8
DETAIL
  6
CONTINUOUS
 62
     5
 10
-181.89262789939951
 20
-256.8132588005999
 30
0.0
 11
-181.80100449299971
 21
-256.85922440500008
 31
0.0
  0
LINE
  8
DETAIL
  6
CONTINUOUS
 62
     5
 10
-181.80100449299971
 20
-256.85922440500008
 30
0.0
 11
-181.7055307239998
 21
-256.89722355260011
 31
0.0
  0
LINE
  8
DETAIL
  6
CONTINUOUS
 62
     5
 10
-181.7055307239998
 20
-256.89722355260011
 30
0.0
 11
-181.60647779999999
 21
-256.9270334723999
 31
0.0
  0
LINE
  8
DETAIL
  6
CONTINUOUS
 62
     5
 10
-181.60647779999999
 20
-256.9270334723999
 30
0.0
 11
-181.5051347891995
 21
-256.94817754780001
 31
0.0
  0
LINE
  8
DETAIL
  6
CONTINUOUS
 62
     5
 10
-181.5051347891995
 20
-256.94817754780001
 30
0.0
 11
-181.40277492339919
 21
-256.96045114100002
 31
0.0
  0
LINE
  8
DETAIL
  6
CONTINUOUS
 62
     5
 10
-181.43348126439921
 20
-256.90539114400008
 30
0.0
 11
-181.39999991819971
 21
-256.93318553800009
 31
0.0
  0
LINE
  8
DETAIL
  6
CONTINUOUS
 62
     5
 10
-181.39999991819971
 20
-256.93318553800009
 30
0.0
 11
-181.3665185873997
 21
-256.95227657100008
 31
0.0
  0
LINE
  8
DETAIL
  6
CONTINUOUS
 62
     5
 10
-181.3665185873997
 20
-256.95227657100008
 30
0.0
 11
-181.33320378259941
 21
-256.9624931802
 31
0.0
  0
LINE
  8
DETAIL
  6
CONTINUOUS
 62
     5
 10
-181.8947984724
 20
-255.85950639440011
 30
0.0
 11
-181.88244985879919
 21
-255.92344644280001
 31
0.0
  0
LINE
  8
DETAIL
  6
CONTINUOUS
 62
     5
 10
-181.88244985879919
 20
-255.92344644280001
 30
0.0
 11
-181.86291526519929
 21
-255.9857747044
 31
0.0
  0
LINE
  8
DETAIL
  6
CONTINUOUS
 62
     5
 10
-182.5
 20
-255.78194327160011
 30
0.0
 11
-182.49972937579969
 21
-255.80743168559999
 31
0.0
  0
LINE
  8
DETAIL
  6
CONTINUOUS
 62
     5
 10
-183.09999999999951
 20
-234.0
 30
0.0
 11
-183.09999999999951
 21
-229.0
 31
0.0
  0
LINE
  8
DETAIL
  6
CONTINUOUS
 62
     5
 10
-183.0
 20
-240.69999999999999
 30
0.0
 11
-183.0
 21
-234.0
 31
0.0
  0
LINE
  8
DETAIL
  6
CONTINUOUS
 62
     5
 10
-182.5
 20
-255.78194327160011
 30
0.0
 11
-182.5
 21
-229.0
 31
0.0
  0
LINE
  8
DETAIL
  6
CONTINUOUS
 62
     5
 10
-181.89999999999961
 20
-255.82813667720009
 30
0.0
 11
-181.89999999999961
 21
-226.59999999999991
 31
0.0
  0
LINE
  8
DETAIL
  6
CONTINUOUS
 62
     5
 10
1.538815946600153
 20
-284.7514739738001
 30
0.0
 11
1.521611659400151
 21
-284.75525182820002
 31
0.0
  0
LINE
  8
DETAIL
  6
CONTINUOUS
 62
     5
 10
1.521611659400151
 20
-284.75525182820002
 30
0.0
 11
1.451904946600735
 21
-284.76285527419998
 31
0.0
  0
LINE
  8
DETAIL
  6
CONTINUOUS
 62
     5
 10
1.451904946600735
 20
-284.76285527419998
 30
0.0
 11
1.338082836600734
 21
-284.76998942699993
 31
0.0
  0
LINE
  8
DETAIL
  6
CONTINUOUS
 62
     5
 10
1.338082836600734
 20
-284.76998942699993
 30
0.0
 11
1.1836037570001281
 21
-284.77643751879998
 31
0.0
  0
LINE
  8
DETAIL
  6
CONTINUOUS
 62
     5
 10
1.1836037570001281
 20
-284.77643751879998
 30
0.0
 11
0.9931614758006617
 21
-284.78200362759998
 31
0.0
  0
LINE
  8
DETAIL
  6
CONTINUOUS
 62
     5
 10
0.9931614758006617
 20
-284.78200362759998
 30
0.0
 11
0.7725424860000203
 21
-284.78651863019991
 31
0.0
  0
LINE
  8
DETAIL
  6
CONTINUOUS
 62
     5
 10
0.7725424860000203
 20
-284.78651863019991
 30
0.0
 11
0.5284501836003983
 21
-284.78984534019992
 31
0.0
  0
LINE
  8
DETAIL
  6
CONTINUOUS
 62
     5
 10
0.5284501836003983
 20
-284.78984534019992
 30
0.0
 11
0.2683011898006953
 21
-284.79188267740011
 31
0.0
  0
LINE
  8
DETAIL
  6
CONTINUOUS
 62
     5
 10
0.2683011898006953
 20
-284.79188267740011
 30
0.0
 11
0.0
 21
-284.79256873840001
 31
0.0
  0
LINE
  8
DETAIL
  6
CONTINUOUS
 62
     5
 10
9.9731977594001364
 20
-280.45755294340012
 30
0.0
 11
10.57844311420013
 21
-280.4280889698
 31
0.0
  0
LINE
  8
DETAIL
  6
CONTINUOUS
 62
     5
 10
10.57844311420013
 20
-280.4280889698
 30
0.0
 11
11.082257124600799
 21
-280.39702566580007
 31
0.0
  0
LINE
  8
DETAIL
  6
CONTINUOUS
 62
     5
 10
11.082257124600799
 20
-280.39702566580007
 30
0.0
 11
11.47960021440031
 21
-280.36467033780008
 31
0.0
  0
LINE
  8
DETAIL
  6
CONTINUOUS
 62
     5
 10
11.47960021440031
 20
-280.36467033780008
 30
0.0
 11
11.766594250000709
 21
-280.33134320840009
 31
0.0
  0
LINE
  8
DETAIL
  6
CONTINUOUS
 62
     5
 10
11.766594250000709
 20
-280.33134320840009
 30
0.0
 11
11.9404388110006
 21
-280.29740616780009
 31
0.0
  0
LINE
  8
DETAIL
  6
CONTINUOUS
 62
     5
 10
11.9404388110006
 20
-280.29740616780009
 30
0.0
 11
12.0
 21
-280.26250531440002
 31
0.0
  0
LINE
  8
DETAIL
  6
CONTINUOUS
 62
     5
 10
0.0
 20
-284.99415902919998
 30
0.0
 11
0.0442179057999965
 21
-284.99396347840002
 31
0.0
  0
LINE
  8
DETAIL
  6
CONTINUOUS
 62
     5
 10
0.0442179057999965
 20
-284.99396347840002
 30
0.0
 11
0.0878120114002741
 21
-284.99338787480002
 31
0.0
  0
LINE
  8
DETAIL
  6
CONTINUOUS
 62
     5
 10
0.0878120114002741
 20
-284.99338787480002
 30
0.0
 11
0.134523254800115
 21
-284.99234903940021
 31
0.0
  0
LINE
  8
DETAIL
  6
CONTINUOUS
 62
     5
 10
0.134523254800115
 20
-284.99234903940021
 30
0.0
 11
0.1854268882007091
 21
-284.99071953299989
 31
0.0
  0
LINE
  8
DETAIL
  6
CONTINUOUS
 62
     5
 10
0.1854268882007091
 20
-284.99071953299989
 30
0.0
 11
0.2394181552008376
 21
-284.98842363099988
 31
0.0
  0
LINE
  8
DETAIL
  6
CONTINUOUS
 62
     5
 10
0.2394181552008376
 20
-284.98842363099988
 30
0.0
 11
0.2970692178005265
 21
-284.98532621520008
 31
0.0
  0
LINE
  8
DETAIL
  6
CONTINUOUS
 62
     5
 10
0.2970692178005265
 20
-284.98532621520008
 30
0.0
 11
0.358390534600403
 21
-284.98129810599988
 31
0.0
  0
LINE
  8
DETAIL
  6
CONTINUOUS
 62
     5
 10
0.358390534600403
 20
-284.98129810599988
 30
0.0
 11
0.4230382424002528
 21
-284.97623075140001
 31
0.0
  0
LINE
  8
DETAIL
  6
CONTINUOUS
 62
     5
 10
0.4230382424002528
 20
-284.97623075140001
 30
0.0
 11
0.490600701200492
 21
-284.9700319082001
 31
0.0
  0
LINE
  8
DETAIL
  6
CONTINUOUS
 62
     5
 10
0.490600701200492
 20
-284.9700319082001
 30
0.0
 11
0.5616651082000317
 21
-284.96251210700012
 31
0.0
  0
LINE
  8
DETAIL
  6
CONTINUOUS
 62
     5
 10
0.5616651082000317
 20
-284.96251210700012
 30
0.0
 11
0.636776488599935
 21
-284.95344483399998
 31
0.0
  0
LINE
  8
DETAIL
  6
CONTINUOUS
 62
     5
 10
0.636776488599935
 20
-284.95344483399998
 30
0.0
 11
0.7160151366006176
 21
-284.94262569300008
 31
0.0
  0
LINE
  8
DETAIL
  6
CONTINUOUS
 62
     5
 10
0.7160151366006176
 20
-284.94262569300008
 30
0.0
 11
0.7997900752006899
 21
-284.92977812240002
 31
0.0
  0
LINE
  8
DETAIL
  6
CONTINUOUS
 62
     5
 10
0.7997900752006899
 20
-284.92977812240002
 30
0.0
 11
0.8877594722007416
 21
-284.91471622519998
 31
0.0
  0
LINE
  8
DETAIL
  6
CONTINUOUS
 62
     5
 10
0.8877594722007416
 20
-284.91471622519998
 30
0.0
 11
0.9796298690007461
 21
-284.89725247279989
 31
0.0
  0
LINE
  8
DETAIL
  6
CONTINUOUS
 62
     5
 10
0.9796298690007461
 20
-284.89725247279989
 30
0.0
 11
1.07566864960063
 21
-284.87708202220011
 31
0.0
  0
LINE
  8
DETAIL
  6
CONTINUOUS
 62
     5
 10
1.07566864960063
 20
-284.87708202220011
 30
0.0
 11
1.17375921600069
 21
-284.85443569659992
 31
0.0
  0
LINE
  8
DETAIL
  6
CONTINUOUS
 62
     5
 10
1.17375921600069
 20
-284.85443569659992
 30
0.0
 11
1.280712621200109
 21
-284.82735416099979
 31
0.0
  0
LINE
  8
DETAIL
  6
CONTINUOUS
 62
     5
 10
1.280712621200109
 20
-284.82735416099979
 30
0.0
 11
1.403305661400736
 21
-284.79319364140002
 31
0.0
  0
LINE
  8
DETAIL
  6
CONTINUOUS
 62
     5
 10
1.403305661400736
 20
-284.79319364140002
 30
0.0
 11
1.538815946600153
 21
-284.7514739738001
 31
0.0
  0
LINE
  8
DETAIL
  6
CONTINUOUS
 62
     5
 10
0.0
 20
-282.00891461100002
 30
0.0
 11
1.0711830600002941
 21
-282.00738029419989
 31
0.0
  0
LINE
  8
DETAIL
  6
CONTINUOUS
 62
     5
 10
1.0711830600002941
 20
-282.00738029419989
 30
0.0
 11
2.132171533200562
 21
-282.00279505100002
 31
0.0
  0
LINE
  8
DETAIL
  6
CONTINUOUS
 62
     5
 10
2.132171533200562
 20
-282.00279505100002
 30
0.0
 11
3.172059525000805
 21
-281.99520935419997
 31
0.0
  0
LINE
  8
DETAIL
  6
CONTINUOUS
 62
     5
 10
3.172059525000805
 20
-281.99520935419997
 30
0.0
 11
4.1831287530003456
 21
-281.98467421520007
 31
0.0
  0
LINE
  8
DETAIL
  6
CONTINUOUS
 62
     5
 10
4.1831287530003456
 20
-281.98467421520007
 30
0.0
 11
5.15833322600065
 21
-281.97123224279989
 31
0.0
  0
LINE
  8
DETAIL
  6
CONTINUOUS
 62
     5
 10
5.15833322600065
 20
-281.97123224279989
 30
0.0
 11
6.0849153422004747
 21
-281.95503059599997
 31
0.0
  0
LINE
  8
DETAIL
  6
CONTINUOUS
 62
     5
 10
6.0849153422004747
 20
-281.95503059599997
 30
0.0
 11
6.9522397458003979
 21
-281.93625009440012
 31
0.0
  0
LINE
  8
DETAIL
  6
CONTINUOUS
 62
     5
 10
6.9522397458003979
 20
-281.93625009440012
 30
0.0
 11
7.7511414962000336
 21
-281.91509808820001
 31
0.0
  0
LINE
  8
DETAIL
  6
CONTINUOUS
 62
     5
 10
7.7511414962000336
 20
-281.91509808820001
 30
0.0
 11
8.4723865524001667
 21
-281.89185208280003
 31
0.0
  0
LINE
  8
DETAIL
  6
CONTINUOUS
 62
     5
 10
8.4723865524001667
 20
-281.89185208280003
 30
0.0
 11
9.1117838526006381
 21
-281.86668148119998
 31
0.0
  0
LINE
  8
DETAIL
  6
CONTINUOUS
 62
     5
 10
9.1117838526006381
 20
-281.86668148119998
 30
0.0
 11
9.6647524668005644
 21
-281.83976238359992
 31
0.0
  0
LINE
  8
DETAIL
  6
CONTINUOUS
 62
     5
 10
9.6647524668005644
 20
-281.83976238359992
 30
0.0
 11
10.125050635200751
 21
-281.81138209999989
 31
0.0
  0
LINE
  8
DETAIL
  6
CONTINUOUS
 62
     5
 10
10.125050635200751
 20
-281.81138209999989
 30
0.0
 11
10.4880740988001
 21
-281.78182138500011
 31
0.0
  0
LINE
  8
DETAIL
  6
CONTINUOUS
 62
     5
 10
10.4880740988001
 20
-281.78182138500011
 30
0.0
 11
10.750279666400271
 21
-281.75137280780001
 31
0.0
  0
LINE
  8
DETAIL
  6
CONTINUOUS
 62
     5
 10
10.750279666400271
 20
-281.75137280780001
 30
0.0
 11
10.91904211080055
 21
-281.71731672940001
 31
0.0
  0
LINE
  8
DETAIL
  6
CONTINUOUS
 62
     5
 10
0.0
 20
-280.61323261019987
 30
0.0
 11
1.172450593000576
 21
-280.61155427359989
 31
0.0
  0
LINE
  8
DETAIL
  6
CONTINUOUS
 62
     5
 10
1.172450593000576
 20
-280.61155427359989
 30
0.0
 11
2.333742651000648
 21
-280.60653576499999
 31
0.0
  0
LINE
  8
DETAIL
  6
CONTINUOUS
 62
     5
 10
2.333742651000648
 20
-280.60653576499999
 30
0.0
 11
3.471940777600139
 21
-280.59823193940002
 31
0.0
  0
LINE
  8
DETAIL
  6
CONTINUOUS
 62
     5
 10
3.471940777600139
 20
-280.59823193940002
 30
0.0
 11
4.5785965498007499
 21
-280.58669977699992
 31
0.0
  0
LINE
  8
DETAIL
  6
CONTINUOUS
 62
     5
 10
4.5785965498007499
 20
-280.58669977699992
 30
0.0
 11
5.645994989200517
 21
-280.57198732199998
 31
0.0
  0
LINE
  8
DETAIL
  6
CONTINUOUS
 62
     5
 10
5.645994989200517
 20
-280.57198732199998
 30
0.0
 11
6.6601735724007094
 21
-280.55425453900011
 31
0.0
  0
LINE
  8
DETAIL
  6
CONTINUOUS
 62
     5
 10
6.6601735724007094
 20
-280.55425453900011
 30
0.0
 11
7.6094935368000733
 21
-280.53369852660012
 31
0.0
  0
LINE
  8
DETAIL
  6
CONTINUOUS
 62
     5
 10
7.6094935368000733
 20
-280.53369852660012
 30
0.0
 11
8.483922607400018
 21
-280.51054671119999
 31
0.0
  0
LINE
  8
DETAIL
  6
CONTINUOUS
 62
     5
 10
8.483922607400018
 20
-280.51054671119999
 30
0.0
 11
9.2733529908000492
 21
-280.48510308760001
 31
0.0
  0
LINE
  8
DETAIL
  6
CONTINUOUS
 62
     5
 10
9.2733529908000492
 20
-280.48510308760001
 30
0.0
 11
9.9731977594001364
 21
-280.45755294340012
 31
0.0
  0
LINE
  8
DETAIL
  6
CONTINUOUS
 62
     5
 10
-10.585440237999141
 20
-280.42770654919991
 30
0.0
 11
-9.9789301923992753
 21
-280.45730232900002
 31
0.0
  0
LINE
  8
DETAIL
  6
CONTINUOUS
 62
     5
 10
-9.9789301923992753
 20
-280.45730232900002
 30
0.0
 11
-9.2755879641999854
 21
-280.48502354459993
 31
0.0
  0
LINE
  8
DETAIL
  6
CONTINUOUS
 62
     5
 10
-9.2755879641999854
 20
-280.48502354459993
 30
0.0
 11
-8.4825009605992818
 21
-280.51058826839989
 31
0.0
  0
LINE
  8
DETAIL
  6
CONTINUOUS
 62
     5
 10
-8.4825009605992818
 20
-280.51058826839989
 30
0.0
 11
-7.6078345763999096
 21
-280.53373829420002
 31
0.0
  0
LINE
  8
DETAIL
  6
CONTINUOUS
 62
     5
 10
-7.6078345763999096
 20
-280.53373829420002
 30
0.0
 11
-6.6596226749998104
 21
-280.55426527959997
 31
0.0
  0
LINE
  8
DETAIL
  6
CONTINUOUS
 62
     5
 10
-6.6596226749998104
 20
-280.55426527959997
 30
0.0
 11
-5.645757491999575
 21
-280.57199104699998
 31
0.0
  0
LINE
  8
DETAIL
  6
CONTINUOUS
 62
     5
 10
-5.645757491999575
 20
-280.57199104699998
 30
0.0
 11
-4.5785599593991719
 21
-280.58670026300001
 31
0.0
  0
LINE
  8
DETAIL
  6
CONTINUOUS
 62
     5
 10
-4.5785599593991719
 20
-280.58670026300001
 30
0.0
 11
-3.4719590071999851
 21
-280.59823179
 31
0.0
  0
LINE
  8
DETAIL
  6
CONTINUOUS
 62
     5
 10
-3.4719590071999851
 20
-280.59823179
 30
0.0
 11
-2.3337425115996671
 21
-280.60653574200001
 31
0.0
  0
LINE
  8
DETAIL
  6
CONTINUOUS
 62
     5
 10
-2.3337425115996671
 20
-280.60653574200001
 30
0.0
 11
-1.172455411199735
 21
-280.61155423640002
 31
0.0
  0
LINE
  8
DETAIL
  6
CONTINUOUS
 62
     5
 10
-1.172455411199735
 20
-280.61155423640002
 30
0.0
 11
0.0
 21
-280.61323261019987
 31
0.0
  0
LINE
  8
DETAIL
  6
CONTINUOUS
 62
     5
 10
-10.91904208199958
 20
-281.71731673879998
 30
0.0
 11
-10.75542632479937
 21
-281.75061659779999
 31
0.0
  0
LINE
  8
DETAIL
  6
CONTINUOUS
 62
     5
 10
-10.75542632479937
 20
-281.75061659779999
 30
0.0
 11
-10.49437774439957
 21
-281.78121419140012
 31
0.0
  0
LINE
  8
DETAIL
  6
CONTINUOUS
 62
     5
 10
-10.49437774439957
 20
-281.78121419140012
 30
0.0
 11
-10.13171296079963
 21
-281.81091220600001
 31
0.0
  0
LINE
  8
DETAIL
  6
CONTINUOUS
 62
     5
 10
-10.13171296079963
 20
-281.81091220600001
 30
0.0
 11
-9.6711451887995281
 21
-281.83941300399988
 31
0.0
  0
LINE
  8
DETAIL
  6
CONTINUOUS
 62
     5
 10
-9.6711451887995281
 20
-281.83941300399988
 30
0.0
 11
-9.1170211205999294
 21
-281.86645252359989
 31
0.0
  0
LINE
  8
DETAIL
  6
CONTINUOUS
 62
     5
 10
-9.1170211205999294
 20
-281.86645252359989
 30
0.0
 11
-8.4744283415993777
 21
-281.8917794514
 31
0.0
  0
LINE
  8
DETAIL
  6
CONTINUOUS
 62
     5
 10
-8.4744283415993777
 20
-281.8917794514
 30
0.0
 11
-7.7498424373998196
 21
-281.91513611919999
 31
0.0
  0
LINE
  8
DETAIL
  6
CONTINUOUS
 62
     5
 10
-7.7498424373998196
 20
-281.91513611919999
 30
0.0
 11
-6.9507240029997774
 21
-281.93628645140012
 31
0.0
  0
LINE
  8
DETAIL
  6
CONTINUOUS
 62
     5
 10
-6.9507240029997774
 20
-281.93628645140012
 30
0.0
 11
-6.0844120415995349
 21
-281.95504040280002
 31
0.0
  0
LINE
  8
DETAIL
  6
CONTINUOUS
 62
     5
 10
-6.0844120415995349
 20
-281.95504040280002
 30
0.0
 11
-5.1581161111998881
 21
-281.97123570759999
 31
0.0
  0
LINE
  8
DETAIL
  6
CONTINUOUS
 62
     5
 10
-5.1581161111998881
 20
-281.97123570759999
 30
0.0
 11
-4.183095128199966
 21
-281.98467477079998
 31
0.0
  0
LINE
  8
DETAIL
  6
CONTINUOUS
 62
     5
 10
-4.183095128199966
 20
-281.98467477079998
 30
0.0
 11
-3.1720761573997152
 21
-281.99520923040001
 31
0.0
  0
LINE
  8
DETAIL
  6
CONTINUOUS
 62
     5
 10
-3.1720761573997152
 20
-281.99520923040001
 30
0.0
 11
-2.132171478599957
 21
-282.00279494060021
 31
0.0
  0
LINE
  8
DETAIL
  6
CONTINUOUS
 62
     5
 10
-2.132171478599957
 20
-282.00279494060021
 30
0.0
 11
-1.071187495799677
 21
-282.00738017959998
 31
0.0
  0
LINE
  8
DETAIL
  6
CONTINUOUS
 62
     5
 10
-1.071187495799677
 20
-282.00738017959998
 30
0.0
 11
0.0
 21
-282.00891461100002
 31
0.0
  0
LINE
  8
DETAIL
  6
CONTINUOUS
 62
     5
 10
-1.5388159464000639
 20
-284.7514739738001
 30
0.0
 11
-1.521611659399241
 21
-284.75525182820002
 31
0.0
  0
LINE
  8
DETAIL
  6
CONTINUOUS
 62
     5
 10
-1.521611659399241
 20
-284.75525182820002
 30
0.0
 11
-1.4519049465998251
 21
-284.76285527419998
 31
0.0
  0
LINE
  8
DETAIL
  6
CONTINUOUS
 62
     5
 10
-1.4519049465998251
 20
-284.76285527419998
 30
0.0
 11
-1.3380828365998241
 21
-284.76998942699993
 31
0.0
  0
LINE
  8
DETAIL
  6
CONTINUOUS
 62
     5
 10
-1.3380828365998241
 20
-284.76998942699993
 30
0.0
 11
-1.18360375679913
 21
-284.77643751879998
 31
0.0
  0
LINE
  8
DETAIL
  6
CONTINUOUS
 62
     5
 10
-1.18360375679913
 20
-284.77643751879998
 30
0.0
 11
-0.9931614757997522
 21
-284.78200362759998
 31
0.0
  0
LINE
  8
DETAIL
  6
CONTINUOUS
 62
     5
 10
-0.9931614757997522
 20
-284.78200362759998
 30
0.0
 11
-0.7725424857999315
 21
-284.78651863019991
 31
0.0
  0
LINE
  8
DETAIL
  6
CONTINUOUS
 62
     5
 10
-0.7725424857999315
 20
-284.78651863019991
 30
0.0
 11
-0.5284501833994
 21
-284.78984534019992
 31
0.0
  0
LINE
  8
DETAIL
  6
CONTINUOUS
 62
     5
 10
-0.5284501833994
 20
-284.78984534019992
 30
0.0
 11
-0.268301189599697
 21
-284.79188267740011
 31
0.0
  0
LINE
  8
DETAIL
  6
CONTINUOUS
 62
     5
 10
-0.268301189599697
 20
-284.79188267740011
 30
0.0
 11
0.0
 21
-284.79256873840001
 31
0.0
  0
LINE
  8
DETAIL
  6
CONTINUOUS
 62
     5
 10
181.33320378260029
 20
-256.9624931802
 30
0.0
 11
181.3113381552001
 21
-256.96439941199992
 31
0.0
  0
LINE
  8
DETAIL
  6
CONTINUOUS
 62
     5
 10
181.40277492360019
 20
-256.96045114100002
 30
0.0
 11
181.32792709040041
 21
-256.96295319880011
 31
0.0
  0
LINE
  8
DETAIL
  6
CONTINUOUS
 62
     5
 10
0.0
 20
-261.12452468700008
 30
0.0
 11
1.0634859726005741
 21
-261.12234966939991
 31
0.0
  0
LINE
  8
DETAIL
  6
CONTINUOUS
 62
     5
 10
1.0634859726005741
 20
-261.12234966939991
 30
0.0
 11
2.1167299940007069
 21
-261.11584556320008
 31
0.0
  0
LINE
  8
DETAIL
  6
CONTINUOUS
 62
     5
 10
2.1167299940007069
 20
-261.11584556320008
 30
0.0
 11
3.149588748200586
 21
-261.10507500659992
 31
0.0
  0
LINE
  8
DETAIL
  6
CONTINUOUS
 62
     5
 10
3.149588748200586
 20
-261.10507500659992
 30
0.0
 11
4.1521152412005904
 21
-261.09014172580009
 31
0.0
  0
LINE
  8
DETAIL
  6
CONTINUOUS
 62
     5
 10
4.1521152412005904
 20
-261.09014172580009
 30
0.0
 11
5.1146545946003243
 21
-261.07118953640003
 31
0.0
  0
LINE
  8
DETAIL
  6
CONTINUOUS
 62
     5
 10
5.1146545946003243
 20
-261.07118953640003
 30
0.0
 11
6.0279370284006291
 21
-261.04840095859998
 31
0.0
  0
LINE
  8
DETAIL
  6
CONTINUOUS
 62
     5
 10
6.0279370284006291
 20
-261.04840095859998
 30
0.0
 11
6.8831671332009137
 21
-261.02199545859997
 31
0.0
  0
LINE
  8
DETAIL
  6
CONTINUOUS
 62
     5
 10
6.8831671332009137
 20
-261.02199545859997
 30
0.0
 11
7.6721085760000278
 21
-260.99222733599998
 31
0.0
  0
LINE
  8
DETAIL
  6
CONTINUOUS
 62
     5
 10
7.6721085760000278
 20
-260.99222733599998
 30
0.0
 11
8.3871634189999895
 21
-260.95938327399989
 31
0.0
  0
LINE
  8
DETAIL
  6
CONTINUOUS
 62
     5
 10
8.3871634189999895
 20
-260.95938327399989
 30
0.0
 11
9.0214452936006637
 21
-260.92377957899998
 31
0.0
  0
LINE
  8
DETAIL
  6
CONTINUOUS
 62
     5
 10
9.0214452936006637
 20
-260.92377957899998
 30
0.0
 11
9.568845718200464
 21
-260.88575913380009
 31
0.0
  0
LINE
  8
DETAIL
  6
CONTINUOUS
 62
     5
 10
9.568845718200464
 20
-260.88575913380009
 30
0.0
 11
10.02409292780067
 21
-260.84568809620009
 31
0.0
  0
LINE
  8
DETAIL
  6
CONTINUOUS
 62
     5
 10
10.02409292780067
 20
-260.84568809620009
 30
0.0
 11
10.382802642800019
 21
-260.8039523722
 31
0.0
  0
LINE
  8
DETAIL
  6
CONTINUOUS
 62
     5
 10
10.382802642800019
 20
-260.8039523722
 30
0.0
 11
10.641520292399949
 21
-260.76095389960011
 31
0.0
  0
LINE
  8
DETAIL
  6
CONTINUOUS
 62
     5
 10
10.641520292399949
 20
-260.76095389960011
 30
0.0
 11
10.797754284400069
 21
-260.71710677719989
 31
0.0
  0
LINE
  8
DETAIL
  6
CONTINUOUS
 62
     5
 10
10.797754284400069
 20
-260.71710677719989
 30
0.0
 11
10.84999126340063
 21
-260.67340648940012
 31
0.0
  0
LINE
  8
DETAIL
  6
CONTINUOUS
 62
     5
 10
-181.3113381595995
 20
-256.96439941199992
 30
0.0
 11
181.3113381598005
 21
-256.96439941199992
 31
0.0
  0
LINE
  8
DETAIL
  6
CONTINUOUS
 62
     5
 10
182.5
 20
-255.78194327160011
 30
0.0
 11
181.9000000000004
 21
-255.78194327160011
 31
0.0
  0
LINE
  8
DETAIL
  6
CONTINUOUS
 62
     5
 10
-182.5
 20
-255.78194327160011
 30
0.0
 11
-181.89999999999961
 21
-255.78194327160011
 31
0.0
  0
LINE
  8
DETAIL
  6
CONTINUOUS
 62
     5
 10
181.9000000000004
 20
-255.7643994120001
 30
0.0
 11
-181.89999999999961
 21
-255.7643994120001
 31
0.0
  0
LINE
  8
DETAIL
  6
CONTINUOUS
 62
     5
 10
182.5
 20
-255.7468555522
 30
0.0
 11
181.9000000000004
 21
-255.7468555522
 31
0.0
  0
LINE
  8
DETAIL
  6
CONTINUOUS
 62
     5
 10
-182.5
 20
-255.7468555522
 30
0.0
 11
-181.89999999999961
 21
-255.7468555522
 31
0.0
  0
LINE
  8
DETAIL
  6
CONTINUOUS
 62
     5
 10
0.0
 20
-261.68189771120001
 30
0.0
 11
-1.0833054369995809
 21
-261.68032365319999
 31
0.0
  0
LINE
  8
DETAIL
  6
CONTINUOUS
 62
     5
 10
-1.0833054369995809
 20
-261.68032365319999
 30
0.0
 11
-2.145993542199903
 21
-261.67572017840013
 31
0.0
  0
LINE
  8
DETAIL
  6
CONTINUOUS
 62
     5
 10
-2.145993542199903
 20
-261.67572017840013
 30
0.0
 11
-3.1930205699991352
 21
-261.66804334499989
 31
0.0
  0
LINE
  8
DETAIL
  6
CONTINUOUS
 62
     5
 10
-3.1930205699991352
 20
-261.66804334499989
 30
0.0
 11
-4.2095177559995136
 21
-261.65742497939999
 31
0.0
  0
LINE
  8
DETAIL
  6
CONTINUOUS
 62
     5
 10
-4.2095177559995136
 20
-261.65742497939999
 30
0.0
 11
-5.1851840459994492
 21
-261.6439255496
 31
0.0
  0
LINE
  8
DETAIL
  6
CONTINUOUS
 62
     5
 10
-5.1851840459994492
 20
-261.6439255496
 30
0.0
 11
-6.1112725631992362
 21
-261.62771518799991
 31
0.0
  0
LINE
  8
DETAIL
  6
CONTINUOUS
 62
     5
 10
-6.1112725631992362
 20
-261.62771518799991
 30
0.0
 11
-6.9780838071992548
 21
-261.60891193740008
 31
0.0
  0
LINE
  8
DETAIL
  6
CONTINUOUS
 62
     5
 10
-6.9780838071992548
 20
-261.60891193740008
 30
0.0
 11
-7.778174592999676
 21
-261.58773253520008
 31
0.0
  0
LINE
  8
DETAIL
  6
CONTINUOUS
 62
     5
 10
-7.778174592999676
 20
-261.58773253520008
 30
0.0
 11
-8.5028197207993799
 21
-261.5643480622
 31
0.0
  0
LINE
  8
DETAIL
  6
CONTINUOUS
 62
     5
 10
-8.5028197207993799
 20
-261.5643480622
 30
0.0
 11
-9.1461657351992471
 21
-261.53901353200013
 31
0.0
  0
LINE
  8
DETAIL
  6
CONTINUOUS
 62
     5
 10
-9.1461657351992471
 20
-261.53901353200013
 30
0.0
 11
-9.7007970411996212
 21
-261.51194648860002
 31
0.0
  0
LINE
  8
DETAIL
  6
CONTINUOUS
 62
     5
 10
-9.7007970411996212
 20
-261.51194648860002
 30
0.0
 11
-10.162674857600001
 21
-261.48343042200008
 31
0.0
  0
LINE
  8
DETAIL
  6
CONTINUOUS
 62
     5
 10
-10.162674857600001
 20
-261.48343042200008
 30
0.0
 11
-10.5259781713994
 21
-261.45372097960012
 31
0.0
  0
LINE
  8
DETAIL
  6
CONTINUOUS
 62
     5
 10
-10.5259781713994
 20
-261.45372097960012
 30
0.0
 11
-10.788638084399279
 21
-261.42311923300008
 31
0.0
  0
LINE
  8
DETAIL
  6
CONTINUOUS
 62
     5
 10
-10.788638084399279
 20
-261.42311923300008
 30
0.0
 11
-10.94665186359998
 21
-261.39190910880012
 31
0.0
  0
LINE
  8
DETAIL
  6
CONTINUOUS
 62
     5
 10
-10.94665186359998
 20
-261.39190910880012
 30
0.0
 11
-11.0
 21
-261.36039769059988
 31
0.0
  0
LINE
  8
DETAIL
  6
CONTINUOUS
 62
     5
 10
0.0
 20
-261.7111249858001
 30
0.0
 11
-1.351862796799651
 21
-261.7088715018001
 31
0.0
  0
LINE
  8
DETAIL
  6
CONTINUOUS
 62
     5
 10
-1.351862796799651
 20
-261.7088715018001
 30
0.0
 11
-2.670251207399815
 21
-261.7023315202
 31
0.0
  0
LINE
  8
DETAIL
  6
CONTINUOUS
 62
     5
 10
-2.670251207399815
 20
-261.7023315202
 30
0.0
 11
-3.963114191799832
 21
-261.69142374680001
 31
0.0
  0
LINE
  8
DETAIL
  6
CONTINUOUS
 62
     5
 10
-3.963114191799832
 20
-261.69142374680001
 30
0.0
 11
-5.2066048693995981
 21
-261.67639206479998
 31
0.0
  0
LINE
  8
DETAIL
  6
CONTINUOUS
 62
     5
 10
-5.2066048693995981
 20
-261.67639206479998
 30
0.0
 11
-6.3840070891992582
 21
-261.65734940400012
 31
0.0
  0
LINE
  8
DETAIL
  6
CONTINUOUS
 62
     5
 10
-6.3840070891992582
 20
-261.65734940400012
 30
0.0
 11
-7.4818776222000452
 21
-261.6346073318
 31
0.0
  0
LINE
  8
DETAIL
  6
CONTINUOUS
 62
     5
 10
-7.4818776222000452
 20
-261.6346073318
 30
0.0
 11
-8.4847792137998113
 21
-261.60838466259997
 31
0.0
  0
LINE
  8
DETAIL
  6
CONTINUOUS
 62
     5
 10
-8.4847792137998113
 20
-261.60838466259997
 30
0.0
 11
-9.3819777895996594
 21
-261.57907258239987
 31
0.0
  0
LINE
  8
DETAIL
  6
CONTINUOUS
 62
     5
 10
-9.3819777895996594
 20
-261.57907258239987
 30
0.0
 11
-10.16008907939977
 21
-261.54698481880001
 31
0.0
  0
LINE
  8
DETAIL
  6
CONTINUOUS
 62
     5
 10
-10.16008907939977
 20
-261.54698481880001
 30
0.0
 11
-10.811626414799321
 21
-261.51257256079998
 31
0.0
  0
LINE
  8
DETAIL
  6
CONTINUOUS
 62
     5
 10
-10.811626414799321
 20
-261.51257256079998
 30
0.0
 11
-11.325929653599809
 21
-261.47622871740009
 31
0.0
  0
LINE
  8
DETAIL
  6
CONTINUOUS
 62
     5
 10
-11.325929653599809
 20
-261.47622871740009
 30
0.0
 11
-11.699134946199591
 21
-261.43844185580002
 31
0.0
  0
LINE
  8
DETAIL
  6
CONTINUOUS
 62
     5
 10
-11.699134946199591
 20
-261.43844185580002
 30
0.0
 11
-11.92384082219996
 21
-261.3996643644
 31
0.0
  0
LINE
  8
DETAIL
  6
CONTINUOUS
 62
     5
 10
-11.92384082219996
 20
-261.3996643644
 30
0.0
 11
-12.0
 21
-261.36039769059988
 31
0.0
  0
LINE
  8
DETAIL
  6
CONTINUOUS
 62
     5
 10
-181.40277492339919
 20
-256.96045114100002
 30
0.0
 11
-181.3279270903995
 21
-256.96295319880011
 31
0.0
  0
LINE
  8
DETAIL
  6
CONTINUOUS
 62
     5
 10
10.833640872400791
 20
-261.20977849780002
 30
0.0
 11
11.325929653800809
 21
-261.24456666380001
 31
0.0
  0
LINE
  8
DETAIL
  6
CONTINUOUS
 62
     5
 10
11.325929653800809
 20
-261.24456666380001
 30
0.0
 11
11.6991349462005
 21
-261.28235352520011
 31
0.0
  0
LINE
  8
DETAIL
  6
CONTINUOUS
 62
     5
 10
11.6991349462005
 20
-261.28235352520011
 30
0.0
 11
11.92384082219996
 21
-261.32113101660002
 31
0.0
  0
LINE
  8
DETAIL
  6
CONTINUOUS
 62
     5
 10
11.92384082219996
 20
-261.32113101660002
 30
0.0
 11
12.0
 21
-261.36039769059988
 31
0.0
  0
LINE
  8
DETAIL
  6
CONTINUOUS
 62
     5
 10
-181.33320378259941
 20
-256.9624931802
 30
0.0
 11
-181.31133815519931
 21
-256.96439941199992
 31
0.0
  0
LINE
  8
DETAIL
  6
CONTINUOUS
 62
     5
 10
10.83070816100008
 20
-261.30598562780011
 30
0.0
 11
10.94665186359998
 21
-261.32888627220001
 31
0.0
  0
LINE
  8
DETAIL
  6
CONTINUOUS
 62
     5
 10
10.94665186359998
 20
-261.32888627220001
 30
0.0
 11
11.0
 21
-261.36039769059988
 31
0.0
  0
LINE
  8
DETAIL
  6
CONTINUOUS
 62
     5
 10
-1.5388159464000639
 20
-284.7514739738001
 30
0.0
 11
-1.4057499769996871
 21
-284.79247821280001
 31
0.0
  0
LINE
  8
DETAIL
  6
CONTINUOUS
 62
     5
 10
-1.4057499769996871
 20
-284.79247821280001
 30
0.0
 11
-1.28573285839957
 21
-284.82602109439989
 31
0.0
  0
LINE
  8
DETAIL
  6
CONTINUOUS
 62
     5
 10
-1.28573285839957
 20
-284.82602109439989
 30
0.0
 11
-1.181644628599315
 21
-284.85252459280008
 31
0.0
  0
LINE
  8
DETAIL
  6
CONTINUOUS
 62
     5
 10
-1.181644628599315
 20
-284.85252459280008
 30
0.0
 11
-1.0861976163996589
 21
-284.87475066719998
 31
0.0
  0
LINE
  8
DETAIL
  6
CONTINUOUS
 62
     5
 10
-1.0861976163996589
 20
-284.87475066719998
 30
0.0
 11
-0.9921485405993735
 21
-284.89473463519988
 31
0.0
  0
LINE
  8
DETAIL
  6
CONTINUOUS
 62
     5
 10
-0.9921485405993735
 20
-284.89473463519988
 30
0.0
 11
-0.9015227249992677
 21
-284.91221319480002
 31
0.0
  0
LINE
  8
DETAIL
  6
CONTINUOUS
 62
     5
 10
-0.9015227249992677
 20
-284.91221319480002
 30
0.0
 11
-0.8135474565997356
 21
-284.92752912840001
 31
0.0
  0
LINE
  8
DETAIL
  6
CONTINUOUS
 62
     5
 10
-0.8135474565997356
 20
-284.92752912840001
 30
0.0
 11
-0.7293399221998698
 21
-284.94067934920008
 31
0.0
  0
LINE
  8
DETAIL
  6
CONTINUOUS
 62
     5
 10
-0.7293399221998698
 20
-284.94067934920008
 30
0.0
 11
-0.6502026493999438
 21
-284.95170242239988
 31
0.0
  0
LINE
  8
DETAIL
  6
CONTINUOUS
 62
     5
 10
-0.6502026493999438
 20
-284.95170242239988
 30
0.0
 11
-0.5748174097998344
 21
-284.96100762219999
 31
0.0
  0
LINE
  8
DETAIL
  6
CONTINUOUS
 62
     5
 10
-0.5748174097998344
 20
-284.96100762219999
 30
0.0
 11
-0.5021783899992443
 21
-284.96887679399993
 31
0.0
  0
LINE
  8
DETAIL
  6
CONTINUOUS
 62
     5
 10
-0.5021783899992443
 20
-284.96887679399993
 30
0.0
 11
-0.4328041387998383
 21
-284.97539186620008
 31
0.0
  0
LINE
  8
DETAIL
  6
CONTINUOUS
 62
     5
 10
-0.4328041387998383
 20
-284.97539186620008
 30
0.0
 11
-0.3670655815994905
 21
-284.98066710319989
 31
0.0
  0
LINE
  8
DETAIL
  6
CONTINUOUS
 62
     5
 10
-0.3670655815994905
 20
-284.98066710319989
 30
0.0
 11
-0.3046711613997104
 21
-284.98486794499991
 31
0.0
  0
LINE
  8
DETAIL
  6
CONTINUOUS
 62
     5
 10
-0.3046711613997104
 20
-284.98486794499991
 30
0.0
 11
-0.2455491887994867
 21
-284.9881259440001
 31
0.0
  0
LINE
  8
DETAIL
  6
CONTINUOUS
 62
     5
 10
-0.2455491887994867
 20
-284.9881259440001
 30
0.0
 11
-0.189960849599629
 21
-284.99054921359988
 31
0.0
  0
LINE
  8
DETAIL
  6
CONTINUOUS
 62
     5
 10
-0.189960849599629
 20
-284.99054921359988
 30
0.0
 11
-0.1373617429999285
 21
-284.99227182839991
 31
0.0
  0
LINE
  8
DETAIL
  6
CONTINUOUS
 62
     5
 10
-0.1373617429999285
 20
-284.99227182839991
 30
0.0
 11
-0.0892630270000154
 21
-284.99336217680002
 31
0.0
  0
LINE
  8
DETAIL
  6
CONTINUOUS
 62
     5
 10
-0.0892630270000154
 20
-284.99336217680002
 30
0.0
 11
-0.0448357331997613
 21
-284.99395798239988
 31
0.0
  0
LINE
  8
DETAIL
  6
CONTINUOUS
 62
     5
 10
-0.0448357331997613
 20
-284.99395798239988
 30
0.0
 11
0.0
 21
-284.99415902919998
 31
0.0
  0
LINE
  8
DETAIL
  6
CONTINUOUS
 62
     5
 10
-1.5388159464000639
 20
-284.7514739738001
 30
0.0
 11
-10.919042099799301
 21
-281.71731673300002
 31
0.0
  0
LINE
  8
DETAIL
  6
CONTINUOUS
 62
     5
 10
-10.919042108599569
 20
-281.71731673020008
 30
0.0
 11
-11.024768758999929
 21
-281.67933693179998
 31
0.0
  0
LINE
  8
DETAIL
  6
CONTINUOUS
 62
     5
 10
-11.024768758999929
 20
-281.67933693179998
 30
0.0
 11
-11.144432658799809
 21
-281.62627036959998
 31
0.0
  0
LINE
  8
DETAIL
  6
CONTINUOUS
 62
     5
 10
-11.144432658799809
 20
-281.62627036959998
 30
0.0
 11
-11.27535910539973
 21
-281.55391398260008
 31
0.0
  0
LINE
  8
DETAIL
  6
CONTINUOUS
 62
     5
 10
-11.27535910539973
 20
-281.55391398260008
 30
0.0
 11
-11.41625513419967
 21
-281.45591384499988
 31
0.0
  0
LINE
  8
DETAIL
  6
CONTINUOUS
 62
     5
 10
-11.41625513419967
 20
-281.45591384499988
 30
0.0
 11
-11.565157884199831
 21
-281.32307612860001
 31
0.0
  0
LINE
  8
DETAIL
  6
CONTINUOUS
 62
     5
 10
-11.565157884199831
 20
-281.32307612860001
 30
0.0
 11
-11.706666088199199
 21
-281.15684979140002
 31
0.0
  0
LINE
  8
DETAIL
  6
CONTINUOUS
 62
     5
 10
-11.706666088199199
 20
-281.15684979140002
 30
0.0
 11
-11.82880373339958
 21
-280.96075157859991
 31
0.0
  0
LINE
  8
DETAIL
  6
CONTINUOUS
 62
     5
 10
-11.82880373339958
 20
-280.96075157859991
 30
0.0
 11
-11.92238897679999
 21
-280.74024954960009
 31
0.0
  0
LINE
  8
DETAIL
  6
CONTINUOUS
 62
     5
 10
-11.92238897679999
 20
-280.74024954960009
 30
0.0
 11
-11.98016035519959
 21
-280.50639701559999
 31
0.0
  0
LINE
  8
DETAIL
  6
CONTINUOUS
 62
     5
 10
-11.98016035519959
 20
-280.50639701559999
 30
0.0
 11
-12.0
 21
-280.26250531479991
 31
0.0
  0
LINE
  8
DETAIL
  6
CONTINUOUS
 62
     5
 10
-12.0
 20
-280.26250531440002
 30
0.0
 11
-11.943985720599811
 21
-280.29635354319998
 31
0.0
  0
LINE
  8
DETAIL
  6
CONTINUOUS
 62
     5
 10
-11.943985720599811
 20
-280.29635354319998
 30
0.0
 11
-11.77222752619946
 21
-280.33051549300012
 31
0.0
  0
LINE
  8
DETAIL
  6
CONTINUOUS
 62
     5
 10
-11.77222752619946
 20
-280.33051549300012
 30
0.0
 11
-11.48649986999953
 21
-280.36400572339988
 31
0.0
  0
LINE
  8
DETAIL
  6
CONTINUOUS
 62
     5
 10
-11.48649986999953
 20
-280.36400572339988
 30
0.0
 11
-11.089549369799901
 21
-280.39651133040002
 31
0.0
  0
LINE
  8
DETAIL
  6
CONTINUOUS
 62
     5
 10
-11.089549369799901
 20
-280.39651133040002
 30
0.0
 11
-10.585440237999141
 21
-280.42770654919991
 31
0.0
  0
LINE
  8
DETAIL
  6
CONTINUOUS
 62
     5
 10
-182.49972937579969
 20
-255.80743168439989
 30
0.0
 11
-181.89986468779989
 21
-255.79469521860011
 31
0.0
  0
LINE
  8
DETAIL
  6
CONTINUOUS
 62
     5
 10
183.0
 20
-240.69999999999999
 30
0.0
 11
182.5
 21
-240.69999999999999
 31
0.0
  0
LINE
  8
DETAIL
  6
CONTINUOUS
 62
     5
 10
-183.0
 20
-240.69999999999999
 30
0.0
 11
-182.5
 21
-240.69999999999999
 31
0.0
  0
LINE
  8
DETAIL
  6
CONTINUOUS
 62
     5
 10
-182.5
 20
-234.0
 30
0.0
 11
-183.09999999999951
 21
-234.0
 31
0.0
  0
LINE
  8
DETAIL
  6
CONTINUOUS
 62
     5
 10
182.5
 20
-234.0
 30
0.0
 11
183.10000000000039
 21
-234.0
 31
0.0
  0
LINE
  8
DETAIL
  6
CONTINUOUS
 62
     5
 10
182.4997293758006
 20
-255.80743168559999
 30
0.0
 11
181.89986468800089
 21
-255.79469522020011
 31
0.0
  0
LINE
  8
DETAIL
  6
CONTINUOUS
 62
     5
 10
-10.84999126319963
 20
-260.67340648940012
 30
0.0
 11
-10.79775428439916
 21
-260.71710677719989
 31
0.0
  0
LINE
  8
DETAIL
  6
CONTINUOUS
 62
     5
 10
-10.79775428439916
 20
-260.71710677719989
 30
0.0
 11
-10.641520292399949
 21
-260.76095389960011
 31
0.0
  0
LINE
  8
DETAIL
  6
CONTINUOUS
 62
     5
 10
-10.641520292399949
 20
-260.76095389960011
 30
0.0
 11
-10.38280264259993
 21
-260.8039523722
 31
0.0
  0
LINE
  8
DETAIL
  6
CONTINUOUS
 62
     5
 10
-10.38280264259993
 20
-260.8039523722
 30
0.0
 11
-10.02409292759967
 21
-260.84568809620009
 31
0.0
  0
LINE
  8
DETAIL
  6
CONTINUOUS
 62
     5
 10
-10.02409292759967
 20
-260.84568809620009
 30
0.0
 11
-9.5688457181995545
 21
-260.88575913380009
 31
0.0
  0
LINE
  8
DETAIL
  6
CONTINUOUS
 62
     5
 10
-9.5688457181995545
 20
-260.88575913380009
 30
0.0
 11
-9.0214452933996654
 21
-260.92377957899998
 31
0.0
  0
LINE
  8
DETAIL
  6
CONTINUOUS
 62
     5
 10
-9.0214452933996654
 20
-260.92377957899998
 30
0.0
 11
-8.3871634189999895
 21
-260.95938327399989
 31
0.0
  0
LINE
  8
DETAIL
  6
CONTINUOUS
 62
     5
 10
-8.3871634189999895
 20
-260.95938327399989
 30
0.0
 11
-7.672108575799939
 21
-260.99222733599998
 31
0.0
  0
LINE
  8
DETAIL
  6
CONTINUOUS
 62
     5
 10
-7.672108575799939
 20
-260.99222733599998
 30
0.0
 11
-6.8831671332000042
 21
-261.02199545859997
 31
0.0
  0
LINE
  8
DETAIL
  6
CONTINUOUS
 62
     5
 10
-6.8831671332000042
 20
-261.02199545859997
 30
0.0
 11
-6.0279370281996307
 21
-261.04840095859998
 31
0.0
  0
LINE
  8
DETAIL
  6
CONTINUOUS
 62
     5
 10
-6.0279370281996307
 20
-261.04840095859998
 30
0.0
 11
-5.1146545945994148
 21
-261.07118953640003
 31
0.0
  0
LINE
  8
DETAIL
  6
CONTINUOUS
 62
     5
 10
-5.1146545945994148
 20
-261.07118953640003
 30
0.0
 11
-4.1521152411996809
 21
-261.09014172580009
 31
0.0
  0
LINE
  8
DETAIL
  6
CONTINUOUS
 62
     5
 10
-4.1521152411996809
 20
-261.09014172580009
 30
0.0
 11
-3.149588748199676
 21
-261.10507500659992
 31
0.0
  0
LINE
  8
DETAIL
  6
CONTINUOUS
 62
     5
 10
-3.149588748199676
 20
-261.10507500659992
 30
0.0
 11
-2.1167299937997091
 21
-261.11584556320008
 31
0.0
  0
LINE
  8
DETAIL
  6
CONTINUOUS
 62
     5
 10
-2.1167299937997091
 20
-261.11584556320008
 30
0.0
 11
-1.063485972599665
 21
-261.12234966939991
 31
0.0
  0
LINE
  8
DETAIL
  6
CONTINUOUS
 62
     5
 10
-1.063485972599665
 20
-261.12234966939991
 30
0.0
 11
0.0
 21
-261.12452468700008
 31
0.0
  0
LINE
  8
DETAIL
  6
CONTINUOUS
 62
     5
 10
-181.89999999999961
 20
-232.0
 30
0.0
 11
-182.5
 21
-232.0
 31
0.0
  0
LINE
  8
DETAIL
  6
CONTINUOUS
 62
     5
 10
181.9000000000004
 20
-232.0
 30
0.0
 11
182.5
 21
-232.0
 31
0.0
  0
LINE
  8
DETAIL
  6
CONTINUOUS
 62
     5
 10
-182.5
 20
-231.0
 30
0.0
 11
-183.09999999999951
 21
-231.0
 31
0.0
  0
LINE
  8
DETAIL
  6
CONTINUOUS
 62
     5
 10
182.5
 20
-231.0
 30
0.0
 11
183.10000000000039
 21
-231.0
 31
0.0
  0
LINE
  8
DETAIL
  6
CONTINUOUS
 62
     5
 10
183.60000000000039
 20
-229.0
 30
0.0
 11
183.0
 21
-229.0
 31
0.0
  0
LINE
  8
DETAIL
  6
CONTINUOUS
 62
     5
 10
-181.89999999999961
 20
-229.0
 30
0.0
 11
-182.5
 21
-229.0
 31
0.0
  0
LINE
  8
DETAIL
  6
CONTINUOUS
 62
     5
 10
-183.09999999999951
 20
-229.0
 30
0.0
 11
-182.5
 21
-229.0
 31
0.0
  0
LINE
  8
DETAIL
  6
CONTINUOUS
 62
     5
 10
182.4000000000004
 20
-229.0
 30
0.0
 11
183.0
 21
-229.0
 31
0.0
  0
LINE
  8
DETAIL
  6
CONTINUOUS
 62
     5
 10
169.90000000000049
 20
-225.0
 30
0.0
 11
168.90000000000049
 21
-225.0
 31
0.0
  0
LINE
  8
DETAIL
  6
CONTINUOUS
 62
     5
 10
167.30000000000021
 20
-225.0
 30
0.0
 11
98.800000000000182
 21
-225.0
 31
0.0
  0
LINE
  8
DETAIL
  6
CONTINUOUS
 62
     5
 10
98.800000000000182
 20
-225.0
 30
0.0
 11
96.900000000000546
 21
-225.0
 31
0.0
  0
LINE
  8
DETAIL
  6
CONTINUOUS
 62
     5
 10
96.900000000000546
 20
-225.0
 30
0.0
 11
-76.699999999999818
 21
-225.0
 31
0.0
  0
LINE
  8
DETAIL
  6
CONTINUOUS
 62
     5
 10
-169.89999999999961
 20
-225.0
 30
0.0
 11
-180.2999999999993
 21
-225.0
 31
0.0
  0
LINE
  8
DETAIL
  6
CONTINUOUS
 62
     5
 10
-169.89999999999961
 20
-225.0
 30
0.0
 11
-168.89999999999961
 21
-225.0
 31
0.0
  0
LINE
  8
DETAIL
  6
CONTINUOUS
 62
     5
 10
169.90000000000049
 20
-225.0
 30
0.0
 11
180.80000000000021
 21
-225.0
 31
0.0
  0
LINE
  8
DETAIL
  6
CONTINUOUS
 62
     5
 10
-10.82737074779925
 20
-261.41546894300001
 30
0.0
 11
-10.84999126319963
 21
-260.67340648940012
 31
0.0
  0
LINE
  8
DETAIL
  6
CONTINUOUS
 62
     5
 10
-10.849999999999451
 20
-260.67283327700011
 30
0.0
 11
-10.84999126319963
 21
-260.67340648940012
 31
0.0
  0
LINE
  8
DETAIL
  6
CONTINUOUS
 62
     5
 10
-12.0
 20
-261.36039769059988
 30
0.0
 11
-12.0
 21
-280.26250531479991
 31
0.0
  0
LINE
  8
DETAIL
  6
CONTINUOUS
 62
     5
 10
-10.849999999999451
 20
-260.67283327700011
 30
0.0
 11
-10.849999999999451
 21
-256.96439941199992
 31
0.0
  0
LINE
  8
DETAIL
  6
CONTINUOUS
 62
     5
 10
10.85000000000036
 20
-260.67283327700011
 30
0.0
 11
10.85000000000036
 21
-256.96439941199992
 31
0.0
  0
LINE
  8
DETAIL
  6
CONTINUOUS
 62
     5
 10
12.0
 20
-261.36039769059988
 30
0.0
 11
12.0
 21
-280.26250531479991
 31
0.0
  0
LINE
  8
DETAIL
  6
CONTINUOUS
 62
     5
 10
10.84999126340063
 20
-260.67340648940012
 30
0.0
 11
10.85000000000036
 21
-260.67283327700011
 31
0.0
  0
LINE
  8
DETAIL
  6
CONTINUOUS
 62
     5
 10
10.82737074800025
 20
-261.41546894300001
 30
0.0
 11
10.84999126340063
 21
-260.67340648940012
 31
0.0
  0
LINE
  8
DETAIL
  6
CONTINUOUS
 62
     5
 10
12.0
 20
-280.26250531479991
 30
0.0
 11
11.98085433980032
 21
-280.5021208352
 31
0.0
  0
LINE
  8
DETAIL
  6
CONTINUOUS
 62
     5
 10
11.98085433980032
 20
-280.5021208352
 30
0.0
 11
11.92409611540006
 21
-280.7351022918001
 31
0.0
  0
LINE
  8
DETAIL
  6
CONTINUOUS
 62
     5
 10
11.92409611540006
 20
-280.7351022918001
 30
0.0
 11
11.829751290400051
 21
-280.95893149099987
 31
0.0
  0
LINE
  8
DETAIL
  6
CONTINUOUS
 62
     5
 10
11.829751290400051
 20
-280.95893149099987
 30
0.0
 11
11.70540373400036
 21
-281.15856652339988
 31
0.0
  0
LINE
  8
DETAIL
  6
CONTINUOUS
 62
     5
 10
11.70540373400036
 20
-281.15856652339988
 30
0.0
 11
11.56295813320048
 21
-281.32530838899987
 31
0.0
  0
LINE
  8
DETAIL
  6
CONTINUOUS
 62
     5
 10
11.56295813320048
 20
-281.32530838899987
 30
0.0
 11
11.41374153820016
 21
-281.45787383279998
 31
0.0
  0
LINE
  8
DETAIL
  6
CONTINUOUS
 62
     5
 10
11.41374153820016
 20
-281.45787383279998
 30
0.0
 11
11.272438302400589
 21
-281.55571011260008
 31
0.0
  0
LINE
  8
DETAIL
  6
CONTINUOUS
 62
     5
 10
11.272438302400589
 20
-281.55571011260008
 30
0.0
 11
11.141592825400039
 21
-281.62766584920001
 31
0.0
  0
LINE
  8
DETAIL
  6
CONTINUOUS
 62
     5
 10
11.141592825400039
 20
-281.62766584920001
 30
0.0
 11
11.022912069800441
 21
-281.68007224860003
 31
0.0
  0
LINE
  8
DETAIL
  6
CONTINUOUS
 62
     5
 10
11.022912069800441
 20
-281.68007224860003
 30
0.0
 11
10.91904212100053
 21
-281.71731672620012
 31
0.0
  0
LINE
  8
DETAIL
  6
CONTINUOUS
 62
     5
 10
-11.0
 20
-261.36039769059988
 30
0.0
 11
-10.94665186359998
 21
-261.32888627220001
 31
0.0
  0
LINE
  8
DETAIL
  6
CONTINUOUS
 62
     5
 10
-10.94665186359998
 20
-261.32888627220001
 30
0.0
 11
-10.83070816100008
 21
-261.30598562780011
 31
0.0
  0
LINE
  8
DETAIL
  6
CONTINUOUS
 62
     5
 10
11.0
 20
-261.36039769059988
 30
0.0
 11
10.94665186359998
 21
-261.39190910880012
 31
0.0
  0
LINE
  8
DETAIL
  6
CONTINUOUS
 62
     5
 10
10.94665186359998
 20
-261.39190910880012
 30
0.0
 11
10.788638084400191
 21
-261.42311923300008
 31
0.0
  0
LINE
  8
DETAIL
  6
CONTINUOUS
 62
     5
 10
10.788638084400191
 20
-261.42311923300008
 30
0.0
 11
10.525978171400309
 21
-261.45372097960012
 31
0.0
  0
LINE
  8
DETAIL
  6
CONTINUOUS
 62
     5
 10
10.525978171400309
 20
-261.45372097960012
 30
0.0
 11
10.162674857600001
 21
-261.48343042200008
 31
0.0
  0
LINE
  8
DETAIL
  6
CONTINUOUS
 62
     5
 10
10.162674857600001
 20
-261.48343042200008
 30
0.0
 11
9.7007970412005307
 21
-261.51194648860002
 31
0.0
  0
LINE
  8
DETAIL
  6
CONTINUOUS
 62
     5
 10
9.7007970412005307
 20
-261.51194648860002
 30
0.0
 11
9.1461657354002455
 21
-261.53901353200013
 31
0.0
  0
LINE
  8
DETAIL
  6
CONTINUOUS
 62
     5
 10
9.1461657354002455
 20
-261.53901353200013
 30
0.0
 11
8.5028197210003782
 21
-261.5643480622
 31
0.0
  0
LINE
  8
DETAIL
  6
CONTINUOUS
 62
     5
 10
8.5028197210003782
 20
-261.5643480622
 30
0.0
 11
7.7781745932006743
 21
-261.58773253520008
 31
0.0
  0
LINE
  8
DETAIL
  6
CONTINUOUS
 62
     5
 10
7.7781745932006743
 20
-261.58773253520008
 30
0.0
 11
6.9780838072001643
 21
-261.60891193740008
 31
0.0
  0
LINE
  8
DETAIL
  6
CONTINUOUS
 62
     5
 10
6.9780838072001643
 20
-261.60891193740008
 30
0.0
 11
6.1112725632001457
 21
-261.62771518799991
 31
0.0
  0
LINE
  8
DETAIL
  6
CONTINUOUS
 62
     5
 10
6.1112725632001457
 20
-261.62771518799991
 30
0.0
 11
5.1851840462004466
 21
-261.6439255496
 31
0.0
  0
LINE
  8
DETAIL
  6
CONTINUOUS
 62
     5
 10
5.1851840462004466
 20
-261.6439255496
 30
0.0
 11
4.2095177560004231
 21
-261.65742497939999
 31
0.0
  0
LINE
  8
DETAIL
  6
CONTINUOUS
 62
     5
 10
4.2095177560004231
 20
-261.65742497939999
 30
0.0
 11
3.1930205700000438
 21
-261.66804334499989
 31
0.0
  0
LINE
  8
DETAIL
  6
CONTINUOUS
 62
     5
 10
3.1930205700000438
 20
-261.66804334499989
 30
0.0
 11
2.145993542200813
 21
-261.67572017840013
 31
0.0
  0
LINE
  8
DETAIL
  6
CONTINUOUS
 62
     5
 10
2.145993542200813
 20
-261.67572017840013
 30
0.0
 11
1.083305437200579
 21
-261.68032365319999
 31
0.0
  0
LINE
  8
DETAIL
  6
CONTINUOUS
 62
     5
 10
1.083305437200579
 20
-261.68032365319999
 30
0.0
 11
0.0
 21
-261.68189771120001
 31
0.0
  0
LINE
  8
DETAIL
  6
CONTINUOUS
 62
     5
 10
-12.0
 20
-261.36039769059988
 30
0.0
 11
-11.92384082219996
 21
-261.32113101660002
 31
0.0
  0
LINE
  8
DETAIL
  6
CONTINUOUS
 62
     5
 10
-11.92384082219996
 20
-261.32113101660002
 30
0.0
 11
-11.699134946199591
 21
-261.28235352520011
 31
0.0
  0
LINE
  8
DETAIL
  6
CONTINUOUS
 62
     5
 10
-11.699134946199591
 20
-261.28235352520011
 30
0.0
 11
-11.325929653599809
 21
-261.24456666380001
 31
0.0
  0
LINE
  8
DETAIL
  6
CONTINUOUS
 62
     5
 10
-11.325929653599809
 20
-261.24456666380001
 30
0.0
 11
-10.833640872199791
 21
-261.20977849780002
 31
0.0
  0
LINE
  8
DETAIL
  6
CONTINUOUS
 62
     5
 10
12.0
 20
-261.36039769059988
 30
0.0
 11
11.92384082219996
 21
-261.3996643644
 31
0.0
  0
LINE
  8
DETAIL
  6
CONTINUOUS
 62
     5
 10
11.92384082219996
 20
-261.3996643644
 30
0.0
 11
11.6991349462005
 21
-261.43844185580002
 31
0.0
  0
LINE
  8
DETAIL
  6
CONTINUOUS
 62
     5
 10
11.6991349462005
 20
-261.43844185580002
 30
0.0
 11
11.325929653800809
 21
-261.47622871740009
 31
0.0
  0
LINE
  8
DETAIL
  6
CONTINUOUS
 62
     5
 10
11.325929653800809
 20
-261.47622871740009
 30
0.0
 11
10.81162641480023
 21
-261.51257256079998
 31
0.0
  0
LINE
  8
DETAIL
  6
CONTINUOUS
 62
     5
 10
10.81162641480023
 20
-261.51257256079998
 30
0.0
 11
10.16008907960077
 21
-261.54698481880001
 31
0.0
  0
LINE
  8
DETAIL
  6
CONTINUOUS
 62
     5
 10
10.16008907960077
 20
-261.54698481880001
 30
0.0
 11
9.3819777896005689
 21
-261.57907258239987
 31
0.0
  0
LINE
  8
DETAIL
  6
CONTINUOUS
 62
     5
 10
9.3819777896005689
 20
-261.57907258239987
 30
0.0
 11
8.4847792140008096
 21
-261.60838466259997
 31
0.0
  0
LINE
  8
DETAIL
  6
CONTINUOUS
 62
     5
 10
8.4847792140008096
 20
-261.60838466259997
 30
0.0
 11
7.481877622400134
 21
-261.6346073318
 31
0.0
  0
LINE
  8
DETAIL
  6
CONTINUOUS
 62
     5
 10
7.481877622400134
 20
-261.6346073318
 30
0.0
 11
6.3840070894002574
 21
-261.65734940400012
 31
0.0
  0
LINE
  8
DETAIL
  6
CONTINUOUS
 62
     5
 10
6.3840070894002574
 20
-261.65734940400012
 30
0.0
 11
5.2066048694005076
 21
-261.67639206479998
 31
0.0
  0
LINE
  8
DETAIL
  6
CONTINUOUS
 62
     5
 10
5.2066048694005076
 20
-261.67639206479998
 30
0.0
 11
3.9631141920008299
 21
-261.69142374680001
 31
0.0
  0
LINE
  8
DETAIL
  6
CONTINUOUS
 62
     5
 10
3.9631141920008299
 20
-261.69142374680001
 30
0.0
 11
2.6702512076008129
 21
-261.7023315202
 31
0.0
  0
LINE
  8
DETAIL
  6
CONTINUOUS
 62
     5
 10
2.6702512076008129
 20
-261.7023315202
 30
0.0
 11
1.3518627970006489
 21
-261.7088715018001
 31
0.0
  0
LINE
  8
DETAIL
  6
CONTINUOUS
 62
     5
 10
1.3518627970006489
 20
-261.7088715018001
 30
0.0
 11
0.0
 21
-261.7111249858001
 31
0.0
  0
LINE
  8
DETAIL
  6
CONTINUOUS
 62
     5
 10
1.538815946600153
 20
-284.7514739738001
 30
0.0
 11
10.91904209980021
 21
-281.71731673300002
 31
0.0
  0
LINE
  8
DETAIL
  6
CONTINUOUS
 62
     5
 10
181.9000000000004
 20
-255.82813667720009
 30
0.0
 11
182.4000000000004
 21
-226.59999999999991
 31
0.0
  0
LINE
  8
DETAIL
  6
CONTINUOUS
 62
     5
 10
182.5
 20
-255.78194327160011
 30
0.0
 11
183.0
 21
-229.0
 31
0.0
  0
LINE
  8
DETAIL
  6
CONTINUOUS
 62
     5
 10
183.0
 20
-240.69999999999999
 30
0.0
 11
183.0
 21
-234.0
 31
0.0
  0
LINE
  8
DETAIL
  6
CONTINUOUS
 62
     5
 10
183.60000000000039
 20
-229.0
 30
0.0
 11
183.10000000000039
 21
-234.0
 31
0.0
  0
LINE
  8
DETAIL
  6
CONTINUOUS
 62
     5
 10
182.5
 20
-255.78194327160011
 30
0.0
 11
182.4997293758006
 21
-255.80743168559999
 31
0.0
  0
LINE
  8
DETAIL
  6
CONTINUOUS
 62
     5
 10
182.4997293758006
 20
-255.80743168559999
 30
0.0
 11
182.4931385742002
 21
-255.9090741821999
 31
0.0
  0
LINE
  8
DETAIL
  6
CONTINUOUS
 62
     5
 10
182.4931385742002
 20
-255.9090741821999
 30
0.0
 11
182.47771357360031
 21
-256.01011089640002
 31
0.0
  0
LINE
  8
DETAIL
  6
CONTINUOUS
 62
     5
 10
182.47771357360031
 20
-256.01011089640002
 30
0.0
 11
182.45343299880011
 21
-256.10993807680012
 31
0.0
  0
LINE
  8
DETAIL
  6
CONTINUOUS
 62
     5
 10
182.45343299880011
 20
-256.10993807680012
 30
0.0
 11
182.42053346180001
 21
-256.20729263499987
 31
0.0
  0
LINE
  8
DETAIL
  6
CONTINUOUS
 62
     5
 10
182.42053346180001
 20
-256.20729263499987
 30
0.0
 11
182.37952476960069
 21
-256.30090226200008
 31
0.0
  0
LINE
  8
DETAIL
  6
CONTINUOUS
 62
     5
 10
182.37952476960069
 20
-256.30090226200008
 30
0.0
 11
182.33063141840009
 21
-256.39049651880009
 31
0.0
  0
LINE
  8
DETAIL
  6
CONTINUOUS
 62
     5
 10
182.33063141840009
 20
-256.39049651880009
 30
0.0
 11
182.27415155160091
 21
-256.47556818980001
 31
0.0
  0
LINE
  8
DETAIL
  6
CONTINUOUS
 62
     5
 10
182.27415155160091
 20
-256.47556818980001
 30
0.0
 11
182.2103884750004
 21
-256.55561318519989
 31
0.0
  0
LINE
  8
DETAIL
  6
CONTINUOUS
 62
     5
 10
182.2103884750004
 20
-256.55561318519989
 30
0.0
 11
182.13946994459999
 21
-256.63030340499989
 31
0.0
  0
LINE
  8
DETAIL
  6
CONTINUOUS
 62
     5
 10
182.13946994459999
 20
-256.63030340499989
 30
0.0
 11
182.0622785318001
 21
-256.69858882900007
 31
0.0
  0
LINE
  8
DETAIL
  6
CONTINUOUS
 62
     5
 10
182.0622785318001
 20
-256.69858882900007
 30
0.0
 11
181.97988891400021
 21
-256.75961558519998
 31
0.0
  0
LINE
  8
DETAIL
  6
CONTINUOUS
 62
     5
 10
181.97988891400021
 20
-256.75961558519998
 30
0.0
 11
181.8926278994004
 21
-256.8132588005999
 31
0.0
  0
LINE
  8
DETAIL
  6
CONTINUOUS
 62
     5
 10
181.8926278994004
 20
-256.8132588005999
 30
0.0
 11
181.80100449300059
 21
-256.85922440500008
 31
0.0
  0
LINE
  8
DETAIL
  6
CONTINUOUS
 62
     5
 10
181.80100449300059
 20
-256.85922440500008
 30
0.0
 11
181.7055307242008
 21
-256.89722355260011
 31
0.0
  0
LINE
  8
DETAIL
  6
CONTINUOUS
 62
     5
 10
181.7055307242008
 20
-256.89722355260011
 30
0.0
 11
181.60647779999999
 21
-256.9270334723999
 31
0.0
  0
LINE
  8
DETAIL
  6
CONTINUOUS
 62
     5
 10
181.60647779999999
 20
-256.9270334723999
 30
0.0
 11
181.5051347894005
 21
-256.94817754780001
 31
0.0
  0
LINE
  8
DETAIL
  6
CONTINUOUS
 62
     5
 10
181.5051347894005
 20
-256.94817754780001
 30
0.0
 11
181.40277492360019
 21
-256.96045114100002
 31
0.0
  0
LINE
  8
DETAIL
  6
CONTINUOUS
 62
     5
 10
181.89479847260009
 20
-255.85950639440011
 30
0.0
 11
181.88244985900019
 21
-255.92344644280001
 31
0.0
  0
LINE
  8
DETAIL
  6
CONTINUOUS
 62
     5
 10
181.88244985900019
 20
-255.92344644280001
 30
0.0
 11
181.8629152652002
 21
-255.9857747044
 31
0.0
  0
LINE
  8
DETAIL
  6
CONTINUOUS
 62
     5
 10
181.4334812646002
 20
-256.90539114400008
 30
0.0
 11
181.39999991820059
 21
-256.93318553800009
 31
0.0
  0
LINE
  8
DETAIL
  6
CONTINUOUS
 62
     5
 10
181.39999991820059
 20
-256.93318553800009
 30
0.0
 11
181.36651858760069
 21
-256.95227657100008
 31
0.0
  0
LINE
  8
DETAIL
  6
CONTINUOUS
 62
     5
 10
181.36651858760069
 20
-256.95227657100008
 30
0.0
 11
181.33320378260029
 21
-256.9624931802
 31
0.0
  0
LINE
  8
DETAIL
  6
CONTINUOUS
 62
     5
 10
181.9000000000004
 20
-255.82813667720009
 30
0.0
 11
181.8334813850006
 21
-256.0316989718001
 31
0.0
  0
LINE
  8
DETAIL
  6
CONTINUOUS
 62
     5
 10
181.8334813850006
 20
-256.0316989718001
 30
0.0
 11
181.80000005400049
 21
-256.13155969719992
 31
0.0
  0
LINE
  8
DETAIL
  6
CONTINUOUS
 62
     5
 10
181.80000005400049
 20
-256.13155969719992
 30
0.0
 11
181.7665187122002
 21
-256.22868641700012
 31
0.0
  0
LINE
  8
DETAIL
  6
CONTINUOUS
 62
     5
 10
181.7665187122002
 20
-256.22868641700012
 30
0.0
 11
181.7332316118009
 21
-256.3218237051999
 31
0.0
  0
LINE
  8
DETAIL
  6
CONTINUOUS
 62
     5
 10
181.7332316118009
 20
-256.3218237051999
 30
0.0
 11
181.7000000112001
 21
-256.41071346500007
 31
0.0
  0
LINE
  8
DETAIL
  6
CONTINUOUS
 62
     5
 10
181.7000000112001
 20
-256.41071346500007
 30
0.0
 11
181.6667684220001
 21
-256.49486191919999
 31
0.0
  0
LINE
  8
DETAIL
  6
CONTINUOUS
 62
     5
 10
181.6667684220001
 20
-256.49486191919999
 30
0.0
 11
181.63348133680029
 21
-256.57377855700003
 31
0.0
  0
LINE
  8
DETAIL
  6
CONTINUOUS
 62
     5
 10
181.63348133680029
 20
-256.57377855700003
 30
0.0
 11
181.60000000360009
 21
-256.64714504739999
 31
0.0
  0
LINE
  8
DETAIL
  6
CONTINUOUS
 62
     5
 10
181.60000000360009
 20
-256.64714504739999
 30
0.0
 11
181.56651866839999
 21
-256.71393818999991
 31
0.0
  0
LINE
  8
DETAIL
  6
CONTINUOUS
 62
     5
 10
181.56651866839999
 20
-256.71393818999991
 30
0.0
 11
181.53323157520029
 21
-256.77333539779988
 31
0.0
  0
LINE
  8
DETAIL
  6
CONTINUOUS
 62
     5
 10
181.53323157520029
 20
-256.77333539779988
 30
0.0
 11
181.49999997660049
 21
-256.82522620240002
 31
0.0
  0
LINE
  8
DETAIL
  6
CONTINUOUS
 62
     5
 10
181.49999997660049
 20
-256.82522620240002
 30
0.0
 11
181.46676836960069
 21
-256.86933491819991
 31
0.0
  0
LINE
  8
DETAIL
  6
CONTINUOUS
 62
     5
 10
181.46676836960069
 20
-256.86933491819991
 30
0.0
 11
181.4334812646002
 21
-256.90539114400008
 31
0.0
  0
ARC
  8
DETAIL
  6
CONTINUOUS
 62
     5
 10
-178.47749999999999
 20
-236.0
 30
0.0
 40
6.5225
 50
135.20458705171089
 51
226.1026018329076
  0
ARC
  8
DETAIL
  6
CONTINUOUS
 62
     5
 10
-180.2999999999993
 20
-226.59999999999991
 30
0.0
 40
1.6000000000000001
 50
90.0
 51
180.0
  0
ARC
  8
DETAIL
  6
CONTINUOUS
 62
     5
 10
-182.5
 20
-229.0
 30
0.0
 40
0.6
 50
0.0
 51
180.0
  0
ARC
  8
DETAIL
  6
CONTINUOUS
 62
     5
 10
178.4775000000009
 20
-236.0
 30
0.0
 40
6.5225
 50
313.89739816709238
 51
44.795412948289062
  0
ARC
  8
DETAIL
  6
CONTINUOUS
 62
     5
 10
180.80000000000021
 20
-226.59999999999991
 30
0.0
 40
1.6000000000000001
 50
0.0
 51
90.0
  0
ARC
  8
DETAIL
  6
CONTINUOUS
 62
     5
 10
183.0
 20
-229.0
 30
0.0
 40
0.6
 50
0.0
 51
180.0
  0
LINE
  8
OUTLINE
  6
CONTINUOUS
 62
     3
 10
-182.49972937579969
 20
-255.80743168559999
 30
0.0
 11
-182.49313857419929
 21
-255.9090741821999
 31
0.0
  0
LINE
  8
OUTLINE
  6
CONTINUOUS
 62
     3
 10
-182.49313857419929
 20
-255.9090741821999
 30
0.0
 11
-182.47771357339931
 21
-256.01011089640002
 31
0.0
  0
LINE
  8
OUTLINE
  6
CONTINUOUS
 62
     3
 10
-182.47771357339931
 20
-256.01011089640002
 30
0.0
 11
-182.45343299880011
 21
-256.10993807680012
 31
0.0
  0
LINE
  8
OUTLINE
  6
CONTINUOUS
 62
     3
 10
-182.45343299880011
 20
-256.10993807680012
 30
0.0
 11
-182.42053346159989
 21
-256.20729263499987
 31
0.0
  0
LINE
  8
OUTLINE
  6
CONTINUOUS
 62
     3
 10
-182.42053346159989
 20
-256.20729263499987
 30
0.0
 11
-182.37952476939969
 21
-256.30090226200008
 31
0.0
  0
LINE
  8
OUTLINE
  6
CONTINUOUS
 62
     3
 10
-182.37952476939969
 20
-256.30090226200008
 30
0.0
 11
-182.33063141839921
 21
-256.39049651880009
 31
0.0
  0
LINE
  8
OUTLINE
  6
CONTINUOUS
 62
     3
 10
-182.33063141839921
 20
-256.39049651880009
 30
0.0
 11
-182.2741515516
 21
-256.47556818980001
 31
0.0
  0
LINE
  8
OUTLINE
  6
CONTINUOUS
 62
     3
 10
-182.2741515516
 20
-256.47556818980001
 30
0.0
 11
-182.21038847499949
 21
-256.55561318519989
 31
0.0
  0
LINE
  8
OUTLINE
  6
CONTINUOUS
 62
     3
 10
-182.21038847499949
 20
-256.55561318519989
 30
0.0
 11
-182.13946994439991
 21
-256.63030340499989
 31
0.0
  0
LINE
  8
OUTLINE
  6
CONTINUOUS
 62
     3
 10
-182.13946994439991
 20
-256.63030340499989
 30
0.0
 11
-182.06227853179919
 21
-256.69858882900007
 31
0.0
  0
LINE
  8
OUTLINE
  6
CONTINUOUS
 62
     3
 10
-182.06227853179919
 20
-256.69858882900007
 30
0.0
 11
-181.9798889139993
 21
-256.75961558519998
 31
0.0
  0
LINE
  8
OUTLINE
  6
CONTINUOUS
 62
     3
 10
-181.9798889139993
 20
-256.75961558519998
 30
0.0
 11
-181.89262789939951
 21
-256.8132588005999
 31
0.0
  0
LINE
  8
OUTLINE
  6
CONTINUOUS
 62
     3
 10
-181.89262789939951
 20
-256.8132588005999
 30
0.0
 11
-181.80100449299971
 21
-256.85922440500008
 31
0.0
  0
LINE
  8
OUTLINE
  6
CONTINUOUS
 62
     3
 10
-181.80100449299971
 20
-256.85922440500008
 30
0.0
 11
-181.7055307239998
 21
-256.89722355260011
 31
0.0
  0
LINE
  8
OUTLINE
  6
CONTINUOUS
 62
     3
 10
-181.7055307239998
 20
-256.89722355260011
 30
0.0
 11
-181.60647779999999
 21
-256.9270334723999
 31
0.0
  0
LINE
  8
OUTLINE
  6
CONTINUOUS
 62
     3
 10
-181.60647779999999
 20
-256.9270334723999
 30
0.0
 11
-181.5051347891995
 21
-256.94817754780001
 31
0.0
  0
LINE
  8
OUTLINE
  6
CONTINUOUS
 62
     3
 10
-181.5051347891995
 20
-256.94817754780001
 30
0.0
 11
-181.40277492339919
 21
-256.96045114100002
 31
0.0
  0
LINE
  8
OUTLINE
  6
CONTINUOUS
 62
     3
 10
-181.43348126439921
 20
-256.90539114400008
 30
0.0
 11
-181.39999991819971
 21
-256.93318553800009
 31
0.0
  0
LINE
  8
OUTLINE
  6
CONTINUOUS
 62
     3
 10
-181.39999991819971
 20
-256.93318553800009
 30
0.0
 11
-181.3665185873997
 21
-256.95227657100008
 31
0.0
  0
LINE
  8
OUTLINE
  6
CONTINUOUS
 62
     3
 10
-181.3665185873997
 20
-256.95227657100008
 30
0.0
 11
-181.33320378259941
 21
-256.9624931802
 31
0.0
  0
LINE
  8
OUTLINE
  6
CONTINUOUS
 62
     3
 10
-182.5
 20
-255.78194327160011
 30
0.0
 11
-182.49972937579969
 21
-255.80743168559999
 31
0.0
  0
LINE
  8
OUTLINE
  6
CONTINUOUS
 62
     3
 10
-183.09999999999951
 20
-234.0
 30
0.0
 11
-183.09999999999951
 21
-229.0
 31
0.0
  0
LINE
  8
OUTLINE
  6
CONTINUOUS
 62
     3
 10
-183.0
 20
-240.69999999999999
 30
0.0
 11
-183.0
 21
-234.0
 31
0.0
  0
LINE
  8
OUTLINE
  6
CONTINUOUS
 62
     3
 10
-182.5
 20
-255.78194327160011
 30
0.0
 11
-182.5
 21
-240.69999999999999
 31
0.0
  0
LINE
  8
OUTLINE
  6
CONTINUOUS
 62
     3
 10
-181.89999999999961
 20
-229.0
 30
0.0
 11
-181.89999999999961
 21
-226.59999999999991
 31
0.0
  0
LINE
  8
OUTLINE
  6
CONTINUOUS
 62
     3
 10
181.33320378260029
 20
-256.9624931802
 30
0.0
 11
181.3113381552001
 21
-256.96439941199992
 31
0.0
  0
LINE
  8
OUTLINE
  6
CONTINUOUS
 62
     3
 10
181.40277492360019
 20
-256.96045114100002
 30
0.0
 11
181.32792709040041
 21
-256.96295319880011
 31
0.0
  0
LINE
  8
OUTLINE
  6
CONTINUOUS
 62
     3
 10
-181.3113381595995
 20
-256.96439941199992
 30
0.0
 11
181.3113381598005
 21
-256.96439941199992
 31
0.0
  0
LINE
  8
OUTLINE
  6
CONTINUOUS
 62
     3
 10
-181.40277492339919
 20
-256.96045114100002
 30
0.0
 11
-181.3279270903995
 21
-256.96295319880011
 31
0.0
  0
LINE
  8
OUTLINE
  6
CONTINUOUS
 62
     3
 10
-181.33320378259941
 20
-256.9624931802
 30
0.0
 11
-181.31133815519931
 21
-256.96439941199992
 31
0.0
  0
LINE
  8
OUTLINE
  6
CONTINUOUS
 62
     3
 10
183.0
 20
-240.69999999999999
 30
0.0
 11
182.5
 21
-240.69999999999999
 31
0.0
  0
LINE
  8
OUTLINE
  6
CONTINUOUS
 62
     3
 10
-183.0
 20
-240.69999999999999
 30
0.0
 11
-182.5
 21
-240.69999999999999
 31
0.0
  0
LINE
  8
OUTLINE
  6
CONTINUOUS
 62
     3
 10
183.60000000000039
 20
-229.0
 30
0.0
 11
183.0
 21
-229.0
 31
0.0
  0
LINE
  8
OUTLINE
  6
CONTINUOUS
 62
     3
 10
-181.89999999999961
 20
-229.0
 30
0.0
 11
-182.5
 21
-229.0
 31
0.0
  0
LINE
  8
OUTLINE
  6
CONTINUOUS
 62
     3
 10
-183.09999999999951
 20
-229.0
 30
0.0
 11
-182.5
 21
-229.0
 31
0.0
  0
LINE
  8
OUTLINE
  6
CONTINUOUS
 62
     3
 10
182.4000000000004
 20
-229.0
 30
0.0
 11
183.0
 21
-229.0
 31
0.0
  0
LINE
  8
OUTLINE
  6
CONTINUOUS
 62
     3
 10
169.90000000000049
 20
-225.0
 30
0.0
 11
168.90000000000049
 21
-225.0
 31
0.0
  0
LINE
  8
OUTLINE
  6
CONTINUOUS
 62
     3
 10
-169.89999999999961
 20
-225.0
 30
0.0
 11
-180.2999999999993
 21
-225.0
 31
0.0
  0
LINE
  8
OUTLINE
  6
CONTINUOUS
 62
     3
 10
-169.89999999999961
 20
-225.0
 30
0.0
 11
-168.89999999999961
 21
-225.0
 31
0.0
  0
LINE
  8
OUTLINE
  6
CONTINUOUS
 62
     3
 10
169.90000000000049
 20
-225.0
 30
0.0
 11
180.80000000000021
 21
-225.0
 31
0.0
  0
LINE
  8
OUTLINE
  6
CONTINUOUS
 62
     3
 10
182.39999999999961
 20
-229.0
 30
0.0
 11
182.4000000000004
 21
-226.59999999999991
 31
0.0
  0
LINE
  8
OUTLINE
  6
CONTINUOUS
 62
     3
 10
182.5
 20
-255.78194327160011
 30
0.0
 11
183.0
 21
-229.0
 31
0.0
  0
LINE
  8
OUTLINE
  6
CONTINUOUS
 62
     3
 10
183.0
 20
-240.69999999999999
 30
0.0
 11
183.0
 21
-234.0
 31
0.0
  0
LINE
  8
OUTLINE
  6
CONTINUOUS
 62
     3
 10
183.60000000000039
 20
-229.0
 30
0.0
 11
183.10000000000039
 21
-234.0
 31
0.0
  0
LINE
  8
OUTLINE
  6
CONTINUOUS
 62
     3
 10
182.5
 20
-255.78194327160011
 30
0.0
 11
182.4997293758006
 21
-255.80743168559999
 31
0.0
  0
LINE
  8
OUTLINE
  6
CONTINUOUS
 62
     3
 10
182.4997293758006
 20
-255.80743168559999
 30
0.0
 11
182.4931385742002
 21
-255.9090741821999
 31
0.0
  0
LINE
  8
OUTLINE
  6
CONTINUOUS
 62
     3
 10
182.4931385742002
 20
-255.9090741821999
 30
0.0
 11
182.47771357360031
 21
-256.01011089640002
 31
0.0
  0
LINE
  8
OUTLINE
  6
CONTINUOUS
 62
     3
 10
182.47771357360031
 20
-256.01011089640002
 30
0.0
 11
182.45343299880011
 21
-256.10993807680012
 31
0.0
  0
LINE
  8
OUTLINE
  6
CONTINUOUS
 62
     3
 10
182.45343299880011
 20
-256.10993807680012
 30
0.0
 11
182.42053346180001
 21
-256.20729263499987
 31
0.0
  0
LINE
  8
OUTLINE
  6
CONTINUOUS
 62
     3
 10
182.42053346180001
 20
-256.20729263499987
 30
0.0
 11
182.37952476960069
 21
-256.30090226200008
 31
0.0
  0
LINE
  8
OUTLINE
  6
CONTINUOUS
 62
     3
 10
182.37952476960069
 20
-256.30090226200008
 30
0.0
 11
182.33063141840009
 21
-256.39049651880009
 31
0.0
  0
LINE
  8
OUTLINE
  6
CONTINUOUS
 62
     3
 10
182.33063141840009
 20
-256.39049651880009
 30
0.0
 11
182.27415155160091
 21
-256.47556818980001
 31
0.0
  0
LINE
  8
OUTLINE
  6
CONTINUOUS
 62
     3
 10
182.27415155160091
 20
-256.47556818980001
 30
0.0
 11
182.2103884750004
 21
-256.55561318519989
 31
0.0
  0
LINE
  8
OUTLINE
  6
CONTINUOUS
 62
     3
 10
182.2103884750004
 20
-256.55561318519989
 30
0.0
 11
182.13946994459999
 21
-256.63030340499989
 31
0.0
  0
LINE
  8
OUTLINE
  6
CONTINUOUS
 62
     3
 10
182.13946994459999
 20
-256.63030340499989
 30
0.0
 11
182.0622785318001
 21
-256.69858882900007
 31
0.0
  0
LINE
  8
OUTLINE
  6
CONTINUOUS
 62
     3
 10
182.0622785318001
 20
-256.69858882900007
 30
0.0
 11
181.97988891400021
 21
-256.75961558519998
 31
0.0
  0
LINE
  8
OUTLINE
  6
CONTINUOUS
 62
     3
 10
181.97988891400021
 20
-256.75961558519998
 30
0.0
 11
181.8926278994004
 21
-256.8132588005999
 31
0.0
  0
LINE
  8
OUTLINE
  6
CONTINUOUS
 62
     3
 10
181.8926278994004
 20
-256.8132588005999
 30
0.0
 11
181.80100449300059
 21
-256.85922440500008
 31
0.0
  0
LINE
  8
OUTLINE
  6
CONTINUOUS
 62
     3
 10
181.80100449300059
 20
-256.85922440500008
 30
0.0
 11
181.7055307242008
 21
-256.89722355260011
 31
0.0
  0
LINE
  8
OUTLINE
  6
CONTINUOUS
 62
     3
 10
181.7055307242008
 20
-256.89722355260011
 30
0.0
 11
181.60647779999999
 21
-256.9270334723999
 31
0.0
  0
LINE
  8
OUTLINE
  6
CONTINUOUS
 62
     3
 10
181.60647779999999
 20
-256.9270334723999
 30
0.0
 11
181.5051347894005
 21
-256.94817754780001
 31
0.0
  0
LINE
  8
OUTLINE
  6
CONTINUOUS
 62
     3
 10
181.5051347894005
 20
-256.94817754780001
 30
0.0
 11
181.40277492360019
 21
-256.96045114100002
 31
0.0
  0
LINE
  8
OUTLINE
  6
CONTINUOUS
 62
     3
 10
181.4334812646002
 20
-256.90539114400008
 30
0.0
 11
181.39999991820059
 21
-256.93318553800009
 31
0.0
  0
LINE
  8
OUTLINE
  6
CONTINUOUS
 62
     3
 10
181.39999991820059
 20
-256.93318553800009
 30
0.0
 11
181.36651858760069
 21
-256.95227657100008
 31
0.0
  0
LINE
  8
OUTLINE
  6
CONTINUOUS
 62
     3
 10
181.36651858760069
 20
-256.95227657100008
 30
0.0
 11
181.33320378260029
 21
-256.9624931802
 31
0.0
  0
ARC
  8
OUTLINE
  6
CONTINUOUS
 62
     3
 10
-180.2999999999993
 20
-226.59999999999991
 30
0.0
 40
1.6000000000000001
 50
90.0
 51
180.0
  0
ARC
  8
OUTLINE
  6
CONTINUOUS
 62
     3
 10
-182.5
 20
-229.0
 30
0.0
 40
0.6
 50
0.0
 51
180.0
  0
ARC
  8
OUTLINE
  6
CONTINUOUS
 62
     3
 10
180.80000000000021
 20
-226.59999999999991
 30
0.0
 40
1.6000000000000001
 50
0.0
 51
90.0
  0
ARC
  8
OUTLINE
  6
CONTINUOUS
 62
     3
 10
183.0
 20
-229.0
 30
0.0
 40
0.6
 50
0.0
 51
180.0
  0
LINE
  8
SIZE
  6
CONTINUOUS
 62
    30
 10
287.15281599999997
 20
0.0000000000000568
 30
0.0
 11
520.55145738988051
 21
0.0000000000001137
 31
0.0
  0
LINE
  8
SIZE
  6
CONTINUOUS
 62
    30
 10
201.31133815959959
 20
-256.96439941199998
 30
0.0
 11
520.55145738988085
 21
-256.96439941199998
 31
0.0
  0
LINE
  8
SIZE
  6
CONTINUOUS
 62
    30
 10
500.55145738988062
 20
-11.99999999999989
 30
0.0
 11
500.55145738988062
 21
-244.96439941200001
 31
0.0
  0
CIRCLE
  8
SIZE
  6
CONTINUOUS
 62
    30
 10
500.55145738988062
 20
0.0000000000001137
 30
0.0
 40
6.0
  0
LINE
  8
SIZE
  6
CONTINUOUS
 62
    30
 10
500.55145738988062
 20
0.0000000000001137
 30
0.0
 11
500.55145738988062
 21
-11.99999999999989
 31
0.0
  0
CIRCLE
  8
SIZE
  6
CONTINUOUS
 62
    30
 10
500.55145738988062
 20
-256.96439941199998
 30
0.0
 40
6.0
  0
LINE
  8
SIZE
  6
CONTINUOUS
 62
    30
 10
500.55145738988062
 20
-256.96439941199998
 30
0.0
 11
500.55145738988062
 21
-244.96439941200001
 31
0.0
  0
TEXT
  8
SIZE
  6
CONTINUOUS
 62
    30
 10
475.55145738988051
 20
-202.5393425631429
 30
0.0
 40
64.0
  1
257
 50
90.0
 41
0.9
 72
     1
 11
475.55145738988051
 21
-128.48219970599999
 31
0.0
  0
POINT
  8
DEFPOINTS
  6
CONTINUOUS
 62
    30
 10
267.15281600000009
 20
0.0000000000000568
 30
0.0
  0
POINT
  8
DEFPOINTS
  6
CONTINUOUS
 62
    30
 10
181.3113381595995
 20
-256.96439941199998
 30
0.0
  0
POINT
  8
DEFPOINTS
  6
CONTINUOUS
 62
    30
 10
500.55145738988062
 20
-256.96439941199998
 30
0.0
  0
LINE
  8
DETAIL
  6
CONTINUOUS
 62
     5
 10
-33.760697621220061
 20
-141.55367236412431
 30
0.0
 11
-33.760697621220061
 21
-118.8000026648006
 31
0.0
  0
LINE
  8
DETAIL
  6
CONTINUOUS
 62
     5
 10
-156.00833041131051
 20
-136.35293141612459
 30
0.0
 11
-156.00626165911041
 21
-136.44101474432449
 31
0.0
  0
LINE
  8
DETAIL
  6
CONTINUOUS
 62
     5
 10
-156.00626165911041
 20
-136.44101474432449
 30
0.0
 11
-156.0005260623102
 21
-136.52394148772461
 31
0.0
  0
LINE
  8
DETAIL
  6
CONTINUOUS
 62
     5
 10
-156.0005260623102
 20
-136.52394148772461
 30
0.0
 11
-155.99095421931
 21
-136.60284530272449
 31
0.0
  0
LINE
  8
DETAIL
  6
CONTINUOUS
 62
     5
 10
-155.99095421931
 20
-136.60284530272449
 30
0.0
 11
-155.97805433451049
 21
-136.67432522092429
 31
0.0
  0
LINE
  8
DETAIL
  6
CONTINUOUS
 62
     5
 10
-155.97805433451049
 20
-136.67432522092429
 30
0.0
 11
-155.96207507391051
 21
-136.73582170432451
 31
0.0
  0
LINE
  8
DETAIL
  6
CONTINUOUS
 62
     5
 10
-155.96207507391051
 20
-136.73582170432451
 30
0.0
 11
-155.94362565011031
 21
-136.78594411792449
 31
0.0
  0
LINE
  8
DETAIL
  6
CONTINUOUS
 62
     5
 10
-155.94362565011031
 20
-136.78594411792449
 30
0.0
 11
-155.92316630651021
 21
-136.8226158863244
 31
0.0
  0
LINE
  8
DETAIL
  6
CONTINUOUS
 62
     5
 10
-155.92316630651021
 20
-136.8226158863244
 30
0.0
 11
-155.90139261651069
 21
-136.84533529252431
 31
0.0
  0
LINE
  8
DETAIL
  6
CONTINUOUS
 62
     5
 10
-155.90139261651069
 20
-136.84533529252431
 30
0.0
 11
-155.87892088891019
 21
-136.85275918952439
 31
0.0
  0
LINE
  8
DETAIL
  6
CONTINUOUS
 62
     5
 10
-155.7495113663108
 20
-136.35293141612459
 30
0.0
 11
-155.75158011850999
 21
-136.26484808792449
 31
0.0
  0
LINE
  8
DETAIL
  6
CONTINUOUS
 62
     5
 10
-155.75158011850999
 20
-136.26484808792449
 30
0.0
 11
-155.7573157155102
 21
-136.1819213445246
 31
0.0
  0
LINE
  8
DETAIL
  6
CONTINUOUS
 62
     5
 10
-155.7573157155102
 20
-136.1819213445246
 30
0.0
 11
-155.7668875583104
 21
-136.10301752952449
 31
0.0
  0
LINE
  8
DETAIL
  6
CONTINUOUS
 62
     5
 10
-155.7668875583104
 20
-136.10301752952449
 30
0.0
 11
-155.77978744311079
 21
-136.03153761132441
 31
0.0
  0
LINE
  8
DETAIL
  6
CONTINUOUS
 62
     5
 10
-155.77978744311079
 20
-136.03153761132441
 30
0.0
 11
-155.7957667037108
 21
-135.9700411279245
 31
0.0
  0
LINE
  8
DETAIL
  6
CONTINUOUS
 62
     5
 10
-155.7957667037108
 20
-135.9700411279245
 30
0.0
 11
-155.81421612751001
 21
-135.91991871412429
 31
0.0
  0
LINE
  8
DETAIL
  6
CONTINUOUS
 62
     5
 10
-155.81421612751001
 20
-135.91991871412429
 30
0.0
 11
-155.8346754711101
 21
-135.8832469459243
 31
0.0
  0
LINE
  8
DETAIL
  6
CONTINUOUS
 62
     5
 10
-155.8346754711101
 20
-135.8832469459243
 30
0.0
 11
-155.8564491611105
 21
-135.8605275395245
 31
0.0
  0
LINE
  8
DETAIL
  6
CONTINUOUS
 62
     5
 10
-155.8564491611105
 20
-135.8605275395245
 30
0.0
 11
-155.87892088891019
 21
-135.85310364272451
 31
0.0
  0
LINE
  8
DETAIL
  6
CONTINUOUS
 62
     5
 10
-150.91988223490989
 20
-136.35293141612459
 30
0.0
 11
-150.9215431721104
 21
-136.27378662152449
 31
0.0
  0
LINE
  8
DETAIL
  6
CONTINUOUS
 62
     5
 10
-150.9215431721104
 20
-136.27378662152449
 30
0.0
 11
-150.92621598771069
 21
-136.19842291892451
 31
0.0
  0
LINE
  8
DETAIL
  6
CONTINUOUS
 62
     5
 10
-150.92621598771069
 20
-136.19842291892451
 30
0.0
 11
-150.9340131373101
 21
-136.12598756532449
 31
0.0
  0
LINE
  8
DETAIL
  6
CONTINUOUS
 62
     5
 10
-150.9340131373101
 20
-136.12598756532449
 30
0.0
 11
-150.94459725431079
 21
-136.05903878992439
 31
0.0
  0
LINE
  8
DETAIL
  6
CONTINUOUS
 62
     5
 10
-150.94459725431079
 20
-136.05903878992439
 30
0.0
 11
-150.95780612651009
 21
-135.99945808152461
 31
0.0
  0
LINE
  8
DETAIL
  6
CONTINUOUS
 62
     5
 10
-150.95780612651009
 20
-135.99945808152461
 30
0.0
 11
-150.9732267485106
 21
-135.94842291892451
 31
0.0
  0
LINE
  8
DETAIL
  6
CONTINUOUS
 62
     5
 10
-150.9732267485106
 20
-135.94842291892451
 30
0.0
 11
-150.99055436671011
 21
-135.90752903032441
 31
0.0
  0
LINE
  8
DETAIL
  6
CONTINUOUS
 62
     5
 10
-150.99055436671011
 20
-135.90752903032441
 30
0.0
 11
-151.00930201571009
 21
-135.87740315792459
 31
0.0
  0
LINE
  8
DETAIL
  6
CONTINUOUS
 62
     5
 10
-151.00930201571009
 20
-135.87740315792459
 30
0.0
 11
-151.0290522319101
 21
-135.8591990681245
 31
0.0
  0
LINE
  8
DETAIL
  6
CONTINUOUS
 62
     5
 10
-151.0290522319101
 20
-135.8591990681245
 30
0.0
 11
-151.0492917573101
 21
-135.85293141612459
 31
0.0
  0
LINE
  8
DETAIL
  6
CONTINUOUS
 62
     5
 10
-150.7904727123105
 20
-136.35293141612459
 30
0.0
 11
-150.79379458671059
 21
-136.1946418269244
 31
0.0
  0
LINE
  8
DETAIL
  6
CONTINUOUS
 62
     5
 10
-150.79379458671059
 20
-136.1946418269244
 30
0.0
 11
-150.8031402179104
 21
-136.04391442172451
 31
0.0
  0
LINE
  8
DETAIL
  6
CONTINUOUS
 62
     5
 10
-150.8031402179104
 20
-136.04391442172451
 30
0.0
 11
-150.81873451710999
 21
-135.89904371452431
 31
0.0
  0
LINE
  8
DETAIL
  6
CONTINUOUS
 62
     5
 10
-150.81873451710999
 20
-135.89904371452431
 30
0.0
 11
-150.83990275151061
 21
-135.76514616372441
 31
0.0
  0
LINE
  8
DETAIL
  6
CONTINUOUS
 62
     5
 10
-150.83990275151061
 20
-135.76514616372441
 30
0.0
 11
-150.86632049551011
 21
-135.64598474672439
 31
0.0
  0
LINE
  8
DETAIL
  6
CONTINUOUS
 62
     5
 10
-150.86632049551011
 20
-135.64598474672439
 30
0.0
 11
-150.8971617397101
 21
-135.54391442172451
 31
0.0
  0
LINE
  8
DETAIL
  6
CONTINUOUS
 62
     5
 10
-150.8971617397101
 20
-135.54391442172451
 30
0.0
 11
-150.93181697591081
 21
-135.4621266445244
 31
0.0
  0
LINE
  8
DETAIL
  6
CONTINUOUS
 62
     5
 10
-150.93181697591081
 20
-135.4621266445244
 30
0.0
 11
-150.96931227390999
 21
-135.4018748997245
 31
0.0
  0
LINE
  8
DETAIL
  6
CONTINUOUS
 62
     5
 10
-150.96931227390999
 20
-135.4018748997245
 30
0.0
 11
-151.00881270631001
 21
-135.3654667201244
 31
0.0
  0
LINE
  8
DETAIL
  6
CONTINUOUS
 62
     5
 10
-151.00881270631001
 20
-135.3654667201244
 30
0.0
 11
-151.0492917573101
 21
-135.35293141612459
 31
0.0
  0
LINE
  8
DETAIL
  6
CONTINUOUS
 62
     5
 10
-149.72124312890989
 20
-147.91690814092451
 30
0.0
 11
-149.68488945131051
 21
-147.99819510812441
 31
0.0
  0
LINE
  8
DETAIL
  6
CONTINUOUS
 62
     5
 10
-149.68488945131051
 20
-147.99819510812441
 30
0.0
 11
-149.6221869681103
 21
-148.11746593272429
 31
0.0
  0
LINE
  8
DETAIL
  6
CONTINUOUS
 62
     5
 10
-149.6221869681103
 20
-148.11746593272429
 30
0.0
 11
-149.56026557591031
 21
-148.21375198392451
 31
0.0
  0
LINE
  8
DETAIL
  6
CONTINUOUS
 62
     5
 10
-149.56026557591031
 20
-148.21375198392451
 30
0.0
 11
-149.50093057511
 21
-148.28519719212451
 31
0.0
  0
LINE
  8
DETAIL
  6
CONTINUOUS
 62
     5
 10
-149.50093057511
 20
-148.28519719212451
 30
0.0
 11
-149.44692421171021
 21
-148.32800827032449
 31
0.0
  0
LINE
  8
DETAIL
  6
CONTINUOUS
 62
     5
 10
-149.44692421171021
 20
-148.32800827032449
 30
0.0
 11
-149.39733240351049
 21
-148.3434496473246
 31
0.0
  0
LINE
  8
DETAIL
  6
CONTINUOUS
 62
     5
 10
-154.4418054355101
 20
-148.6716190465244
 30
0.0
 11
-154.41771585131031
 21
-148.75670100792439
 31
0.0
  0
LINE
  8
DETAIL
  6
CONTINUOUS
 62
     5
 10
-154.41771585131031
 20
-148.75670100792439
 30
0.0
 11
-154.39124856851049
 21
-148.83680209132439
 31
0.0
  0
LINE
  8
DETAIL
  6
CONTINUOUS
 62
     5
 10
-154.39124856851049
 20
-148.83680209132439
 30
0.0
 11
-154.3619507717103
 21
-148.91301732392449
 31
0.0
  0
LINE
  8
DETAIL
  6
CONTINUOUS
 62
     5
 10
-154.3619507717103
 20
-148.91301732392449
 30
0.0
 11
-154.3311809073102
 21
-148.98206162292439
 31
0.0
  0
LINE
  8
DETAIL
  6
CONTINUOUS
 62
     5
 10
-154.3311809073102
 20
-148.98206162292439
 30
0.0
 11
-154.29982752591059
 21
-149.0414626645244
 31
0.0
  0
LINE
  8
DETAIL
  6
CONTINUOUS
 62
     5
 10
-154.29982752591059
 20
-149.0414626645244
 30
0.0
 11
-154.26884749871081
 21
-149.0898771983245
 31
0.0
  0
LINE
  8
DETAIL
  6
CONTINUOUS
 62
     5
 10
-154.26884749871081
 20
-149.0898771983245
 30
0.0
 11
-154.23922021311051
 21
-149.12529940652431
 31
0.0
  0
LINE
  8
DETAIL
  6
CONTINUOUS
 62
     5
 10
-154.23922021311051
 20
-149.12529940652431
 30
0.0
 11
-154.2117666715103
 21
-149.14724466772441
 31
0.0
  0
LINE
  8
DETAIL
  6
CONTINUOUS
 62
     5
 10
-154.2117666715103
 20
-149.14724466772441
 30
0.0
 11
-154.18743896971051
 21
-149.15441560152451
 31
0.0
  0
LINE
  8
DETAIL
  6
CONTINUOUS
 62
     5
 10
-154.18743896971051
 20
-149.15441560152451
 30
0.0
 11
-154.17877509891059
 21
-149.15330631512461
 31
0.0
  0
LINE
  8
DETAIL
  6
CONTINUOUS
 62
     5
 10
-154.18298639031039
 20
-148.6716190465244
 30
0.0
 11
-154.20707597471031
 21
-148.5865370849246
 31
0.0
  0
LINE
  8
DETAIL
  6
CONTINUOUS
 62
     5
 10
-154.20707597471031
 20
-148.5865370849246
 30
0.0
 11
-154.23354325751009
 21
-148.5064360017245
 31
0.0
  0
LINE
  8
DETAIL
  6
CONTINUOUS
 62
     5
 10
-154.23354325751009
 20
-148.5064360017245
 30
0.0
 11
-154.26284105411011
 21
-148.4302207689245
 31
0.0
  0
LINE
  8
DETAIL
  6
CONTINUOUS
 62
     5
 10
-154.26284105411011
 20
-148.4302207689245
 30
0.0
 11
-154.29361091851021
 21
-148.3611764699244
 31
0.0
  0
LINE
  8
DETAIL
  6
CONTINUOUS
 62
     5
 10
-154.29361091851021
 20
-148.3611764699244
 30
0.0
 11
-154.32496429991079
 21
-148.30177542832459
 31
0.0
  0
LINE
  8
DETAIL
  6
CONTINUOUS
 62
     5
 10
-154.32496429991079
 20
-148.30177542832459
 30
0.0
 11
-154.35594432711059
 21
-148.25336089472441
 31
0.0
  0
LINE
  8
DETAIL
  6
CONTINUOUS
 62
     5
 10
-154.35594432711059
 20
-148.25336089472441
 30
0.0
 11
-154.38557161271001
 21
-148.21793868652449
 31
0.0
  0
LINE
  8
DETAIL
  6
CONTINUOUS
 62
     5
 10
-154.38557161271001
 20
-148.21793868652449
 30
0.0
 11
-154.41302515431019
 21
-148.19599342512441
 31
0.0
  0
LINE
  8
DETAIL
  6
CONTINUOUS
 62
     5
 10
-154.41302515431019
 20
-148.19599342512441
 30
0.0
 11
-154.4373528563101
 21
-148.1888224915246
 31
0.0
  0
LINE
  8
DETAIL
  6
CONTINUOUS
 62
     5
 10
-154.4373528563101
 20
-148.1888224915246
 30
0.0
 11
-154.44601672710999
 21
-148.18993177772441
 31
0.0
  0
LINE
  8
DETAIL
  6
CONTINUOUS
 62
     5
 10
-149.51792288091019
 20
-147.37752382092449
 30
0.0
 11
-149.53937001671059
 21
-147.30107581992451
 31
0.0
  0
LINE
  8
DETAIL
  6
CONTINUOUS
 62
     5
 10
-149.53937001671059
 20
-147.30107581992451
 30
0.0
 11
-149.5628837581107
 21
-147.22828007312449
 31
0.0
  0
LINE
  8
DETAIL
  6
CONTINUOUS
 62
     5
 10
-149.5628837581107
 20
-147.22828007312449
 30
0.0
 11
-149.58878974611071
 21
-147.1583128943245
 31
0.0
  0
LINE
  8
DETAIL
  6
CONTINUOUS
 62
     5
 10
-149.58878974611071
 20
-147.1583128943245
 30
0.0
 11
-149.6161110571102
 21
-147.0936453433246
 31
0.0
  0
LINE
  8
DETAIL
  6
CONTINUOUS
 62
     5
 10
-149.6161110571102
 20
-147.0936453433246
 30
0.0
 11
-149.6442151061101
 21
-147.03609479812431
 31
0.0
  0
LINE
  8
DETAIL
  6
CONTINUOUS
 62
     5
 10
-149.6442151061101
 20
-147.03609479812431
 30
0.0
 11
-149.67239451891061
 21
-146.98679861652451
 31
0.0
  0
LINE
  8
DETAIL
  6
CONTINUOUS
 62
     5
 10
-149.67239451891061
 20
-146.98679861652451
 30
0.0
 11
-149.6999456091107
 21
-146.94729815352451
 31
0.0
  0
LINE
  8
DETAIL
  6
CONTINUOUS
 62
     5
 10
-149.6999456091107
 20
-146.94729815352451
 30
0.0
 11
-149.72622472631059
 21
-146.91819879532451
 31
0.0
  0
LINE
  8
DETAIL
  6
CONTINUOUS
 62
     5
 10
-149.72622472631059
 20
-146.91819879532451
 30
0.0
 11
-149.75052596491059
 21
-146.90061499472441
 31
0.0
  0
LINE
  8
DETAIL
  6
CONTINUOUS
 62
     5
 10
-149.75052596491059
 20
-146.90061499472441
 30
0.0
 11
-149.77233240351049
 21
-146.89456090792461
 31
0.0
  0
LINE
  8
DETAIL
  6
CONTINUOUS
 62
     5
 10
-149.77233240351049
 20
-146.89456090792461
 30
0.0
 11
-149.7809715489102
 21
-146.8957700575244
 31
0.0
  0
LINE
  8
DETAIL
  6
CONTINUOUS
 62
     5
 10
-151.27255897691069
 20
-136.85293141612459
 30
0.0
 11
-151.25868076331059
 21
-136.94071666832451
 31
0.0
  0
LINE
  8
DETAIL
  6
CONTINUOUS
 62
     5
 10
-151.25868076331059
 20
-136.94071666832451
 30
0.0
 11
-151.2322630193103
 21
-137.0598780855243
 31
0.0
  0
LINE
  8
DETAIL
  6
CONTINUOUS
 62
     5
 10
-151.2322630193103
 20
-137.0598780855243
 30
0.0
 11
-151.20142177511019
 21
-137.16194841052439
 31
0.0
  0
LINE
  8
DETAIL
  6
CONTINUOUS
 62
     5
 10
-151.20142177511019
 20
-137.16194841052439
 30
0.0
 11
-151.16676653891051
 21
-137.24373618752449
 31
0.0
  0
LINE
  8
DETAIL
  6
CONTINUOUS
 62
     5
 10
-151.16676653891051
 20
-137.24373618752449
 30
0.0
 11
-151.1292712407103
 21
-137.30398793232459
 31
0.0
  0
LINE
  8
DETAIL
  6
CONTINUOUS
 62
     5
 10
-151.1292712407103
 20
-137.30398793232459
 30
0.0
 11
-151.08977080831031
 21
-137.3403961121243
 31
0.0
  0
LINE
  8
DETAIL
  6
CONTINUOUS
 62
     5
 10
-151.08977080831031
 20
-137.3403961121243
 30
0.0
 11
-151.0492917573101
 21
-137.35293141612459
 31
0.0
  0
LINE
  8
DETAIL
  6
CONTINUOUS
 62
     5
 10
-118.3990925951102
 20
-137.67145507552451
 30
0.0
 11
-118.40657354031011
 21
-137.35293141612459
 31
0.0
  0
LINE
  8
DETAIL
  6
CONTINUOUS
 62
     5
 10
-116.9830687921103
 20
-136.35293141612459
 30
0.0
 11
-116.98579595851059
 21
-136.20921210072439
 31
0.0
  0
LINE
  8
DETAIL
  6
CONTINUOUS
 62
     5
 10
-116.98579595851059
 20
-136.20921210072439
 30
0.0
 11
-116.9935527821108
 21
-136.07119885932451
 31
0.0
  0
LINE
  8
DETAIL
  6
CONTINUOUS
 62
     5
 10
-116.9935527821108
 20
-136.07119885932451
 30
0.0
 11
-117.0064942155104
 21
-135.93758074152441
 31
0.0
  0
LINE
  8
DETAIL
  6
CONTINUOUS
 62
     5
 10
-117.0064942155104
 20
-135.93758074152441
 30
0.0
 11
-117.02415540110999
 21
-135.8122905987245
 31
0.0
  0
LINE
  8
DETAIL
  6
CONTINUOUS
 62
     5
 10
-117.02415540110999
 20
-135.8122905987245
 30
0.0
 11
-117.0463157485101
 21
-135.69817210532429
 31
0.0
  0
LINE
  8
DETAIL
  6
CONTINUOUS
 62
     5
 10
-117.0463157485101
 20
-135.69817210532429
 30
0.0
 11
-117.0723974075099
 21
-135.59718184172439
 31
0.0
  0
LINE
  8
DETAIL
  6
CONTINUOUS
 62
     5
 10
-117.0723974075099
 20
-135.59718184172439
 30
0.0
 11
-117.1019813689109
 21
-135.51180817432439
 31
0.0
  0
LINE
  8
DETAIL
  6
CONTINUOUS
 62
     5
 10
-117.1019813689109
 20
-135.51180817432439
 30
0.0
 11
-117.1343705203108
 21
-135.44329942072449
 31
0.0
  0
LINE
  8
DETAIL
  6
CONTINUOUS
 62
     5
 10
-117.1343705203108
 20
-135.44329942072449
 30
0.0
 11
-117.16898137931
 21
-135.39358704612451
 31
0.0
  0
LINE
  8
DETAIL
  6
CONTINUOUS
 62
     5
 10
-117.16898137931
 20
-135.39358704612451
 30
0.0
 11
-117.2050540467108
 21
-135.36310997432449
 31
0.0
  0
LINE
  8
DETAIL
  6
CONTINUOUS
 62
     5
 10
-117.2050540467108
 20
-135.36310997432449
 30
0.0
 11
-117.2418878373101
 21
-135.35308629332431
 31
0.0
  0
LINE
  8
DETAIL
  6
CONTINUOUS
 62
     5
 10
-116.07720213431
 20
-137.35293141612459
 30
0.0
 11
-116.09582090451021
 21
-138.14568136932431
 31
0.0
  0
LINE
  8
DETAIL
  6
CONTINUOUS
 62
     5
 10
-116.09582090451021
 20
-138.14568136932431
 30
0.0
 11
-116.1474412767102
 21
-138.89202206112441
 31
0.0
  0
LINE
  8
DETAIL
  6
CONTINUOUS
 62
     5
 10
-116.1474412767102
 20
-138.89202206112441
 30
0.0
 11
-116.2335878631102
 21
-139.6021563961244
 31
0.0
  0
LINE
  8
DETAIL
  6
CONTINUOUS
 62
     5
 10
-116.2335878631102
 20
-139.6021563961244
 30
0.0
 11
-116.34968682651019
 21
-140.24547565972441
 31
0.0
  0
LINE
  8
DETAIL
  6
CONTINUOUS
 62
     5
 10
-116.34968682651019
 20
-140.24547565972441
 30
0.0
 11
-116.49350017171039
 21
-140.79894401052451
 31
0.0
  0
LINE
  8
DETAIL
  6
CONTINUOUS
 62
     5
 10
-116.49350017171039
 20
-140.79894401052451
 30
0.0
 11
-116.6595449857105
 21
-141.25004573312449
 31
0.0
  0
LINE
  8
DETAIL
  6
CONTINUOUS
 62
     5
 10
-116.6595449857105
 20
-141.25004573312449
 30
0.0
 11
-116.8436790777105
 21
-141.5800916485245
 31
0.0
  0
LINE
  8
DETAIL
  6
CONTINUOUS
 62
     5
 10
-116.8436790777105
 20
-141.5800916485245
 30
0.0
 11
-117.03964228731
 21
-141.78456630472459
 31
0.0
  0
LINE
  8
DETAIL
  6
CONTINUOUS
 62
     5
 10
-117.03964228731
 20
-141.78456630472459
 30
0.0
 11
-117.2418878373101
 21
-141.85138137612441
 31
0.0
  0
LINE
  8
DETAIL
  6
CONTINUOUS
 62
     5
 10
-118.2804213605104
 20
-135.35293141612459
 30
0.0
 11
-118.2501878115108
 21
-135.10370643612441
 31
0.0
  0
LINE
  8
DETAIL
  6
CONTINUOUS
 62
     5
 10
-118.2501878115108
 20
-135.10370643612441
 30
0.0
 11
-118.1340888479108
 21
-134.46038717252429
 31
0.0
  0
LINE
  8
DETAIL
  6
CONTINUOUS
 62
     5
 10
-118.1340888479108
 20
-134.46038717252429
 30
0.0
 11
-117.99027550291071
 21
-133.90691882152441
 31
0.0
  0
LINE
  8
DETAIL
  6
CONTINUOUS
 62
     5
 10
-117.99027550291071
 20
-133.90691882152441
 30
0.0
 11
-117.8242306887105
 21
-133.4558170991244
 31
0.0
  0
LINE
  8
DETAIL
  6
CONTINUOUS
 62
     5
 10
-117.8242306887105
 20
-133.4558170991244
 30
0.0
 11
-117.64009659671051
 21
-133.12577118372451
 31
0.0
  0
LINE
  8
DETAIL
  6
CONTINUOUS
 62
     5
 10
-117.64009659671051
 20
-133.12577118372451
 30
0.0
 11
-117.44413338711
 21
-132.92129652752459
 31
0.0
  0
LINE
  8
DETAIL
  6
CONTINUOUS
 62
     5
 10
-117.44413338711
 20
-132.92129652752459
 30
0.0
 11
-117.2418878373101
 21
-132.8544814561246
 31
0.0
  0
LINE
  8
DETAIL
  6
CONTINUOUS
 62
     5
 10
-97.241635195235176
 20
-225.0
 30
0.0
 11
-97.241635195235176
 21
-141.85293141612459
 31
0.0
  0
LINE
  8
DETAIL
  6
CONTINUOUS
 62
     5
 10
-96.291054316834561
 20
-132.85293141612459
 30
0.0
 11
-96.291054316834561
 21
0.0
 31
0.0
  0
LINE
  8
DETAIL
  6
CONTINUOUS
 62
     5
 10
-93.899998934834912
 20
-225.0
 30
0.0
 11
-93.899998934834912
 21
-141.85293141612459
 31
0.0
  0
LINE
  8
DETAIL
  6
CONTINUOUS
 62
     5
 10
-93.499998934835276
 20
-132.85293141612459
 30
0.0
 11
-93.499998934835332
 21
0.0
 31
0.0
  0
LINE
  8
DETAIL
  6
CONTINUOUS
 62
     5
 10
-149.79373423171
 20
-146.46985044972459
 30
0.0
 11
-149.8477405953108
 21
-146.42703937172439
 31
0.0
  0
LINE
  8
DETAIL
  6
CONTINUOUS
 62
     5
 10
-149.8477405953108
 20
-146.42703937172439
 30
0.0
 11
-149.89733240351049
 21
-146.41159799472459
 31
0.0
  0
LINE
  8
DETAIL
  6
CONTINUOUS
 62
     5
 10
-117.20784516331059
 20
-137.34413527872439
 30
0.0
 11
-117.1749401699108
 21
-137.31889825812451
 31
0.0
  0
LINE
  8
DETAIL
  6
CONTINUOUS
 62
     5
 10
-117.1749401699108
 20
-137.31889825812451
 30
0.0
 11
-117.14290753811019
 21
-137.27679813492449
 31
0.0
  0
LINE
  8
DETAIL
  6
CONTINUOUS
 62
     5
 10
-117.14290753811019
 20
-137.27679813492449
 30
0.0
 11
-117.1125432245108
 21
-137.2191015665243
 31
0.0
  0
LINE
  8
DETAIL
  6
CONTINUOUS
 62
     5
 10
-117.1125432245108
 20
-137.2191015665243
 30
0.0
 11
-117.0844148219103
 21
-137.14640274432429
 31
0.0
  0
LINE
  8
DETAIL
  6
CONTINUOUS
 62
     5
 10
-117.0844148219103
 20
-137.14640274432429
 30
0.0
 11
-117.0589421035102
 21
-137.0602968481243
 31
0.0
  0
LINE
  8
DETAIL
  6
CONTINUOUS
 62
     5
 10
-117.0589421035102
 20
-137.0602968481243
 30
0.0
 11
-117.0366338825106
 21
-136.9619189157244
 31
0.0
  0
LINE
  8
DETAIL
  6
CONTINUOUS
 62
     5
 10
-117.0366338825106
 20
-136.9619189157244
 30
0.0
 11
-117.0177906325107
 21
-136.8532435635245
 31
0.0
  0
LINE
  8
DETAIL
  6
CONTINUOUS
 62
     5
 10
-117.0177906325107
 20
-136.8532435635245
 30
0.0
 11
-117.00283052091071
 21
-136.73590619952429
 31
0.0
  0
LINE
  8
DETAIL
  6
CONTINUOUS
 62
     5
 10
-117.00283052091071
 20
-136.73590619952429
 30
0.0
 11
-116.9919092821101
 21
-136.6120594873245
 31
0.0
  0
LINE
  8
DETAIL
  6
CONTINUOUS
 62
     5
 10
-116.9919092821101
 20
-136.6120594873245
 30
0.0
 11
-116.9853589295108
 21
-136.4847384511244
 31
0.0
  0
LINE
  8
DETAIL
  6
CONTINUOUS
 62
     5
 10
-116.9853589295108
 20
-136.4847384511244
 30
0.0
 11
-116.9830687921103
 21
-136.35293141612459
 31
0.0
  0
LINE
  8
DETAIL
  6
CONTINUOUS
 62
     5
 10
-149.91452893371019
 20
-146.41431028812431
 30
0.0
 11
-149.93893116671009
 21
-146.42703937172439
 31
0.0
  0
LINE
  8
DETAIL
  6
CONTINUOUS
 62
     5
 10
-149.93893116671009
 20
-146.42703937172439
 30
0.0
 11
-149.9707768855105
 21
-146.46985044972459
 31
0.0
  0
LINE
  8
DETAIL
  6
CONTINUOUS
 62
     5
 10
-149.9707768855105
 20
-146.46985044972459
 30
0.0
 11
-149.9931291251105
 21
-146.5412956581244
 31
0.0
  0
LINE
  8
DETAIL
  6
CONTINUOUS
 62
     5
 10
-149.9931291251105
 20
-146.5412956581244
 30
0.0
 11
-150.00520918971051
 21
-146.63758170932439
 31
0.0
  0
LINE
  8
DETAIL
  6
CONTINUOUS
 62
     5
 10
-150.00520918971051
 20
-146.63758170932439
 30
0.0
 11
-150.00617255091041
 21
-146.7568525339245
 31
0.0
  0
LINE
  8
DETAIL
  6
CONTINUOUS
 62
     5
 10
-150.00617255091041
 20
-146.7568525339245
 30
0.0
 11
-149.99647627150989
 21
-146.89456090792461
 31
0.0
  0
LINE
  8
DETAIL
  6
CONTINUOUS
 62
     5
 10
-149.99647627150989
 20
-146.89456090792461
 30
0.0
 11
-149.98857457171019
 21
-146.95330350192441
 31
0.0
  0
LINE
  8
DETAIL
  6
CONTINUOUS
 62
     5
 10
-149.3801358731107
 20
-148.34073735392431
 30
0.0
 11
-149.35573364011
 21
-148.32800827032449
 31
0.0
  0
LINE
  8
DETAIL
  6
CONTINUOUS
 62
     5
 10
-149.35573364011
 20
-148.32800827032449
 30
0.0
 11
-149.32388792131039
 21
-148.28519719212451
 31
0.0
  0
LINE
  8
DETAIL
  6
CONTINUOUS
 62
     5
 10
-149.32388792131039
 20
-148.28519719212451
 30
0.0
 11
-149.30153568191051
 21
-148.21375198392451
 31
0.0
  0
LINE
  8
DETAIL
  6
CONTINUOUS
 62
     5
 10
-149.30153568191051
 20
-148.21375198392451
 30
0.0
 11
-149.28945561731049
 21
-148.11746593272429
 31
0.0
  0
LINE
  8
DETAIL
  6
CONTINUOUS
 62
     5
 10
-149.28945561731049
 20
-148.11746593272429
 30
0.0
 11
-149.28849225611069
 21
-147.99819510812441
 31
0.0
  0
LINE
  8
DETAIL
  6
CONTINUOUS
 62
     5
 10
-149.28849225611069
 20
-147.99819510812441
 30
0.0
 11
-149.29818853551021
 21
-147.86048673412449
 31
0.0
  0
LINE
  8
DETAIL
  6
CONTINUOUS
 62
     5
 10
-149.29818853551021
 20
-147.86048673412449
 30
0.0
 11
-149.31873024791
 21
-147.70777611492429
 31
0.0
  0
LINE
  8
DETAIL
  6
CONTINUOUS
 62
     5
 10
-149.31873024791
 20
-147.70777611492429
 30
0.0
 11
-149.3490333569107
 21
-147.5452550805243
 31
0.0
  0
LINE
  8
DETAIL
  6
CONTINUOUS
 62
     5
 10
-149.3490333569107
 20
-147.5452550805243
 30
0.0
 11
-149.38860250951069
 21
-147.37752382092449
 31
0.0
  0
LINE
  8
DETAIL
  6
CONTINUOUS
 62
     5
 10
-149.38860250951069
 20
-147.37752382092449
 30
0.0
 11
-149.4358574457101
 21
-147.20979256152441
 31
0.0
  0
LINE
  8
DETAIL
  6
CONTINUOUS
 62
     5
 10
-149.4358574457101
 20
-147.20979256152441
 30
0.0
 11
-149.4896814147105
 21
-147.04727152712431
 31
0.0
  0
LINE
  8
DETAIL
  6
CONTINUOUS
 62
     5
 10
-149.4896814147105
 20
-147.04727152712431
 30
0.0
 11
-149.54818853551021
 21
-146.89456090792461
 31
0.0
  0
LINE
  8
DETAIL
  6
CONTINUOUS
 62
     5
 10
-149.54818853551021
 20
-146.89456090792461
 30
0.0
 11
-149.60977535571061
 21
-146.7568525339245
 31
0.0
  0
LINE
  8
DETAIL
  6
CONTINUOUS
 62
     5
 10
-149.60977535571061
 20
-146.7568525339245
 30
0.0
 11
-149.67247783891071
 21
-146.63758170932439
 31
0.0
  0
LINE
  8
DETAIL
  6
CONTINUOUS
 62
     5
 10
-149.67247783891071
 20
-146.63758170932439
 30
0.0
 11
-149.7343992311107
 21
-146.5412956581244
 31
0.0
  0
LINE
  8
DETAIL
  6
CONTINUOUS
 62
     5
 10
-149.7343992311107
 20
-146.5412956581244
 30
0.0
 11
-149.79373423171
 21
-146.46985044972459
 31
0.0
  0
LINE
  8
DETAIL
  6
CONTINUOUS
 62
     5
 10
-154.44601672710999
 20
-148.18993177772441
 30
0.0
 11
-154.45796860991049
 21
-148.19599342512441
 31
0.0
  0
LINE
  8
DETAIL
  6
CONTINUOUS
 62
     5
 10
-154.45796860991049
 20
-148.19599342512441
 30
0.0
 11
-154.47406244831021
 21
-148.21793868652449
 31
0.0
  0
LINE
  8
DETAIL
  6
CONTINUOUS
 62
     5
 10
-154.47406244831021
 20
-148.21793868652449
 30
0.0
 11
-154.48535384971001
 21
-148.25336089472441
 31
0.0
  0
LINE
  8
DETAIL
  6
CONTINUOUS
 62
     5
 10
-154.48535384971001
 20
-148.25336089472441
 30
0.0
 11
-154.49127267011039
 21
-148.30177542832459
 31
0.0
  0
LINE
  8
DETAIL
  6
CONTINUOUS
 62
     5
 10
-154.49127267011039
 20
-148.30177542832459
 30
0.0
 11
-154.49187780971079
 21
-148.3611764699244
 31
0.0
  0
LINE
  8
DETAIL
  6
CONTINUOUS
 62
     5
 10
-154.49187780971079
 20
-148.3611764699244
 30
0.0
 11
-154.48690771511059
 21
-148.4302207689245
 31
0.0
  0
LINE
  8
DETAIL
  6
CONTINUOUS
 62
     5
 10
-154.48690771511059
 20
-148.4302207689245
 30
0.0
 11
-154.47675360431001
 21
-148.5064360017245
 31
0.0
  0
LINE
  8
DETAIL
  6
CONTINUOUS
 62
     5
 10
-154.47675360431001
 20
-148.5064360017245
 30
0.0
 11
-154.46175751531061
 21
-148.5865370849246
 31
0.0
  0
LINE
  8
DETAIL
  6
CONTINUOUS
 62
     5
 10
-154.46175751531061
 20
-148.5865370849246
 30
0.0
 11
-154.4418054355101
 21
-148.6716190465244
 31
0.0
  0
LINE
  8
DETAIL
  6
CONTINUOUS
 62
     5
 10
-154.17877509891059
 20
-149.15330631512461
 30
0.0
 11
-154.16682321611009
 21
-149.14724466772441
 31
0.0
  0
LINE
  8
DETAIL
  6
CONTINUOUS
 62
     5
 10
-154.16682321611009
 20
-149.14724466772441
 30
0.0
 11
-154.15072937771041
 21
-149.12529940652431
 31
0.0
  0
LINE
  8
DETAIL
  6
CONTINUOUS
 62
     5
 10
-154.15072937771041
 20
-149.12529940652431
 30
0.0
 11
-154.13943797611049
 21
-149.0898771983245
 31
0.0
  0
LINE
  8
DETAIL
  6
CONTINUOUS
 62
     5
 10
-154.13943797611049
 20
-149.0898771983245
 30
0.0
 11
-154.13351915591011
 21
-149.0414626645244
 31
0.0
  0
LINE
  8
DETAIL
  6
CONTINUOUS
 62
     5
 10
-154.13351915591011
 20
-149.0414626645244
 30
0.0
 11
-154.13291401611059
 21
-148.98206162292439
 31
0.0
  0
LINE
  8
DETAIL
  6
CONTINUOUS
 62
     5
 10
-154.13291401611059
 20
-148.98206162292439
 30
0.0
 11
-154.13788411091079
 21
-148.91301732392449
 31
0.0
  0
LINE
  8
DETAIL
  6
CONTINUOUS
 62
     5
 10
-154.13788411091079
 20
-148.91301732392449
 30
0.0
 11
-154.14803822171049
 21
-148.83680209132439
 31
0.0
  0
LINE
  8
DETAIL
  6
CONTINUOUS
 62
     5
 10
-154.14803822171049
 20
-148.83680209132439
 30
0.0
 11
-154.16303431070989
 21
-148.75670100792439
 31
0.0
  0
LINE
  8
DETAIL
  6
CONTINUOUS
 62
     5
 10
-154.16303431070989
 20
-148.75670100792439
 30
0.0
 11
-154.18298639031039
 21
-148.6716190465244
 31
0.0
  0
LINE
  8
DETAIL
  6
CONTINUOUS
 62
     5
 10
-25.460697621220788
 20
-192.50000266480069
 30
0.0
 11
-7.6539389296203808
 21
-192.50000266480069
 31
0.0
  0
LINE
  8
DETAIL
  6
CONTINUOUS
 62
     5
 10
-2.467456312620016
 20
-192.50000266480069
 30
0.0
 11
93.800001065164906
 21
-192.50000266480069
 31
0.0
  0
LINE
  8
DETAIL
  6
CONTINUOUS
 62
     5
 10
-103.7418878373101
 20
-132.10293141612459
 30
0.0
 11
-103.7418878373101
 21
-142.60293141612459
 31
0.0
  0
LINE
  8
DETAIL
  6
CONTINUOUS
 62
     5
 10
-70.060697621220243
 20
-153.35293141612459
 30
0.0
 11
-70.060697621220243
 21
-131.85378011252439
 31
0.0
  0
LINE
  8
DETAIL
  6
CONTINUOUS
 62
     5
 10
-149.5136932581099
 20
-147.85927758432439
 30
0.0
 11
-149.50365979091021
 21
-147.85443264712441
 31
0.0
  0
LINE
  8
DETAIL
  6
CONTINUOUS
 62
     5
 10
-149.50365979091021
 20
-147.85443264712441
 30
0.0
 11
-149.48846059731019
 21
-147.83684884672439
 31
0.0
  0
LINE
  8
DETAIL
  6
CONTINUOUS
 62
     5
 10
-149.48846059731019
 20
-147.83684884672439
 30
0.0
 11
-149.47724441630999
 21
-147.80774948852439
 31
0.0
  0
LINE
  8
DETAIL
  6
CONTINUOUS
 62
     5
 10
-149.47724441630999
 20
-147.80774948852439
 30
0.0
 11
-149.4701402703104
 21
-147.76824902532459
 31
0.0
  0
LINE
  8
DETAIL
  6
CONTINUOUS
 62
     5
 10
-149.4701402703104
 20
-147.76824902532459
 30
0.0
 11
-149.4674784389108
 21
-147.71895284392431
 31
0.0
  0
LINE
  8
DETAIL
  6
CONTINUOUS
 62
     5
 10
-149.4674784389108
 20
-147.71895284392431
 30
0.0
 11
-149.4691647439104
 21
-147.6614022987246
 31
0.0
  0
LINE
  8
DETAIL
  6
CONTINUOUS
 62
     5
 10
-149.4691647439104
 20
-147.6614022987246
 30
0.0
 11
-149.47531782071019
 21
-147.59673474752449
 31
0.0
  0
LINE
  8
DETAIL
  6
CONTINUOUS
 62
     5
 10
-149.47531782071019
 20
-147.59673474752449
 30
0.0
 11
-149.48562950951049
 21
-147.52676756872461
 31
0.0
  0
LINE
  8
DETAIL
  6
CONTINUOUS
 62
     5
 10
-149.48562950951049
 20
-147.52676756872461
 30
0.0
 11
-149.49979761950999
 21
-147.4539718221244
 31
0.0
  0
LINE
  8
DETAIL
  6
CONTINUOUS
 62
     5
 10
-149.49979761950999
 20
-147.4539718221244
 30
0.0
 11
-149.51792288091019
 21
-147.37752382092449
 31
0.0
  0
LINE
  8
DETAIL
  6
CONTINUOUS
 62
     5
 10
-155.87892088891019
 20
-135.85310364272451
 30
0.0
 11
-155.90139261651069
 21
-135.8605275395245
 31
0.0
  0
LINE
  8
DETAIL
  6
CONTINUOUS
 62
     5
 10
-155.90139261651069
 20
-135.8605275395245
 30
0.0
 11
-155.92316630651021
 21
-135.8832469459243
 31
0.0
  0
LINE
  8
DETAIL
  6
CONTINUOUS
 62
     5
 10
-155.92316630651021
 20
-135.8832469459243
 30
0.0
 11
-155.94362565011031
 21
-135.91991871412429
 31
0.0
  0
LINE
  8
DETAIL
  6
CONTINUOUS
 62
     5
 10
-155.94362565011031
 20
-135.91991871412429
 30
0.0
 11
-155.96207507391051
 21
-135.9700411279245
 31
0.0
  0
LINE
  8
DETAIL
  6
CONTINUOUS
 62
     5
 10
-155.96207507391051
 20
-135.9700411279245
 30
0.0
 11
-155.97805433451049
 21
-136.03153761132441
 31
0.0
  0
LINE
  8
DETAIL
  6
CONTINUOUS
 62
     5
 10
-155.97805433451049
 20
-136.03153761132441
 30
0.0
 11
-155.99095421931
 21
-136.10301752952449
 31
0.0
  0
LINE
  8
DETAIL
  6
CONTINUOUS
 62
     5
 10
-155.99095421931
 20
-136.10301752952449
 30
0.0
 11
-156.0005260623102
 21
-136.1819213445246
 31
0.0
  0
LINE
  8
DETAIL
  6
CONTINUOUS
 62
     5
 10
-156.0005260623102
 20
-136.1819213445246
 30
0.0
 11
-156.00626165911041
 21
-136.26484808792449
 31
0.0
  0
LINE
  8
DETAIL
  6
CONTINUOUS
 62
     5
 10
-156.00626165911041
 20
-136.26484808792449
 30
0.0
 11
-156.00833041131051
 21
-136.35293141612459
 31
0.0
  0
LINE
  8
DETAIL
  6
CONTINUOUS
 62
     5
 10
-155.87892088891019
 20
-136.85275918952439
 30
0.0
 11
-155.8564491611105
 21
-136.84533529252431
 31
0.0
  0
LINE
  8
DETAIL
  6
CONTINUOUS
 62
     5
 10
-155.8564491611105
 20
-136.84533529252431
 30
0.0
 11
-155.8346754711101
 21
-136.8226158863244
 31
0.0
  0
LINE
  8
DETAIL
  6
CONTINUOUS
 62
     5
 10
-155.8346754711101
 20
-136.8226158863244
 30
0.0
 11
-155.81421612751001
 21
-136.78594411792449
 31
0.0
  0
LINE
  8
DETAIL
  6
CONTINUOUS
 62
     5
 10
-155.81421612751001
 20
-136.78594411792449
 30
0.0
 11
-155.7957667037108
 21
-136.73582170432451
 31
0.0
  0
LINE
  8
DETAIL
  6
CONTINUOUS
 62
     5
 10
-155.7957667037108
 20
-136.73582170432451
 30
0.0
 11
-155.77978744311079
 21
-136.67432522092429
 31
0.0
  0
LINE
  8
DETAIL
  6
CONTINUOUS
 62
     5
 10
-155.77978744311079
 20
-136.67432522092429
 30
0.0
 11
-155.7668875583104
 21
-136.60284530272449
 31
0.0
  0
LINE
  8
DETAIL
  6
CONTINUOUS
 62
     5
 10
-155.7668875583104
 20
-136.60284530272449
 30
0.0
 11
-155.7573157155102
 21
-136.52394148772461
 31
0.0
  0
LINE
  8
DETAIL
  6
CONTINUOUS
 62
     5
 10
-155.7573157155102
 20
-136.52394148772461
 30
0.0
 11
-155.75158011850999
 21
-136.44101474432449
 31
0.0
  0
LINE
  8
DETAIL
  6
CONTINUOUS
 62
     5
 10
-155.75158011850999
 20
-136.44101474432449
 30
0.0
 11
-155.7495113663108
 21
-136.35293141612459
 31
0.0
  0
LINE
  8
DETAIL
  6
CONTINUOUS
 62
     5
 10
-151.0492917573101
 20
-135.35293141612459
 30
0.0
 11
-151.08977080831031
 21
-135.3654667201244
 31
0.0
  0
LINE
  8
DETAIL
  6
CONTINUOUS
 62
     5
 10
-151.08977080831031
 20
-135.3654667201244
 30
0.0
 11
-151.1292712407103
 21
-135.4018748997245
 31
0.0
  0
LINE
  8
DETAIL
  6
CONTINUOUS
 62
     5
 10
-151.1292712407103
 20
-135.4018748997245
 30
0.0
 11
-151.16676653891051
 21
-135.4621266445244
 31
0.0
  0
LINE
  8
DETAIL
  6
CONTINUOUS
 62
     5
 10
-151.16676653891051
 20
-135.4621266445244
 30
0.0
 11
-151.20142177511019
 21
-135.54391442172451
 31
0.0
  0
LINE
  8
DETAIL
  6
CONTINUOUS
 62
     5
 10
-151.20142177511019
 20
-135.54391442172451
 30
0.0
 11
-151.2322630193103
 21
-135.64598474672439
 31
0.0
  0
LINE
  8
DETAIL
  6
CONTINUOUS
 62
     5
 10
-151.2322630193103
 20
-135.64598474672439
 30
0.0
 11
-151.25868076331059
 21
-135.76514616372441
 31
0.0
  0
LINE
  8
DETAIL
  6
CONTINUOUS
 62
     5
 10
-151.25868076331059
 20
-135.76514616372441
 30
0.0
 11
-151.27255897691069
 21
-135.85293141612459
 31
0.0
  0
LINE
  8
DETAIL
  6
CONTINUOUS
 62
     5
 10
-151.0492917573101
 20
-136.85293141612459
 30
0.0
 11
-151.0290522319101
 21
-136.84666376412449
 31
0.0
  0
LINE
  8
DETAIL
  6
CONTINUOUS
 62
     5
 10
-151.0290522319101
 20
-136.84666376412449
 30
0.0
 11
-151.00930201571009
 21
-136.82845967432439
 31
0.0
  0
LINE
  8
DETAIL
  6
CONTINUOUS
 62
     5
 10
-151.00930201571009
 20
-136.82845967432439
 30
0.0
 11
-150.99055436671011
 21
-136.79833380192429
 31
0.0
  0
LINE
  8
DETAIL
  6
CONTINUOUS
 62
     5
 10
-150.99055436671011
 20
-136.79833380192429
 30
0.0
 11
-150.9732267485106
 21
-136.7574399133245
 31
0.0
  0
LINE
  8
DETAIL
  6
CONTINUOUS
 62
     5
 10
-150.9732267485106
 20
-136.7574399133245
 30
0.0
 11
-150.95780612651009
 21
-136.7064047507244
 31
0.0
  0
LINE
  8
DETAIL
  6
CONTINUOUS
 62
     5
 10
-150.95780612651009
 20
-136.7064047507244
 30
0.0
 11
-150.94459725431079
 21
-136.6468240423246
 31
0.0
  0
LINE
  8
DETAIL
  6
CONTINUOUS
 62
     5
 10
-150.94459725431079
 20
-136.6468240423246
 30
0.0
 11
-150.9340131373101
 21
-136.57987526692449
 31
0.0
  0
LINE
  8
DETAIL
  6
CONTINUOUS
 62
     5
 10
-150.9340131373101
 20
-136.57987526692449
 30
0.0
 11
-150.92621598771069
 21
-136.5074399133245
 31
0.0
  0
LINE
  8
DETAIL
  6
CONTINUOUS
 62
     5
 10
-150.92621598771069
 20
-136.5074399133245
 30
0.0
 11
-150.9215431721104
 21
-136.43207621072449
 31
0.0
  0
LINE
  8
DETAIL
  6
CONTINUOUS
 62
     5
 10
-150.9215431721104
 20
-136.43207621072449
 30
0.0
 11
-150.91988223490989
 21
-136.35293141612459
 31
0.0
  0
LINE
  8
DETAIL
  6
CONTINUOUS
 62
     5
 10
-151.0492917573101
 20
-137.35293141612459
 30
0.0
 11
-151.00881270631001
 21
-137.3403961121243
 31
0.0
  0
LINE
  8
DETAIL
  6
CONTINUOUS
 62
     5
 10
-151.00881270631001
 20
-137.3403961121243
 30
0.0
 11
-150.96931227390999
 21
-137.30398793232459
 31
0.0
  0
LINE
  8
DETAIL
  6
CONTINUOUS
 62
     5
 10
-150.96931227390999
 20
-137.30398793232459
 30
0.0
 11
-150.93181697591081
 21
-137.24373618752449
 31
0.0
  0
LINE
  8
DETAIL
  6
CONTINUOUS
 62
     5
 10
-150.93181697591081
 20
-137.24373618752449
 30
0.0
 11
-150.8971617397101
 21
-137.16194841052439
 31
0.0
  0
LINE
  8
DETAIL
  6
CONTINUOUS
 62
     5
 10
-150.8971617397101
 20
-137.16194841052439
 30
0.0
 11
-150.86632049551011
 21
-137.0598780855243
 31
0.0
  0
LINE
  8
DETAIL
  6
CONTINUOUS
 62
     5
 10
-150.86632049551011
 20
-137.0598780855243
 30
0.0
 11
-150.83990275151061
 21
-136.94071666832451
 31
0.0
  0
LINE
  8
DETAIL
  6
CONTINUOUS
 62
     5
 10
-150.83990275151061
 20
-136.94071666832451
 30
0.0
 11
-150.81873451710999
 21
-136.80681911772439
 31
0.0
  0
LINE
  8
DETAIL
  6
CONTINUOUS
 62
     5
 10
-150.81873451710999
 20
-136.80681911772439
 30
0.0
 11
-150.8031402179104
 21
-136.66194841052439
 31
0.0
  0
LINE
  8
DETAIL
  6
CONTINUOUS
 62
     5
 10
-150.8031402179104
 20
-136.66194841052439
 30
0.0
 11
-150.79379458671059
 21
-136.5112210053243
 31
0.0
  0
LINE
  8
DETAIL
  6
CONTINUOUS
 62
     5
 10
-150.79379458671059
 20
-136.5112210053243
 30
0.0
 11
-150.7904727123105
 21
-136.35293141612459
 31
0.0
  0
LINE
  8
DETAIL
  6
CONTINUOUS
 62
     5
 10
96.800001065164906
 20
-184.1000026648008
 30
0.0
 11
88.40000106516527
 21
-184.1000026648008
 31
0.0
  0
LINE
  8
DETAIL
  6
CONTINUOUS
 62
     5
 10
88.40000106516527
 20
-184.1000026648008
 30
0.0
 11
-3.7646227416207689
 21
-184.1000026648008
 31
0.0
  0
LINE
  8
DETAIL
  6
CONTINUOUS
 62
     5
 10
-6.3567725008206253
 20
-184.1000026648008
 30
0.0
 11
-20.060697621220239
 21
-184.1000026648008
 31
0.0
  0
LINE
  8
DETAIL
  6
CONTINUOUS
 62
     5
 10
-20.060697621220239
 20
-184.1000026648008
 30
0.0
 11
-28.460697621220788
 21
-184.1000026648008
 31
0.0
  0
LINE
  8
DETAIL
  6
CONTINUOUS
 62
     5
 10
-28.460697621220788
 20
-183.3000026648009
 30
0.0
 11
96.800001065164906
 21
-183.3000026648009
 31
0.0
  0
LINE
  8
DETAIL
  6
CONTINUOUS
 62
     5
 10
98.40000106516527
 20
-182.50000266480069
 30
0.0
 11
97.600001065165088
 21
-182.50000266480069
 31
0.0
  0
LINE
  8
DETAIL
  6
CONTINUOUS
 62
     5
 10
-30.060697621220239
 20
-182.50000266480069
 30
0.0
 11
-29.260697621220061
 21
-182.50000266480069
 31
0.0
  0
LINE
  8
DETAIL
  6
CONTINUOUS
 62
     5
 10
-36.260697621220061
 20
-181.70000266480071
 30
0.0
 11
-28.460697621220788
 21
-181.70000266480071
 31
0.0
  0
LINE
  8
DETAIL
  6
CONTINUOUS
 62
     5
 10
-28.460697621220788
 20
-181.70000266480071
 30
0.0
 11
96.800001065164906
 21
-181.70000266480071
 31
0.0
  0
LINE
  8
DETAIL
  6
CONTINUOUS
 62
     5
 10
96.800001065164906
 20
-181.70000266480071
 30
0.0
 11
104.6000010651651
 21
-181.70000266480071
 31
0.0
  0
LINE
  8
DETAIL
  6
CONTINUOUS
 62
     5
 10
-117.2418878373101
 20
-141.85138137612441
 30
0.0
 11
-117.44413338711
 21
-141.78456630472459
 31
0.0
  0
LINE
  8
DETAIL
  6
CONTINUOUS
 62
     5
 10
-117.44413338711
 20
-141.78456630472459
 30
0.0
 11
-117.64009659671051
 21
-141.5800916485245
 31
0.0
  0
LINE
  8
DETAIL
  6
CONTINUOUS
 62
     5
 10
-117.64009659671051
 20
-141.5800916485245
 30
0.0
 11
-117.8242306887105
 21
-141.25004573312449
 31
0.0
  0
LINE
  8
DETAIL
  6
CONTINUOUS
 62
     5
 10
-117.8242306887105
 20
-141.25004573312449
 30
0.0
 11
-117.99027550291071
 21
-140.79894401052451
 31
0.0
  0
LINE
  8
DETAIL
  6
CONTINUOUS
 62
     5
 10
-117.99027550291071
 20
-140.79894401052451
 30
0.0
 11
-118.1340888479108
 21
-140.24547565972441
 31
0.0
  0
LINE
  8
DETAIL
  6
CONTINUOUS
 62
     5
 10
-118.1340888479108
 20
-140.24547565972441
 30
0.0
 11
-118.2323967535103
 21
-139.70073893292459
 31
0.0
  0
LINE
  8
DETAIL
  6
CONTINUOUS
 62
     5
 10
-60.060697621220243
 20
-131.85378011252439
 30
0.0
 11
-60.060697621220243
 21
-142.8523153653245
 31
0.0
  0
LINE
  8
DETAIL
  6
CONTINUOUS
 62
     5
 10
-60.060697621220243
 20
-153.35293141612459
 30
0.0
 11
-60.060697621220243
 21
-142.90384488272451
 31
0.0
  0
LINE
  8
DETAIL
  6
CONTINUOUS
 62
     5
 10
-48.760697621220061
 20
-132.10293141612459
 30
0.0
 11
-48.760697621220061
 21
-142.60293141612459
 31
0.0
  0
LINE
  8
DETAIL
  6
CONTINUOUS
 62
     5
 10
-33.760697621220061
 20
-161.15293141612429
 30
0.0
 11
-30.760697621220061
 21
-161.15293141612429
 31
0.0
  0
LINE
  8
DETAIL
  6
CONTINUOUS
 62
     5
 10
-33.760697621220061
 20
-158.65293141612429
 30
0.0
 11
-38.260697621220061
 21
-158.65293141612429
 31
0.0
  0
LINE
  8
DETAIL
  6
CONTINUOUS
 62
     5
 10
-30.760697621220061
 20
-158.65293141612429
 30
0.0
 11
-30.060697621220239
 21
-158.65293141612429
 31
0.0
  0
LINE
  8
DETAIL
  6
CONTINUOUS
 62
     5
 10
-33.760697621220061
 20
-158.15293141612429
 30
0.0
 11
-30.760697621220061
 21
-158.15293141612429
 31
0.0
  0
LINE
  8
DETAIL
  6
CONTINUOUS
 62
     5
 10
-30.760697621220061
 20
-154.65293141612429
 30
0.0
 11
-30.060697621220239
 21
-154.65293141612429
 31
0.0
  0
LINE
  8
DETAIL
  6
CONTINUOUS
 62
     5
 10
-30.760697621220061
 20
-158.03955410092451
 30
0.0
 11
-31.057034566820221
 21
-158.02467905572431
 31
0.0
  0
LINE
  8
DETAIL
  6
CONTINUOUS
 62
     5
 10
-31.057034566820221
 20
-158.02467905572431
 30
0.0
 11
-31.34801644042
 21
-157.9808940221246
 31
0.0
  0
LINE
  8
DETAIL
  6
CONTINUOUS
 62
     5
 10
-31.34801644042
 20
-157.9808940221246
 30
0.0
 11
-31.635152899620149
 21
-157.90775177032441
 31
0.0
  0
LINE
  8
DETAIL
  6
CONTINUOUS
 62
     5
 10
-31.635152899620149
 20
-157.90775177032441
 30
0.0
 11
-31.913914971220041
 21
-157.80659398912431
 31
0.0
  0
LINE
  8
DETAIL
  6
CONTINUOUS
 62
     5
 10
-31.913914971220041
 20
-157.80659398912431
 30
0.0
 11
-32.181053213620537
 21
-157.6780263319244
 31
0.0
  0
LINE
  8
DETAIL
  6
CONTINUOUS
 62
     5
 10
-32.181053213620537
 20
-157.6780263319244
 30
0.0
 11
-32.434238689420447
 21
-157.52380967352451
 31
0.0
  0
LINE
  8
DETAIL
  6
CONTINUOUS
 62
     5
 10
-32.434238689420447
 20
-157.52380967352451
 30
0.0
 11
-32.67069457262005
 21
-157.3451998347245
 31
0.0
  0
LINE
  8
DETAIL
  6
CONTINUOUS
 62
     5
 10
-32.67069457262005
 20
-157.3451998347245
 30
0.0
 11
-32.888515086619918
 21
-157.14431763092441
 31
0.0
  0
LINE
  8
DETAIL
  6
CONTINUOUS
 62
     5
 10
-32.888515086619918
 20
-157.14431763092441
 30
0.0
 11
-33.085344023220387
 21
-156.9229189557245
 31
0.0
  0
LINE
  8
DETAIL
  6
CONTINUOUS
 62
     5
 10
-33.085344023220387
 20
-156.9229189557245
 30
0.0
 11
-33.259755850020163
 21
-156.6833543951245
 31
0.0
  0
LINE
  8
DETAIL
  6
CONTINUOUS
 62
     5
 10
-33.259755850020163
 20
-156.6833543951245
 30
0.0
 11
-33.409863796220627
 21
-156.42773045772441
 31
0.0
  0
LINE
  8
DETAIL
  6
CONTINUOUS
 62
     5
 10
-33.409863796220627
 20
-156.42773045772441
 30
0.0
 11
-33.534695368420223
 21
-156.1585352675244
 31
0.0
  0
LINE
  8
DETAIL
  6
CONTINUOUS
 62
     5
 10
-33.534695368420223
 20
-156.1585352675244
 30
0.0
 11
-33.632833193420083
 21
-155.87801082932441
 31
0.0
  0
LINE
  8
DETAIL
  6
CONTINUOUS
 62
     5
 10
-33.632833193420083
 20
-155.87801082932441
 30
0.0
 11
-33.703725139220303
 21
-155.5890020089245
 31
0.0
  0
LINE
  8
DETAIL
  6
CONTINUOUS
 62
     5
 10
-33.703725139220303
 20
-155.5890020089245
 30
0.0
 11
-33.746218541220507
 21
-155.2955500325244
 31
0.0
  0
LINE
  8
DETAIL
  6
CONTINUOUS
 62
     5
 10
-33.746218541220507
 20
-155.2955500325244
 30
0.0
 11
-33.760697621220061
 21
-154.99630782432439
 31
0.0
  0
LINE
  8
DETAIL
  6
CONTINUOUS
 62
     5
 10
-117.2418878373101
 20
-132.8544814561246
 30
0.0
 11
-117.03964228731
 21
-132.92129652752459
 31
0.0
  0
LINE
  8
DETAIL
  6
CONTINUOUS
 62
     5
 10
-117.03964228731
 20
-132.92129652752459
 30
0.0
 11
-116.8436790777105
 21
-133.12577118372451
 31
0.0
  0
LINE
  8
DETAIL
  6
CONTINUOUS
 62
     5
 10
-116.8436790777105
 20
-133.12577118372451
 30
0.0
 11
-116.6595449857105
 21
-133.4558170991244
 31
0.0
  0
LINE
  8
DETAIL
  6
CONTINUOUS
 62
     5
 10
-116.6595449857105
 20
-133.4558170991244
 30
0.0
 11
-116.49350017171039
 21
-133.90691882152441
 31
0.0
  0
LINE
  8
DETAIL
  6
CONTINUOUS
 62
     5
 10
-116.49350017171039
 20
-133.90691882152441
 30
0.0
 11
-116.34968682651019
 21
-134.46038717252429
 31
0.0
  0
LINE
  8
DETAIL
  6
CONTINUOUS
 62
     5
 10
-116.34968682651019
 20
-134.46038717252429
 30
0.0
 11
-116.2335878631102
 21
-135.10370643612441
 31
0.0
  0
LINE
  8
DETAIL
  6
CONTINUOUS
 62
     5
 10
-116.2335878631102
 20
-135.10370643612441
 30
0.0
 11
-116.1474412767102
 21
-135.8138407711244
 31
0.0
  0
LINE
  8
DETAIL
  6
CONTINUOUS
 62
     5
 10
-116.1474412767102
 20
-135.8138407711244
 30
0.0
 11
-116.09582090451021
 21
-136.56018146292439
 31
0.0
  0
LINE
  8
DETAIL
  6
CONTINUOUS
 62
     5
 10
-116.09582090451021
 20
-136.56018146292439
 30
0.0
 11
-116.07720213431
 21
-137.35293141612459
 31
0.0
  0
LINE
  8
DETAIL
  6
CONTINUOUS
 62
     5
 10
-103.9140321907107
 20
-132.85866123272439
 30
0.0
 11
-103.7418878373101
 21
-132.9384129757245
 31
0.0
  0
LINE
  8
DETAIL
  6
CONTINUOUS
 62
     5
 10
-66.651687878820667
 20
-147.26194115852439
 30
0.0
 11
-63.469707315820408
 21
-150.44392172152439
 31
0.0
  0
LINE
  8
DETAIL
  6
CONTINUOUS
 62
     5
 10
-6.6516878788206668
 20
-187.00901240720091
 30
0.0
 11
-3.4697073158204148
 21
-190.19099297020091
 31
0.0
  0
LINE
  8
DETAIL
  6
CONTINUOUS
 62
     5
 10
-39.260697621220061
 20
-108.70000266480071
 30
0.0
 11
-39.260697621220061
 21
-117.1000026648006
 31
0.0
  0
LINE
  8
DETAIL
  6
CONTINUOUS
 62
     5
 10
-39.260697621220061
 20
-159.65293141612429
 30
0.0
 11
-39.260697621220061
 21
-178.70000266480071
 31
0.0
  0
LINE
  8
DETAIL
  6
CONTINUOUS
 62
     5
 10
-33.760697621220061
 20
-161.15293141612429
 30
0.0
 11
-33.760697621220061
 21
-115.6000026648006
 31
0.0
  0
LINE
  8
DETAIL
  6
CONTINUOUS
 62
     5
 10
-30.860697621220421
 20
-181.70000266480071
 30
0.0
 11
-30.860697621220421
 21
-161.15293141612429
 31
0.0
  0
LINE
  8
DETAIL
  6
CONTINUOUS
 62
     5
 10
-30.860697621220421
 20
-115.6000026648006
 30
0.0
 11
-30.860697621220421
 21
-105.70000266480071
 31
0.0
  0
LINE
  8
DETAIL
  6
CONTINUOUS
 62
     5
 10
-30.760697621220061
 20
-161.15293141612429
 30
0.0
 11
-30.760697621220061
 21
-115.6000026648006
 31
0.0
  0
LINE
  8
DETAIL
  6
CONTINUOUS
 62
     5
 10
-30.060697621220239
 20
-104.90000266480079
 30
0.0
 11
-30.060697621220239
 21
-182.50000266480069
 31
0.0
  0
LINE
  8
DETAIL
  6
CONTINUOUS
 62
     5
 10
-29.260697621220061
 20
-104.90000266480079
 30
0.0
 11
-29.260697621220061
 21
-105.70000266480071
 31
0.0
  0
LINE
  8
DETAIL
  6
CONTINUOUS
 62
     5
 10
-29.260697621220061
 20
-181.70000266480071
 30
0.0
 11
-29.260697621220061
 21
-182.50000266480069
 31
0.0
  0
LINE
  8
DETAIL
  6
CONTINUOUS
 62
     5
 10
-28.460697621220788
 20
-103.3000026648009
 30
0.0
 11
-28.460697621220788
 21
-104.1000026648006
 31
0.0
  0
LINE
  8
DETAIL
  6
CONTINUOUS
 62
     5
 10
-28.460697621220788
 20
-105.70000266480071
 30
0.0
 11
-28.460697621220788
 21
-181.70000266480071
 31
0.0
  0
LINE
  8
DETAIL
  6
CONTINUOUS
 62
     5
 10
-28.460697621220788
 20
-181.70000266480071
 30
0.0
 11
-28.460697621220788
 21
-183.3000026648009
 31
0.0
  0
LINE
  8
DETAIL
  6
CONTINUOUS
 62
     5
 10
-28.460697621220788
 20
-184.1000026648008
 30
0.0
 11
-28.460697621220788
 21
-189.50000266480069
 31
0.0
  0
LINE
  8
DETAIL
  6
CONTINUOUS
 62
     5
 10
-28.460697621220788
 20
-184.1000026648008
 30
0.0
 11
-28.460697621220788
 21
-183.3000026648009
 31
0.0
  0
LINE
  8
DETAIL
  6
CONTINUOUS
 62
     5
 10
-28.460697621220788
 20
-105.70000266480071
 30
0.0
 11
-28.460697621220788
 21
-104.1000026648006
 31
0.0
  0
LINE
  8
DETAIL
  6
CONTINUOUS
 62
     5
 10
-28.460697621220788
 20
-103.3000026648009
 30
0.0
 11
-28.460697621220788
 21
-97.90000266480078
 31
0.0
  0
LINE
  8
DETAIL
  6
CONTINUOUS
 62
     5
 10
-33.760697621220061
 20
-131.1095550079244
 30
0.0
 11
-33.746208664219921
 21
-121.45700307140061
 31
0.0
  0
LINE
  8
DETAIL
  6
CONTINUOUS
 62
     5
 10
-33.746208664219921
 20
-121.45700307140061
 30
0.0
 11
-33.703547621420512
 21
-121.1630194442008
 31
0.0
  0
LINE
  8
DETAIL
  6
CONTINUOUS
 62
     5
 10
-33.703547621420512
 20
-121.1630194442008
 30
0.0
 11
-33.632325004220547
 21
-120.8732671698006
 31
0.0
  0
LINE
  8
DETAIL
  6
CONTINUOUS
 62
     5
 10
-33.632325004220547
 20
-120.8732671698006
 30
0.0
 11
-33.533709277220623
 21
-120.5919708640007
 31
0.0
  0
LINE
  8
DETAIL
  6
CONTINUOUS
 62
     5
 10
-33.533709277220623
 20
-120.5919708640007
 30
0.0
 11
-33.408219637420189
 21
-120.3221081568007
 31
0.0
  0
LINE
  8
DETAIL
  6
CONTINUOUS
 62
     5
 10
-33.408219637420189
 20
-120.3221081568007
 30
0.0
 11
-33.257414397420689
 21
-120.06601180080069
 31
0.0
  0
LINE
  8
DETAIL
  6
CONTINUOUS
 62
     5
 10
-33.257414397420689
 20
-120.06601180080069
 30
0.0
 11
-33.082360415820403
 21
-119.82632807780089
 31
0.0
  0
LINE
  8
DETAIL
  6
CONTINUOUS
 62
     5
 10
-33.082360415820403
 20
-119.82632807780089
 30
0.0
 11
-32.885051250220393
 21
-119.6050940322008
 31
0.0
  0
LINE
  8
DETAIL
  6
CONTINUOUS
 62
     5
 10
-32.885051250220393
 20
-119.6050940322008
 30
0.0
 11
-32.667060067420607
 21
-119.40469330180061
 31
0.0
  0
LINE
  8
DETAIL
  6
CONTINUOUS
 62
     5
 10
-32.667060067420607
 20
-119.40469330180061
 30
0.0
 11
-32.430714900420753
 21
-119.2267323890008
 31
0.0
  0
LINE
  8
DETAIL
  6
CONTINUOUS
 62
     5
 10
-32.430714900420753
 20
-119.2267323890008
 30
0.0
 11
-32.177995851420746
 21
-119.07322718280069
 31
0.0
  0
LINE
  8
DETAIL
  6
CONTINUOUS
 62
     5
 10
-32.177995851420746
 20
-119.07322718280069
 30
0.0
 11
-31.911519881420649
 21
-118.9453331618007
 31
0.0
  0
LINE
  8
DETAIL
  6
CONTINUOUS
 62
     5
 10
-31.911519881420649
 20
-118.9453331618007
 30
0.0
 11
-31.633526243620508
 21
-118.84466469360071
 31
0.0
  0
LINE
  8
DETAIL
  6
CONTINUOUS
 62
     5
 10
-31.633526243620508
 20
-118.84466469360071
 30
0.0
 11
-31.34712816502088
 21
-118.7718610012008
 31
0.0
  0
LINE
  8
DETAIL
  6
CONTINUOUS
 62
     5
 10
-31.34712816502088
 20
-118.7718610012008
 30
0.0
 11
-31.056667746620409
 21
-118.7282465982008
 31
0.0
  0
LINE
  8
DETAIL
  6
CONTINUOUS
 62
     5
 10
-31.056667746620409
 20
-118.7282465982008
 30
0.0
 11
-30.760697621220061
 21
-118.7133799800007
 31
0.0
  0
LINE
  8
DETAIL
  6
CONTINUOUS
 62
     5
 10
-66.651687878820667
 20
-150.44392167372459
 30
0.0
 11
-63.469707315820408
 21
-147.26194111072431
 31
0.0
  0
LINE
  8
DETAIL
  6
CONTINUOUS
 62
     5
 10
-103.7418878373101
 20
-141.76744985652451
 30
0.0
 11
-103.9140321907107
 21
-141.84720159952431
 31
0.0
  0
LINE
  8
DETAIL
  6
CONTINUOUS
 62
     5
 10
-103.9140321907107
 20
-141.84720159952431
 30
0.0
 11
-103.9678219973102
 21
-141.8523832165244
 31
0.0
  0
LINE
  8
DETAIL
  6
CONTINUOUS
 62
     5
 10
-70.060697621220243
 20
-153.35293141612459
 30
0.0
 11
-66.356772500820625
 21
-153.35293141612459
 31
0.0
  0
LINE
  8
DETAIL
  6
CONTINUOUS
 62
     5
 10
-63.764622741620769
 20
-153.35293141612459
 30
0.0
 11
-60.060697621220243
 21
-153.35293141612459
 31
0.0
  0
LINE
  8
DETAIL
  6
CONTINUOUS
 62
     5
 10
-60.060697621220243
 20
-144.73940554112451
 30
0.0
 11
-62.803354210420373
 21
-144.73940554112451
 31
0.0
  0
LINE
  8
DETAIL
  6
CONTINUOUS
 62
     5
 10
-67.31804103182003
 20
-144.73940554112451
 30
0.0
 11
-70.060697621220243
 21
-144.73940554112451
 31
0.0
  0
LINE
  8
DETAIL
  6
CONTINUOUS
 62
     5
 10
-70.060697621220243
 20
-142.85293141612459
 30
0.0
 11
-60.060697621220243
 21
-142.85293141612459
 31
0.0
  0
LINE
  8
DETAIL
  6
CONTINUOUS
 62
     5
 10
-103.7418878373101
 20
-142.60293141612459
 30
0.0
 11
-70.060697621220243
 21
-142.60293141612459
 31
0.0
  0
LINE
  8
DETAIL
  6
CONTINUOUS
 62
     5
 10
-60.060697621220243
 20
-142.60293141612459
 30
0.0
 11
-48.760697621220061
 21
-142.60293141612459
 31
0.0
  0
LINE
  8
DETAIL
  6
CONTINUOUS
 62
     5
 10
-117.2418878373101
 20
-141.85293141612459
 30
0.0
 11
-108.18990489631049
 21
-141.85293141612459
 31
0.0
  0
LINE
  8
DETAIL
  6
CONTINUOUS
 62
     5
 10
-105.40110761605889
 20
-141.85293141612459
 30
0.0
 11
-103.9678217341107
 21
-141.85293141612459
 31
0.0
  0
LINE
  8
DETAIL
  6
CONTINUOUS
 62
     5
 10
-48.760697621220061
 20
-141.69959763432459
 30
0.0
 11
-33.760697621220061
 21
-141.69959763432459
 31
0.0
  0
LINE
  8
DETAIL
  6
CONTINUOUS
 62
     5
 10
-117.2418878373101
 20
-137.35293141612459
 30
0.0
 11
-151.0492917573101
 21
-137.35293141612459
 31
0.0
  0
LINE
  8
DETAIL
  6
CONTINUOUS
 62
     5
 10
-151.0492917573101
 20
-136.85293141612459
 30
0.0
 11
-155.87892088891019
 21
-136.85293141612459
 31
0.0
  0
LINE
  8
DETAIL
  6
CONTINUOUS
 62
     5
 10
-151.0492917573101
 20
-135.85293141612459
 30
0.0
 11
-155.87892088891019
 21
-135.85293141612459
 31
0.0
  0
LINE
  8
DETAIL
  6
CONTINUOUS
 62
     5
 10
-117.2418878373101
 20
-135.35293141612459
 30
0.0
 11
-151.0492917573101
 21
-135.35293141612459
 31
0.0
  0
LINE
  8
DETAIL
  6
CONTINUOUS
 62
     5
 10
-48.760697621220061
 20
-133.0062651977245
 30
0.0
 11
-33.760697621220061
 21
-133.0062651977245
 31
0.0
  0
LINE
  8
DETAIL
  6
CONTINUOUS
 62
     5
 10
-117.2418878373101
 20
-132.85293141612459
 30
0.0
 11
-110.1714403437862
 21
-132.85293141612459
 31
0.0
  0
LINE
  8
DETAIL
  6
CONTINUOUS
 62
     5
 10
-107.4039786841867
 20
-132.85293141612459
 30
0.0
 11
-103.9678217341107
 21
-132.85293141612459
 31
0.0
  0
LINE
  8
DETAIL
  6
CONTINUOUS
 62
     5
 10
-103.7418878373101
 20
-132.10293141612459
 30
0.0
 11
-70.060697621220243
 21
-132.10293141612459
 31
0.0
  0
LINE
  8
DETAIL
  6
CONTINUOUS
 62
     5
 10
-60.060697621220243
 20
-132.10293141612459
 30
0.0
 11
-48.760697621220061
 21
-132.10293141612459
 31
0.0
  0
LINE
  8
DETAIL
  6
CONTINUOUS
 62
     5
 10
-103.9678219973102
 20
-132.85347961572461
 30
0.0
 11
-103.9140321907107
 21
-132.85866123272439
 31
0.0
  0
LINE
  8
DETAIL
  6
CONTINUOUS
 62
     5
 10
-21.7928428360201
 20
-183.3000026648009
 30
0.0
 11
-21.7928428360201
 21
-184.1000026648008
 31
0.0
  0
LINE
  8
DETAIL
  6
CONTINUOUS
 62
     5
 10
-21.7928428360201
 20
-104.1000026648006
 30
0.0
 11
-21.7928428360201
 21
-103.3000026648009
 31
0.0
  0
LINE
  8
DETAIL
  6
CONTINUOUS
 62
     5
 10
-20.060697621220239
 20
-183.3000026648009
 30
0.0
 11
-20.060697621220239
 21
-184.1000026648008
 31
0.0
  0
LINE
  8
DETAIL
  6
CONTINUOUS
 62
     5
 10
-20.060697621220239
 20
-104.1000026648006
 30
0.0
 11
-20.060697621220239
 21
-103.3000026648009
 31
0.0
  0
LINE
  8
DETAIL
  6
CONTINUOUS
 62
     5
 10
-149.39733240351049
 20
-148.3434496473246
 30
0.0
 11
-149.3801358731107
 21
-148.34073735392431
 31
0.0
  0
LINE
  8
DETAIL
  6
CONTINUOUS
 62
     5
 10
-149.89733240351049
 20
-146.41159799472459
 30
0.0
 11
-149.91452893371019
 21
-146.41431028812431
 31
0.0
  0
LINE
  8
DETAIL
  6
CONTINUOUS
 62
     5
 10
-70.060697621220243
 20
-131.85293141612459
 30
0.0
 11
-60.060697621220243
 21
-131.85293141612459
 31
0.0
  0
LINE
  8
DETAIL
  6
CONTINUOUS
 62
     5
 10
-30.760697621220061
 20
-131.4529314161243
 30
0.0
 11
-30.060697621220239
 21
-131.4529314161243
 31
0.0
  0
LINE
  8
DETAIL
  6
CONTINUOUS
 62
     5
 10
-33.760697621220061
 20
-118.6000026648006
 30
0.0
 11
-30.760697621220061
 21
-118.6000026648006
 31
0.0
  0
LINE
  8
DETAIL
  6
CONTINUOUS
 62
     5
 10
-33.760697621220061
 20
-118.1000026648006
 30
0.0
 11
-38.260697621220061
 21
-118.1000026648006
 31
0.0
  0
LINE
  8
DETAIL
  6
CONTINUOUS
 62
     5
 10
-30.760697621220061
 20
-118.1000026648006
 30
0.0
 11
-30.060697621220239
 21
-118.1000026648006
 31
0.0
  0
LINE
  8
DETAIL
  6
CONTINUOUS
 62
     5
 10
-33.760697621220061
 20
-115.6000026648006
 30
0.0
 11
-30.760697621220061
 21
-115.6000026648006
 31
0.0
  0
LINE
  8
DETAIL
  6
CONTINUOUS
 62
     5
 10
-117.22398165291089
 20
-139.4210031555244
 30
0.0
 11
-149.38002524311011
 21
-148.34113519592429
 31
0.0
  0
LINE
  8
DETAIL
  6
CONTINUOUS
 62
     5
 10
-149.5136788233103
 20
-147.8593295085245
 30
0.0
 11
-154.1787423327105
 21
-149.15342473392451
 31
0.0
  0
LINE
  8
DETAIL
  6
CONTINUOUS
 62
     5
 10
-149.78098598371071
 20
-146.89571813352441
 30
0.0
 11
-154.44604949311
 21
-148.18981335892451
 31
0.0
  0
LINE
  8
DETAIL
  6
CONTINUOUS
 62
     5
 10
-117.25979402171011
 20
-137.35541203752439
 30
0.0
 11
-149.8979728971108
 21
-146.40928908912451
 31
0.0
  0
LINE
  8
DETAIL
  6
CONTINUOUS
 62
     5
 10
-117.2418878373101
 20
-137.35293141612459
 30
0.0
 11
-117.20784516331059
 21
-137.34413527872439
 31
0.0
  0
LINE
  8
DETAIL
  6
CONTINUOUS
 62
     5
 10
96.800001065164906
 20
-105.70000266480071
 30
0.0
 11
-28.460697621220788
 21
-105.70000266480071
 31
0.0
  0
LINE
  8
DETAIL
  6
CONTINUOUS
 62
     5
 10
-36.260697621220061
 20
-105.70000266480071
 30
0.0
 11
-28.460697621220788
 21
-105.70000266480071
 31
0.0
  0
LINE
  8
DETAIL
  6
CONTINUOUS
 62
     5
 10
96.800001065164906
 20
-105.70000266480071
 30
0.0
 11
104.6000010651651
 21
-105.70000266480071
 31
0.0
  0
LINE
  8
DETAIL
  6
CONTINUOUS
 62
     5
 10
98.40000106516527
 20
-104.90000266480079
 30
0.0
 11
97.600001065165088
 21
-104.90000266480079
 31
0.0
  0
LINE
  8
DETAIL
  6
CONTINUOUS
 62
     5
 10
-30.060697621220239
 20
-104.90000266480079
 30
0.0
 11
-29.260697621220061
 21
-104.90000266480079
 31
0.0
  0
LINE
  8
DETAIL
  6
CONTINUOUS
 62
     5
 10
96.800001065164906
 20
-104.1000026648006
 30
0.0
 11
-28.460697621220788
 21
-104.1000026648006
 31
0.0
  0
LINE
  8
DETAIL
  6
CONTINUOUS
 62
     5
 10
88.40000106516527
 20
-103.3000026648009
 30
0.0
 11
74.696075944765653
 21
-103.3000026648009
 31
0.0
  0
LINE
  8
DETAIL
  6
CONTINUOUS
 62
     5
 10
72.103926185564887
 20
-103.3000026648009
 30
0.0
 11
-20.060697621220239
 21
-103.3000026648009
 31
0.0
  0
LINE
  8
DETAIL
  6
CONTINUOUS
 62
     5
 10
-28.460697621220788
 20
-103.3000026648009
 30
0.0
 11
-20.060697621220239
 21
-103.3000026648009
 31
0.0
  0
LINE
  8
DETAIL
  6
CONTINUOUS
 62
     5
 10
88.40000106516527
 20
-103.3000026648009
 30
0.0
 11
96.800001065164906
 21
-103.3000026648009
 31
0.0
  0
LINE
  8
DETAIL
  6
CONTINUOUS
 62
     5
 10
-25.460697621220788
 20
-94.90000266480078
 30
0.0
 11
70.806759756765132
 21
-94.90000266480078
 31
0.0
  0
LINE
  8
DETAIL
  6
CONTINUOUS
 62
     5
 10
75.993242373765497
 20
-94.90000266480078
 30
0.0
 11
93.800001065164906
 21
-94.90000266480078
 31
0.0
  0
LINE
  8
DETAIL
  6
CONTINUOUS
 62
     5
 10
71.809010807564846
 20
-100.3909929224008
 30
0.0
 11
74.990991370565098
 21
-97.209012359400617
 31
0.0
  0
LINE
  8
DETAIL
  6
CONTINUOUS
 62
     5
 10
-6.6516878788206668
 20
-190.1909929224008
 30
0.0
 11
-3.4697073158204148
 21
-187.0090123594008
 31
0.0
  0
LINE
  8
DETAIL
  6
CONTINUOUS
 62
     5
 10
71.809010807564846
 20
-97.209012407200674
 30
0.0
 11
74.990991370565098
 21
-100.3909929702007
 31
0.0
  0
LINE
  8
DETAIL
  6
CONTINUOUS
 62
     5
 10
88.40000106516527
 20
-183.3000026648009
 30
0.0
 11
88.40000106516527
 21
-184.1000026648008
 31
0.0
  0
LINE
  8
DETAIL
  6
CONTINUOUS
 62
     5
 10
88.40000106516527
 20
-104.1000026648006
 30
0.0
 11
88.40000106516527
 21
-103.3000026648009
 31
0.0
  0
LINE
  8
DETAIL
  6
CONTINUOUS
 62
     5
 10
90.132146279965127
 20
-183.3000026648009
 30
0.0
 11
90.132146279965127
 21
-184.1000026648008
 31
0.0
  0
LINE
  8
DETAIL
  6
CONTINUOUS
 62
     5
 10
90.132146279965127
 20
-104.1000026648006
 30
0.0
 11
90.132146279965127
 21
-103.3000026648009
 31
0.0
  0
LINE
  8
DETAIL
  6
CONTINUOUS
 62
     5
 10
96.800001065164906
 20
-97.90000266480078
 30
0.0
 11
96.800001065164906
 21
-103.3000026648009
 31
0.0
  0
LINE
  8
DETAIL
  6
CONTINUOUS
 62
     5
 10
96.800001065164906
 20
-103.3000026648009
 30
0.0
 11
96.800001065164906
 21
-104.1000026648006
 31
0.0
  0
LINE
  8
DETAIL
  6
CONTINUOUS
 62
     5
 10
96.800001065164906
 20
-181.70000266480071
 30
0.0
 11
96.800001065164906
 21
-183.3000026648009
 31
0.0
  0
LINE
  8
DETAIL
  6
CONTINUOUS
 62
     5
 10
96.800001065164906
 20
-189.50000266480069
 30
0.0
 11
96.800001065164906
 21
-184.1000026648008
 31
0.0
  0
LINE
  8
DETAIL
  6
CONTINUOUS
 62
     5
 10
96.800001065164906
 20
-184.1000026648008
 30
0.0
 11
96.800001065164906
 21
-183.3000026648009
 31
0.0
  0
LINE
  8
DETAIL
  6
CONTINUOUS
 62
     5
 10
96.800001065164906
 20
-181.70000266480071
 30
0.0
 11
96.800001065164906
 21
-105.70000266480071
 31
0.0
  0
LINE
  8
DETAIL
  6
CONTINUOUS
 62
     5
 10
96.800001065164906
 20
-105.70000266480071
 30
0.0
 11
96.800001065164906
 21
-104.1000026648006
 31
0.0
  0
LINE
  8
DETAIL
  6
CONTINUOUS
 62
     5
 10
97.600001065165088
 20
-182.50000266480069
 30
0.0
 11
97.600001065165088
 21
-181.70000266480071
 31
0.0
  0
LINE
  8
DETAIL
  6
CONTINUOUS
 62
     5
 10
97.600001065165088
 20
-105.70000266480071
 30
0.0
 11
97.600001065165088
 21
-104.90000266480079
 31
0.0
  0
LINE
  8
DETAIL
  6
CONTINUOUS
 62
     5
 10
98.40000106516527
 20
-182.50000266480069
 30
0.0
 11
98.40000106516527
 21
-104.90000266480079
 31
0.0
  0
LINE
  8
DETAIL
  6
CONTINUOUS
 62
     5
 10
99.200001065165452
 20
-181.70000266480071
 30
0.0
 11
99.200001065165452
 21
-105.70000266480071
 31
0.0
  0
LINE
  8
DETAIL
  6
CONTINUOUS
 62
     5
 10
107.6000010651651
 20
-108.70000266480071
 30
0.0
 11
107.6000010651651
 21
-178.70000266480071
 31
0.0
  0
ARC
  8
DETAIL
  6
CONTINUOUS
 62
     5
 10
-95.511615539193713
 20
-132.874819184514
 30
0.0
 40
11.892383287078809
 50
156.2454830851415
 51
203.7545169148585
  0
ARC
  8
DETAIL
  6
CONTINUOUS
 62
     5
 10
-98.279077198793289
 20
-132.874819184514
 30
0.0
 40
11.892383287078809
 50
156.2454830851415
 51
203.7545169148585
  0
ARC
  8
DETAIL
  6
CONTINUOUS
 62
     5
 10
-112.9092232474725
 20
-141.42543343532449
 30
0.0
 40
7.5202762488000001
 50
330.00000000000762
 51
29.999999999992461
  0
ARC
  8
DETAIL
  6
CONTINUOUS
 62
     5
 10
-115.676684907072
 20
-141.42543343532449
 30
0.0
 40
7.5202762488000001
 50
330.00000000000762
 51
29.999999999992461
  0
CIRCLE
  8
DETAIL
  6
CONTINUOUS
 62
     5
 10
-65.060697621220243
 20
-148.85293141612459
 30
0.0
 40
4.7000000000000002
  0
CIRCLE
  8
DETAIL
  6
CONTINUOUS
 62
     5
 10
-5.0606976212202426
 20
-188.6000026648008
 30
0.0
 40
4.7000000000000002
  0
ARC
  8
DETAIL
  6
CONTINUOUS
 62
     5
 10
-36.260697621220061
 20
-178.70000266480071
 30
0.0
 40
3.0
 50
180.0
 51
270.0
  0
ARC
  8
DETAIL
  6
CONTINUOUS
 62
     5
 10
-25.460697621220788
 20
-189.50000266480069
 30
0.0
 40
3.0
 50
180.0
 51
270.0
  0
ARC
  8
DETAIL
  6
CONTINUOUS
 62
     5
 10
-28.460697621220788
 20
-182.50000266480069
 30
0.0
 40
1.6000000000000001
 50
180.0
 51
270.0
  0
ARC
  8
DETAIL
  6
CONTINUOUS
 62
     5
 10
-28.460697621220788
 20
-182.50000266480069
 30
0.0
 40
0.8
 50
180.0
 51
270.0
  0
ARC
  8
DETAIL
  6
CONTINUOUS
 62
     5
 10
-30.760697621220061
 20
-155.15293141612429
 30
0.0
 40
3.0
 50
180.0
 51
270.0
  0
ARC
  8
DETAIL
  6
CONTINUOUS
 62
     5
 10
-10.34865825445149
 20
-130.0979676678551
 30
0.0
 40
23.427645001620959
 50
150.60773028737529
 51
182.0914050100474
  0
ARC
  8
DETAIL
  6
CONTINUOUS
 62
     5
 10
-38.260697621220061
 20
-117.1000026648006
 30
0.0
 40
1.0
 50
180.0
 51
270.0
  0
ARC
  8
DETAIL
  6
CONTINUOUS
 62
     5
 10
-38.260697621220061
 20
-159.65293141612429
 30
0.0
 40
1.0
 50
90.0
 51
180.0
  0
ARC
  8
DETAIL
  6
CONTINUOUS
 62
     5
 10
93.800001065164906
 20
-189.50000266480069
 30
0.0
 40
3.0
 50
270.0
 51
0.0
  0
ARC
  8
DETAIL
  6
CONTINUOUS
 62
     5
 10
104.6000010651651
 20
-178.70000266480071
 30
0.0
 40
3.0
 50
270.0
 51
0.0
  0
ARC
  8
DETAIL
  6
CONTINUOUS
 62
     5
 10
96.800001065164906
 20
-182.50000266480069
 30
0.0
 40
1.6000000000000001
 50
270.0
 51
0.0
  0
ARC
  8
DETAIL
  6
CONTINUOUS
 62
     5
 10
96.800001065164906
 20
-182.50000266480069
 30
0.0
 40
0.8
 50
270.0
 51
0.0
  0
ARC
  8
DETAIL
  6
CONTINUOUS
 62
     5
 10
-36.260697621220061
 20
-108.70000266480071
 30
0.0
 40
3.0
 50
90.0
 51
180.0
  0
ARC
  8
DETAIL
  6
CONTINUOUS
 62
     5
 10
-25.460697621220788
 20
-97.90000266480078
 30
0.0
 40
3.0
 50
90.0
 51
180.0
  0
ARC
  8
DETAIL
  6
CONTINUOUS
 62
     5
 10
-28.460697621220788
 20
-104.90000266480079
 30
0.0
 40
1.6000000000000001
 50
90.0
 51
180.0
  0
ARC
  8
DETAIL
  6
CONTINUOUS
 62
     5
 10
-28.460697621220788
 20
-104.90000266480079
 30
0.0
 40
0.8
 50
90.0
 51
180.0
  0
CIRCLE
  8
DETAIL
  6
CONTINUOUS
 62
     5
 10
73.40000106516527
 20
-98.800002664800871
 30
0.0
 40
4.7000000000000002
  0
ARC
  8
DETAIL
  6
CONTINUOUS
 62
     5
 10
93.800001065164906
 20
-97.90000266480078
 30
0.0
 40
3.0
 50
0.0
 51
90.0
  0
ARC
  8
DETAIL
  6
CONTINUOUS
 62
     5
 10
104.6000010651651
 20
-108.70000266480071
 30
0.0
 40
3.0
 50
0.0
 51
90.0
  0
ARC
  8
DETAIL
  6
CONTINUOUS
 62
     5
 10
96.800001065164906
 20
-104.90000266480079
 30
0.0
 40
1.6000000000000001
 50
0.0
 51
90.0
  0
ARC
  8
DETAIL
  6
CONTINUOUS
 62
     5
 10
96.800001065164906
 20
-104.90000266480079
 30
0.0
 40
0.8
 50
0.0
 51
90.0
  0
ARC
  8
DETAIL
  6
CONTINUOUS
 62
     5
 10
-117.3122220518708
 20
-139.24195881787031
 30
0.0
 40
0.1996077194951409
 50
296.2359658024584
 51
338.78617905499988
  0
ARC
  8
DETAIL
  6
CONTINUOUS
 62
     5
 10
-118.0193619154537
 20
-138.89573723105971
 30
0.0
 40
0.9863795475335426
 50
334.89821057145849
 51
346.84292129999102
  0
ARC
  8
DETAIL
  6
CONTINUOUS
 62
     5
 10
-119.3068389275878
 20
-138.5762996453129
 30
0.0
 40
2.312840751592895
 50
346.39713270451767
 51
353.17385308377942
  0
ARC
  8
DETAIL
  6
CONTINUOUS
 62
     5
 10
-120.77528231118841
 20
-138.39670364185761
 30
0.0
 40
3.792223036202925
 50
353.11662112257221
 51
0.1283647988844059
  0
ARC
  8
DETAIL
  6
CONTINUOUS
 62
     5
 10
-120.77528231118841
 20
-138.37971155119141
 30
0.0
 40
3.7922230362029268
 50
359.87163520111562
 51
6.8833788774278091
  0
ARC
  8
DETAIL
  6
CONTINUOUS
 62
     5
 10
-119.3068389275878
 20
-138.20011554773609
 30
0.0
 40
2.3128407515928981
 50
6.8261469162206048
 51
13.60286729548228
  0
ARC
  8
DETAIL
  6
CONTINUOUS
 62
     5
 10
-118.0193619154537
 20
-137.88067796198939
 30
0.0
 40
0.9863795475335424
 50
13.157078700009061
 51
25.10178942854148
  0
ARC
  8
DETAIL
  6
CONTINUOUS
 62
     5
 10
-117.2870579970819
 20
-137.51670511979091
 30
0.0
 40
0.169888696935396
 50
18.702907555981142
 51
74.580697371740484
  0
LINE
  8
DETAIL
  6
CONTINUOUS
 62
     5
 39
50.0
 10
-116.5
 20
-141.83936297531821
 30
0.0
 11
-116.5
 21
-225.0
 31
0.0
  0
LINE
  8
SIZE
  6
CONTINUOUS
 62
    30
 10
201.31133815959959
 20
-256.96439941199998
 30
0.0
 11
520.55145738987903
 21
-256.96439941199998
 31
0.0
  0
LINE
  8
SIZE
  6
CONTINUOUS
 62
    30
 10
20.0
 20
-282.00891461100002
 30
0.0
 11
520.55145738987881
 21
-282.00891461100002
 31
0.0
  0
LINE
  8
SIZE
  6
CONTINUOUS
 62
    30
 10
500.55145738987892
 20
-244.96439941200001
 30
0.0
 11
500.55145738987892
 21
-232.96439941200001
 31
0.0
  0
LINE
  8
SIZE
  6
CONTINUOUS
 62
    30
 10
500.55145738987892
 20
-294.00891461100002
 30
0.0
 11
500.55145738987892
 21
-449.26605746814278
 31
0.0
  0
LINE
  8
SIZE
  6
CONTINUOUS
 62
    30
 10
500.55145738987892
 20
-256.96439941199998
 30
0.0
 11
500.55145738987892
 21
-282.00891461100002
 31
0.0
  0
CIRCLE
  8
SIZE
  6
CONTINUOUS
 62
    30
 10
500.55145738987892
 20
-256.96439941199998
 30
0.0
 40
6.0
  0
LINE
  8
SIZE
  6
CONTINUOUS
 62
    30
 10
500.55145738987892
 20
-256.96439941199998
 30
0.0
 11
500.55145738987892
 21
-244.96439941200001
 31
0.0
  0
CIRCLE
  8
SIZE
  6
CONTINUOUS
 62
    30
 10
500.55145738987892
 20
-282.00891461100002
 30
0.0
 40
6.0
  0
LINE
  8
SIZE
  6
CONTINUOUS
 62
    30
 10
500.55145738987892
 20
-282.00891461100002
 30
0.0
 11
500.55145738987892
 21
-294.00891461100002
 31
0.0
  0
TEXT
  8
SIZE
  6
CONTINUOUS
 62
    30
 10
475.55145738987881
 20
-424.26605746814289
 30
0.0
 40
64.0
  1
25
 50
90.0
 41
0.9
 72
     1
 11
475.55145738987881
 21
-377.63748603957151
 31
0.0
  0
POINT
  8
DEFPOINTS
  6
CONTINUOUS
 62
    30
 10
181.3113381595995
 20
-256.96439941199998
 30
0.0
  0
POINT
  8
DEFPOINTS
  6
CONTINUOUS
 62
    30
 10
0.0
 20
-282.00891461100002
 30
0.0
  0
POINT
  8
DEFPOINTS
  6
CONTINUOUS
 62
    30
 10
500.55145738987892
 20
-282.00891461100002
 30
0.0
  0
LINE
  8
SIZE
  6
CONTINUOUS
 62
    30
 10
-187.00000000000011
 20
-33.000000000000028
 30
0.0
 11
-612.85715971865795
 21
-33.000000000000092
 31
0.0
  0
LINE
  8
SIZE
  6
CONTINUOUS
 62
    30
 10
-189.50000000000011
 20
-192.71428571428581
 30
0.0
 11
-612.85715971865795
 21
-192.71428571428589
 31
0.0
  0
LINE
  8
SIZE
  6
CONTINUOUS
 62
    30
 10
-592.85715971865795
 20
-45.000000000000092
 30
0.0
 11
-592.85715971865795
 21
-180.71428571428589
 31
0.0
  0
CIRCLE
  8
SIZE
  6
CONTINUOUS
 62
    30
 10
-592.85715971865795
 20
-33.000000000000092
 30
0.0
 40
6.0
  0
LINE
  8
SIZE
  6
CONTINUOUS
 62
    30
 10
-592.85715971865795
 20
-33.000000000000092
 30
0.0
 11
-592.85715971865795
 21
-45.000000000000092
 31
0.0
  0
CIRCLE
  8
SIZE
  6
CONTINUOUS
 62
    30
 10
-592.85715971865795
 20
-192.71428571428589
 30
0.0
 40
6.0
  0
LINE
  8
SIZE
  6
CONTINUOUS
 62
    30
 10
-592.85715971865795
 20
-192.71428571428589
 30
0.0
 11
-592.85715971865795
 21
-180.71428571428589
 31
0.0
  0
TEXT
  8
SIZE
  6
CONTINUOUS
 62
    30
 10
-617.85715971865773
 20
-221.74857142857141
 30
0.0
 40
64.0
  1
φ160
 50
90.0
 41
0.9
 72
     1
 11
-617.85715971865773
 21
-112.8571428571428
 31
0.0
  0
POINT
  8
DEFPOINTS
  6
CONTINUOUS
 62
    30
 10
-167.00000000000011
 20
-33.0
 30
0.0
  0
POINT
  8
DEFPOINTS
  6
CONTINUOUS
 62
    30
 10
-169.50000000000011
 20
-192.71428571428581
 30
0.0
  0
POINT
  8
DEFPOINTS
  6
CONTINUOUS
 62
    30
 10
-592.85715971865795
 20
-192.71428571428589
 30
0.0
  0
LINE
  8
SIZE
  6
CONTINUOUS
 62
    30
 10
-257.00000000000011
 20
-42.0
 30
0.0
 11
-510.63572893400408
 21
-42.000000000000057
 31
0.0
  0
LINE
  8
SIZE
  6
CONTINUOUS
 62
    30
 10
-257.00000000000011
 20
-184.00000000000011
 30
0.0
 11
-510.63572893400402
 21
-184.00000000000011
 31
0.0
  0
LINE
  8
SIZE
  6
CONTINUOUS
 62
    30
 10
-490.63572893400402
 20
-172.00000000000011
 30
0.0
 11
-490.63572893400408
 21
-54.000000000000057
 31
0.0
  0
LINE
  8
SIZE
  6
CONTINUOUS
 62
    30
 10
-490.63572893400408
 20
-42.000000000000057
 30
0.0
 11
-490.63572893400408
 21
214.7428571428571
 31
0.0
  0
CIRCLE
  8
SIZE
  6
CONTINUOUS
 62
    30
 10
-490.63572893400402
 20
-184.00000000000011
 30
0.0
 40
6.0
  0
LINE
  8
SIZE
  6
CONTINUOUS
 62
    30
 10
-490.63572893400402
 20
-184.00000000000011
 30
0.0
 11
-490.63572893400402
 21
-172.00000000000011
 31
0.0
  0
CIRCLE
  8
SIZE
  6
CONTINUOUS
 62
    30
 10
-490.63572893400408
 20
-42.000000000000057
 30
0.0
 40
6.0
  0
LINE
  8
SIZE
  6
CONTINUOUS
 62
    30
 10
-490.63572893400408
 20
-42.000000000000057
 30
0.0
 11
-490.63572893400408
 21
-54.000000000000057
 31
0.0
  0
TEXT
  8
SIZE
  6
CONTINUOUS
 62
    30
 10
-515.63572893400396
 20
-16.519999999999921
 30
0.0
 40
64.0
  1
φ142
 50
90.0
 41
0.9
 72
     1
 11
-515.63572893400396
 21
92.371428571428623
 31
0.0
  0
POINT
  8
DEFPOINTS
  6
CONTINUOUS
 62
    30
 10
-237.00000000000011
 20
-42.0
 30
0.0
  0
POINT
  8
DEFPOINTS
  6
CONTINUOUS
 62
    30
 10
-237.00000000000011
 20
-184.00000000000011
 30
0.0
  0
POINT
  8
DEFPOINTS
  6
CONTINUOUS
 62
    30
 10
-490.63572893400402
 20
-184.00000000000011
 30
0.0
  0
LINE
  8
NOTE
  6
CONTINUOUS
 62
     4
 10
-33.760697621220061
 20
-117.1437973871457
 30
0.0
 11
-33.760697621220061
 21
-157.1437973871457
 31
0.0
  0
LINE
  8
NOTE
  6
CONTINUOUS
 62
     4
 10
-13.760697621220061
 20
-137.1437973871457
 30
0.0
 11
-53.760697621220061
 21
-137.1437973871457
 31
0.0
  0
TEXT
  8
NOTE
  6
CONTINUOUS
 62
     4
 10
338.15303250619849
 20
41.667353777844198
 30
0.0
 40
64.0
  1
AH
 41
0.9
  0
LINE
  8
NOTE
  6
CONTINUOUS
 62
     4
 10
338.06303250619862
 20
28.86735377784424
 30
0.0
 11
434.15303250619849
 21
28.86735377784424
 31
0.0
  0
LINE
  8
NOTE
  6
CONTINUOUS
 62
     4
 10
174.33886095904131
 20
-93.196983540913095
 30
0.0
 11
150.0
 21
-102.0
 31
0.0
  0
LINE
  8
NOTE
  6
CONTINUOUS
 62
     4
 10
150.0
 20
-102.0
 30
0.0
 11
166.6765338331073
 21
-82.206908506356854
 31
0.0
  0
LINE
  8
NOTE
  6
CONTINUOUS
 62
     4
 10
150.0
 20
-102.0
 30
0.0
 11
191.0153947921485
 21
-73.403892047269949
 31
0.0
  0
LINE
  8
NOTE
  6
CONTINUOUS
 62
     4
 10
191.01539479214861
 20
-73.40389204726992
 30
0.0
 11
337.70303250619861
 21
28.86735377784424
 31
0.0
  0
LINE
  8
NOTE
  6
CONTINUOUS
 62
     4
 10
337.70303250619861
 20
28.86735377784424
 30
0.0
 11
338.06303250619862
 21
28.86735377784424
 31
0.0
  0
TEXT
  8
NOTE
  6
CONTINUOUS
 62
     4
 10
-387.19468573079428
 20
-425.87150928605081
 30
0.0
 40
64.0
  1
EL
 41
0.9
 72
     2
 11
-302.16611430222292
 21
-425.87150928605081
 31
0.0
  0
LINE
  8
NOTE
  6
CONTINUOUS
 62
     4
 10
-302.07611430222278
 20
-438.67150928605082
 30
0.0
 11
-387.19468573079428
 21
-438.67150928605082
 31
0.0
  0
LINE
  8
NOTE
  6
CONTINUOUS
 62
     4
 10
-55.371255016945383
 20
-151.24066189312919
 30
0.0
 11
-33.760697621220061
 21
-136.9978721169455
 31
0.0
  0
LINE
  8
NOTE
  6
CONTINUOUS
 62
     4
 10
-33.760697621220061
 20
-136.9978721169455
 30
0.0
 11
-45.354559557232818
 21
-160.1377860530684
 31
0.0
  0
LINE
  8
NOTE
  6
CONTINUOUS
 62
     4
 10
-33.760697621220061
 20
-136.9978721169455
 30
0.0
 11
-66.965116952958141
 21
-174.38057582925211
 31
0.0
  0
LINE
  8
NOTE
  6
CONTINUOUS
 62
     4
 10
-66.965116952958141
 20
-174.38057582925211
 30
0.0
 11
-301.71611430222288
 21
-438.67150928605082
 31
0.0
  0
LINE
  8
NOTE
  6
CONTINUOUS
 62
     4
 10
-301.71611430222288
 20
-438.67150928605082
 30
0.0
 11
-302.07611430222278
 21
-438.67150928605082
 31
0.0
  0
TEXT
  8
NOTE
  6
CONTINUOUS
 62
     4
 10
332.30690712273741
 20
-562.86252508814005
 30
0.0
 40
64.0
  1
D φ21.7
 41
0.9
  0
LINE
  8
NOTE
  6
CONTINUOUS
 62
     4
 10
332.21690712273738
 20
-575.66252508814
 30
0.0
 11
669.67833569416598
 21
-575.66252508813989
 31
0.0
  0
LINE
  8
NOTE
  6
CONTINUOUS
 62
     4
 10
14.282745629332959
 20
-303.57812877606881
 30
0.0
 11
0.0
 21
-281.99395798239988
 31
0.0
  0
LINE
  8
NOTE
  6
CONTINUOUS
 62
     4
 10
0.0
 20
-281.99395798239988
 30
0.0
 11
23.161323354410339
 21
-293.54499049187478
 31
0.0
  0
LINE
  8
NOTE
  6
CONTINUOUS
 62
     4
 10
0.0
 20
-281.99395798239988
 30
0.0
 11
37.444068983743307
 21
-315.12916128554372
 31
0.0
  0
LINE
  8
NOTE
  6
CONTINUOUS
 62
     4
 10
37.444068983743357
 20
-315.12916128554372
 30
0.0
 11
331.85690712273743
 21
-575.66252508814
 31
0.0
  0
LINE
  8
NOTE
  6
CONTINUOUS
 62
     4
 10
331.85690712273743
 20
-575.66252508814
 30
0.0
 11
332.21690712273738
 21
-575.66252508814
 31
0.0
  0
LINE
  8
OUTLINE
  6
CONTINUOUS
 62
     3
 10
0.0
 20
-284.99415902919998
 30
0.0
 11
-0.0442179057999965
 21
-284.99396347840002
 31
0.0
  0
LINE
  8
OUTLINE
  6
CONTINUOUS
 62
     3
 10
-0.0442179057999965
 20
-284.99396347840002
 30
0.0
 11
-0.0878120114002741
 21
-284.99338787480002
 31
0.0
  0
LINE
  8
OUTLINE
  6
CONTINUOUS
 62
     3
 10
-0.0878120114002741
 20
-284.99338787480002
 30
0.0
 11
-0.134523254800115
 21
-284.99234903940021
 31
0.0
  0
LINE
  8
OUTLINE
  6
CONTINUOUS
 62
     3
 10
-0.134523254800115
 20
-284.99234903940021
 30
0.0
 11
-0.1854268882007091
 21
-284.99071953299989
 31
0.0
  0
LINE
  8
OUTLINE
  6
CONTINUOUS
 62
     3
 10
-0.1854268882007091
 20
-284.99071953299989
 30
0.0
 11
-0.2394181552008376
 21
-284.98842363099988
 31
0.0
  0
LINE
  8
OUTLINE
  6
CONTINUOUS
 62
     3
 10
-0.2394181552008376
 20
-284.98842363099988
 30
0.0
 11
-0.2970692178005265
 21
-284.98532621520008
 31
0.0
  0
LINE
  8
OUTLINE
  6
CONTINUOUS
 62
     3
 10
-0.2970692178005265
 20
-284.98532621520008
 30
0.0
 11
-0.358390534600403
 21
-284.98129810599988
 31
0.0
  0
LINE
  8
OUTLINE
  6
CONTINUOUS
 62
     3
 10
-0.358390534600403
 20
-284.98129810599988
 30
0.0
 11
-0.4230382424002528
 21
-284.97623075140001
 31
0.0
  0
LINE
  8
OUTLINE
  6
CONTINUOUS
 62
     3
 10
-0.4230382424002528
 20
-284.97623075140001
 30
0.0
 11
-0.490600701200492
 21
-284.9700319082001
 31
0.0
  0
LINE
  8
OUTLINE
  6
CONTINUOUS
 62
     3
 10
-0.490600701200492
 20
-284.9700319082001
 30
0.0
 11
-0.5616651082000317
 21
-284.96251210700012
 31
0.0
  0
LINE
  8
OUTLINE
  6
CONTINUOUS
 62
     3
 10
-0.5616651082000317
 20
-284.96251210700012
 30
0.0
 11
-0.636776488599935
 21
-284.95344483399998
 31
0.0
  0
LINE
  8
OUTLINE
  6
CONTINUOUS
 62
     3
 10
-0.636776488599935
 20
-284.95344483399998
 30
0.0
 11
-0.7160151366006176
 21
-284.94262569300008
 31
0.0
  0
LINE
  8
OUTLINE
  6
CONTINUOUS
 62
     3
 10
-0.7160151366006176
 20
-284.94262569300008
 30
0.0
 11
-0.7997900752006899
 21
-284.92977812240002
 31
0.0
  0
LINE
  8
OUTLINE
  6
CONTINUOUS
 62
     3
 10
-0.7997900752006899
 20
-284.92977812240002
 30
0.0
 11
-0.8877594722007416
 21
-284.91471622519998
 31
0.0
  0
LINE
  8
OUTLINE
  6
CONTINUOUS
 62
     3
 10
-0.8877594722007416
 20
-284.91471622519998
 30
0.0
 11
-0.9796298690007461
 21
-284.89725247279989
 31
0.0
  0
LINE
  8
OUTLINE
  6
CONTINUOUS
 62
     3
 10
-0.9796298690007461
 20
-284.89725247279989
 30
0.0
 11
-1.07566864960063
 21
-284.87708202220011
 31
0.0
  0
LINE
  8
OUTLINE
  6
CONTINUOUS
 62
     3
 10
-1.07566864960063
 20
-284.87708202220011
 30
0.0
 11
-1.17375921600069
 21
-284.85443569659992
 31
0.0
  0
LINE
  8
OUTLINE
  6
CONTINUOUS
 62
     3
 10
-1.17375921600069
 20
-284.85443569659992
 30
0.0
 11
-1.280712621200109
 21
-284.82735416099979
 31
0.0
  0
LINE
  8
OUTLINE
  6
CONTINUOUS
 62
     3
 10
-1.280712621200109
 20
-284.82735416099979
 30
0.0
 11
-1.403305661400736
 21
-284.79319364140002
 31
0.0
  0
LINE
  8
OUTLINE
  6
CONTINUOUS
 62
     3
 10
-1.403305661400736
 20
-284.79319364140002
 30
0.0
 11
-1.538815946600153
 21
-284.7514739738001
 31
0.0
  0
LINE
  8
OUTLINE
  6
CONTINUOUS
 62
     3
 10
-10.833640872400791
 20
-261.20977849780002
 30
0.0
 11
-11.325929653800809
 21
-261.24456666380001
 31
0.0
  0
LINE
  8
OUTLINE
  6
CONTINUOUS
 62
     3
 10
-11.325929653800809
 20
-261.24456666380001
 30
0.0
 11
-11.6991349462005
 21
-261.28235352520011
 31
0.0
  0
LINE
  8
OUTLINE
  6
CONTINUOUS
 62
     3
 10
-11.6991349462005
 20
-261.28235352520011
 30
0.0
 11
-11.92384082219996
 21
-261.32113101660002
 31
0.0
  0
LINE
  8
OUTLINE
  6
CONTINUOUS
 62
     3
 10
-11.92384082219996
 20
-261.32113101660002
 30
0.0
 11
-12.0
 21
-261.36039769059988
 31
0.0
  0
LINE
  8
OUTLINE
  6
CONTINUOUS
 62
     3
 10
1.5388159464000639
 20
-284.7514739738001
 30
0.0
 11
1.4057499769996871
 21
-284.79247821280001
 31
0.0
  0
LINE
  8
OUTLINE
  6
CONTINUOUS
 62
     3
 10
1.4057499769996871
 20
-284.79247821280001
 30
0.0
 11
1.28573285839957
 21
-284.82602109439989
 31
0.0
  0
LINE
  8
OUTLINE
  6
CONTINUOUS
 62
     3
 10
1.28573285839957
 20
-284.82602109439989
 30
0.0
 11
1.181644628599315
 21
-284.85252459280008
 31
0.0
  0
LINE
  8
OUTLINE
  6
CONTINUOUS
 62
     3
 10
1.181644628599315
 20
-284.85252459280008
 30
0.0
 11
1.0861976163996589
 21
-284.87475066719998
 31
0.0
  0
LINE
  8
OUTLINE
  6
CONTINUOUS
 62
     3
 10
1.0861976163996589
 20
-284.87475066719998
 30
0.0
 11
0.9921485405993735
 21
-284.89473463519988
 31
0.0
  0
LINE
  8
OUTLINE
  6
CONTINUOUS
 62
     3
 10
0.9921485405993735
 20
-284.89473463519988
 30
0.0
 11
0.9015227249992677
 21
-284.91221319480002
 31
0.0
  0
LINE
  8
OUTLINE
  6
CONTINUOUS
 62
     3
 10
0.9015227249992677
 20
-284.91221319480002
 30
0.0
 11
0.8135474565997356
 21
-284.92752912840001
 31
0.0
  0
LINE
  8
OUTLINE
  6
CONTINUOUS
 62
     3
 10
0.8135474565997356
 20
-284.92752912840001
 30
0.0
 11
0.7293399221998698
 21
-284.94067934920008
 31
0.0
  0
LINE
  8
OUTLINE
  6
CONTINUOUS
 62
     3
 10
0.7293399221998698
 20
-284.94067934920008
 30
0.0
 11
0.6502026493999438
 21
-284.95170242239988
 31
0.0
  0
LINE
  8
OUTLINE
  6
CONTINUOUS
 62
     3
 10
0.6502026493999438
 20
-284.95170242239988
 30
0.0
 11
0.5748174097998344
 21
-284.96100762219999
 31
0.0
  0
LINE
  8
OUTLINE
  6
CONTINUOUS
 62
     3
 10
0.5748174097998344
 20
-284.96100762219999
 30
0.0
 11
0.5021783899992443
 21
-284.96887679399993
 31
0.0
  0
LINE
  8
OUTLINE
  6
CONTINUOUS
 62
     3
 10
0.5021783899992443
 20
-284.96887679399993
 30
0.0
 11
0.4328041387998383
 21
-284.97539186620008
 31
0.0
  0
LINE
  8
OUTLINE
  6
CONTINUOUS
 62
     3
 10
0.4328041387998383
 20
-284.97539186620008
 30
0.0
 11
0.3670655815994905
 21
-284.98066710319989
 31
0.0
  0
LINE
  8
OUTLINE
  6
CONTINUOUS
 62
     3
 10
0.3670655815994905
 20
-284.98066710319989
 30
0.0
 11
0.3046711613997104
 21
-284.98486794499991
 31
0.0
  0
LINE
  8
OUTLINE
  6
CONTINUOUS
 62
     3
 10
0.3046711613997104
 20
-284.98486794499991
 30
0.0
 11
0.2455491887994867
 21
-284.9881259440001
 31
0.0
  0
LINE
  8
OUTLINE
  6
CONTINUOUS
 62
     3
 10
0.2455491887994867
 20
-284.9881259440001
 30
0.0
 11
0.189960849599629
 21
-284.99054921359988
 31
0.0
  0
LINE
  8
OUTLINE
  6
CONTINUOUS
 62
     3
 10
0.189960849599629
 20
-284.99054921359988
 30
0.0
 11
0.1373617429999285
 21
-284.99227182839991
 31
0.0
  0
LINE
  8
OUTLINE
  6
CONTINUOUS
 62
     3
 10
0.1373617429999285
 20
-284.99227182839991
 30
0.0
 11
0.0892630270000154
 21
-284.99336217680002
 31
0.0
  0
LINE
  8
OUTLINE
  6
CONTINUOUS
 62
     3
 10
0.0892630270000154
 20
-284.99336217680002
 30
0.0
 11
0.0448357331997613
 21
-284.99395798239988
 31
0.0
  0
LINE
  8
OUTLINE
  6
CONTINUOUS
 62
     3
 10
0.0448357331997613
 20
-284.99395798239988
 30
0.0
 11
0.0
 21
-284.99415902919998
 31
0.0
  0
LINE
  8
OUTLINE
  6
CONTINUOUS
 62
     3
 10
1.5388159464000639
 20
-284.7514739738001
 30
0.0
 11
10.919042099799301
 21
-281.71731673300002
 31
0.0
  0
LINE
  8
OUTLINE
  6
CONTINUOUS
 62
     3
 10
10.919042108599569
 20
-281.71731673020008
 30
0.0
 11
11.024768758999929
 21
-281.67933693179998
 31
0.0
  0
LINE
  8
OUTLINE
  6
CONTINUOUS
 62
     3
 10
11.024768758999929
 20
-281.67933693179998
 30
0.0
 11
11.144432658799809
 21
-281.62627036959998
 31
0.0
  0
LINE
  8
OUTLINE
  6
CONTINUOUS
 62
     3
 10
11.144432658799809
 20
-281.62627036959998
 30
0.0
 11
11.27535910539973
 21
-281.55391398260008
 31
0.0
  0
LINE
  8
OUTLINE
  6
CONTINUOUS
 62
     3
 10
11.27535910539973
 20
-281.55391398260008
 30
0.0
 11
11.41625513419967
 21
-281.45591384499988
 31
0.0
  0
LINE
  8
OUTLINE
  6
CONTINUOUS
 62
     3
 10
11.41625513419967
 20
-281.45591384499988
 30
0.0
 11
11.565157884199831
 21
-281.32307612860001
 31
0.0
  0
LINE
  8
OUTLINE
  6
CONTINUOUS
 62
     3
 10
11.565157884199831
 20
-281.32307612860001
 30
0.0
 11
11.706666088199199
 21
-281.15684979140002
 31
0.0
  0
LINE
  8
OUTLINE
  6
CONTINUOUS
 62
     3
 10
11.706666088199199
 20
-281.15684979140002
 30
0.0
 11
11.82880373339958
 21
-280.96075157859991
 31
0.0
  0
LINE
  8
OUTLINE
  6
CONTINUOUS
 62
     3
 10
11.82880373339958
 20
-280.96075157859991
 30
0.0
 11
11.92238897679999
 21
-280.74024954960009
 31
0.0
  0
LINE
  8
OUTLINE
  6
CONTINUOUS
 62
     3
 10
11.92238897679999
 20
-280.74024954960009
 30
0.0
 11
11.98016035519959
 21
-280.50639701559999
 31
0.0
  0
LINE
  8
OUTLINE
  6
CONTINUOUS
 62
     3
 10
11.98016035519959
 20
-280.50639701559999
 30
0.0
 11
12.0
 21
-280.26250531479991
 31
0.0
  0
LINE
  8
OUTLINE
  6
CONTINUOUS
 62
     3
 10
10.82737074779925
 20
-261.41546894300001
 30
0.0
 11
10.84999126319963
 21
-260.67340648940012
 31
0.0
  0
LINE
  8
OUTLINE
  6
CONTINUOUS
 62
     3
 10
12.0
 20
-261.36039769059988
 30
0.0
 11
12.0
 21
-280.26250531479991
 31
0.0
  0
LINE
  8
OUTLINE
  6
CONTINUOUS
 62
     3
 10
10.849999999999451
 20
-260.67283327700011
 30
0.0
 11
10.849999999999451
 21
-256.96439941199992
 31
0.0
  0
LINE
  8
OUTLINE
  6
CONTINUOUS
 62
     3
 10
-10.85000000000036
 20
-260.67283327700011
 30
0.0
 11
-10.85000000000036
 21
-256.96439941199992
 31
0.0
  0
LINE
  8
OUTLINE
  6
CONTINUOUS
 62
     3
 10
-12.0
 20
-261.36039769059988
 30
0.0
 11
-12.0
 21
-280.26250531479991
 31
0.0
  0
LINE
  8
OUTLINE
  6
CONTINUOUS
 62
     3
 10
-10.82737074800025
 20
-261.41546894300001
 30
0.0
 11
-10.84999126340063
 21
-260.67340648940012
 31
0.0
  0
LINE
  8
OUTLINE
  6
CONTINUOUS
 62
     3
 10
-12.0
 20
-280.26250531479991
 30
0.0
 11
-11.98085433980032
 21
-280.5021208352
 31
0.0
  0
LINE
  8
OUTLINE
  6
CONTINUOUS
 62
     3
 10
-11.98085433980032
 20
-280.5021208352
 30
0.0
 11
-11.92409611540006
 21
-280.7351022918001
 31
0.0
  0
LINE
  8
OUTLINE
  6
CONTINUOUS
 62
     3
 10
-11.92409611540006
 20
-280.7351022918001
 30
0.0
 11
-11.829751290400051
 21
-280.95893149099987
 31
0.0
  0
LINE
  8
OUTLINE
  6
CONTINUOUS
 62
     3
 10
-11.829751290400051
 20
-280.95893149099987
 30
0.0
 11
-11.70540373400036
 21
-281.15856652339988
 31
0.0
  0
LINE
  8
OUTLINE
  6
CONTINUOUS
 62
     3
 10
-11.70540373400036
 20
-281.15856652339988
 30
0.0
 11
-11.56295813320048
 21
-281.32530838899987
 31
0.0
  0
LINE
  8
OUTLINE
  6
CONTINUOUS
 62
     3
 10
-11.56295813320048
 20
-281.32530838899987
 30
0.0
 11
-11.41374153820016
 21
-281.45787383279998
 31
0.0
  0
LINE
  8
OUTLINE
  6
CONTINUOUS
 62
     3
 10
-11.41374153820016
 20
-281.45787383279998
 30
0.0
 11
-11.272438302400589
 21
-281.55571011260008
 31
0.0
  0
LINE
  8
OUTLINE
  6
CONTINUOUS
 62
     3
 10
-11.272438302400589
 20
-281.55571011260008
 30
0.0
 11
-11.141592825400039
 21
-281.62766584920001
 31
0.0
  0
LINE
  8
OUTLINE
  6
CONTINUOUS
 62
     3
 10
-11.141592825400039
 20
-281.62766584920001
 30
0.0
 11
-11.022912069800441
 21
-281.68007224860003
 31
0.0
  0
LINE
  8
OUTLINE
  6
CONTINUOUS
 62
     3
 10
-11.022912069800441
 20
-281.68007224860003
 30
0.0
 11
-10.91904212100053
 21
-281.71731672620012
 31
0.0
  0
LINE
  8
OUTLINE
  6
CONTINUOUS
 62
     3
 10
12.0
 20
-261.36039769059988
 30
0.0
 11
11.92384082219996
 21
-261.32113101660002
 31
0.0
  0
LINE
  8
OUTLINE
  6
CONTINUOUS
 62
     3
 10
11.92384082219996
 20
-261.32113101660002
 30
0.0
 11
11.699134946199591
 21
-261.28235352520011
 31
0.0
  0
LINE
  8
OUTLINE
  6
CONTINUOUS
 62
     3
 10
11.699134946199591
 20
-261.28235352520011
 30
0.0
 11
11.325929653599809
 21
-261.24456666380001
 31
0.0
  0
LINE
  8
OUTLINE
  6
CONTINUOUS
 62
     3
 10
11.325929653599809
 20
-261.24456666380001
 30
0.0
 11
10.833640872199791
 21
-261.20977849780002
 31
0.0
  0
LINE
  8
OUTLINE
  6
CONTINUOUS
 62
     3
 10
-1.538815946600153
 20
-284.7514739738001
 30
0.0
 11
-10.91904209980021
 21
-281.71731673300002
 31
0.0
  0
LINE
  8
OUTLINE
  6
CONTINUOUS
 62
     3
 10
-237.0
 20
-184.0
 30
0.0
 11
-237.0
 21
-42.0
 31
0.0
  0
LINE
  8
OUTLINE
  6
CONTINUOUS
 62
     3
 10
-168.0
 20
-193.0
 30
0.0
 11
-237.0
 21
-184.0
 31
0.0
  0
LINE
  8
OUTLINE
  6
CONTINUOUS
 62
     3
 10
-168.0
 20
-33.0
 30
0.0
 11
-237.0
 21
-42.0
 31
0.0
  0
LINE
  8
OUTLINE
  6
CONTINUOUS
 62
     3
 10
237.5
 20
-184.0
 30
0.0
 11
237.5
 21
-42.0
 31
0.0
  0
LINE
  8
OUTLINE
  6
CONTINUOUS
 62
     3
 10
167.5
 20
-33.0
 30
0.0
 11
237.5
 21
-42.0
 31
0.0
  0
LINE
  8
OUTLINE
  6
CONTINUOUS
 62
     3
 10
167.5
 20
-193.0
 30
0.0
 11
237.5
 21
-184.0
 31
0.0
  0
ENDSEC
  0
EOF
