  0
SECTION
  2
HEADER
  9
$ACADVER
  1
AC1009
  9
$DWGCODEPAGE
  3
dos932
  9
$INSBASE
 10
0.0
 20
0.0
 30
0.0
  9
$EXTMIN
 10
-877.01689690545027
 20
-685.28754000000004
 30
0.0
  9
$EXTMAX
 10
1088.1978115827069
 20
782.45763648367063
 30
0.0
  9
$LIMMIN
 10
-2970.0
 20
-2100.0
  9
$LIMMAX
 10
2970.0
 20
2100.0
  9
$ORTHOMODE
 70
     0
  9
$REGENMODE
 70
     1
  9
$FILLMODE
 70
     1
  9
$QTEXTMODE
 70
     0
  9
$MIRRTEXT
 70
     0
  9
$LTSCALE
 40
20.0
  9
$ATTMODE
 70
     1
  9
$TEXTSIZE
 40
64.0
  9
$TRACEWID
 40
0.05
  9
$TEXTSTYLE
  7
STANDARD
  9
$CLAYER
  8
SIZE
  9
$CELTYPE
  6
CONTINUOUS
  9
$CECOLOR
 62
     7
  9
$DIMSCALE
 40
1.0
  9
$DIMASZ
 40
12.0
  9
$DIMEXO
 40
20.0
  9
$DIMDLI
 40
200.0
  9
$DIMRND
 40
0.0
  9
$DIMDLE
 40
0.0
  9
$DIMEXE
 40
20.0
  9
$DIMTP
 40
0.0
  9
$DIMTM
 40
0.0
  9
$DIMTXT
 40
64.0
  9
$DIMCEN
 40
0.09
  9
$DIMTSZ
 40
0.0
  9
$DIMTOL
 70
     0
  9
$DIMLIM
 70
     0
  9
$DIMTIH
 70
     0
  9
$DIMTOH
 70
     0
  9
$DIMSE1
 70
     0
  9
$DIMSE2
 70
     0
  9
$DIMTAD
 70
     1
  9
$DIMZIN
 70
     8
  9
$DIMBLK
  1

  9
$DIMASO
 70
     1
  9
$DIMSHO
 70
     0
  9
$DIMPOST
  1

  9
$DIMAPOST
  1

  9
$DIMALT
 70
     0
  9
$DIMALTD
 70
     2
  9
$DIMALTF
 40
25.399999999999999
  9
$DIMLFAC
 40
1.0
  9
$DIMTOFL
 70
     1
  9
$DIMTVP
 40
0.0
  9
$DIMTIX
 70
     1
  9
$DIMSOXD
 70
     0
  9
$DIMSAH
 70
     0
  9
$DIMBLK1
  1

  9
$DIMBLK2
  1

  9
$DIMSTYLE
  2
STANDARD
  9
$DIMCLRD
 70
     7
  9
$DIMCLRE
 70
     7
  9
$DIMCLRT
 70
     7
  9
$DIMTFAC
 40
1.0
  9
$DIMGAP
 40
25.0
  9
$LUNITS
 70
     2
  9
$LUPREC
 70
     4
  9
$SKETCHINC
 40
0.1
  9
$FILLETRAD
 40
3.0
  9
$AUNITS
 70
     1
  9
$AUPREC
 70
     3
  9
$MENU
  1
ACAD
  9
$ELEVATION
 40
0.0
  9
$PELEVATION
 40
0.0
  9
$THICKNESS
 40
50.0
  9
$LIMCHECK
 70
     0
  9
$CHAMFERA
 40
0.0
  9
$CHAMFERB
 40
0.0
  9
$SKPOLY
 70
     0
  9
$TDCREATE
 40
2453019.62301037
  9
$TDUPDATE
 40
2458659.372196898
  9
$TDINDWG
 40
1.7572497801
  9
$TDUSRTIMER
 40
1.7572497801
  9
$USRTIMER
 70
     1
  9
$ANGBASE
 50
0.0
  9
$ANGDIR
 70
     0
  9
$PDMODE
 70
     3
  9
$PDSIZE
 40
-2.0
  9
$PLINEWID
 40
0.0
  9
$SPLFRAME
 70
     0
  9
$SPLINETYPE
 70
     6
  9
$SPLINESEGS
 70
     8
  9
$SURFTAB1
 70
     6
  9
$SURFTAB2
 70
     6
  9
$SURFTYPE
 70
     6
  9
$SURFU
 70
     6
  9
$SURFV
 70
     6
  9
$UCSNAME
  2

  9
$UCSORG
 10
0.0
 20
0.0
 30
0.0
  9
$UCSXDIR
 10
1.0
 20
0.0
 30
0.0
  9
$UCSYDIR
 10
0.0
 20
1.0
 30
0.0
  9
$PUCSNAME
  2

  9
$PUCSORG
 10
0.0
 20
0.0
 30
0.0
  9
$PUCSXDIR
 10
1.0
 20
0.0
 30
0.0
  9
$PUCSYDIR
 10
0.0
 20
1.0
 30
0.0
  9
$USERI1
 70
     0
  9
$USERI2
 70
     0
  9
$USERI3
 70
     0
  9
$USERI4
 70
     0
  9
$USERI5
 70
     0
  9
$USERR1
 40
20.0
  9
$USERR2
 40
0.0
  9
$USERR3
 40
0.0
  9
$USERR4
 40
0.0
  9
$USERR5
 40
0.0
  9
$WORLDVIEW
 70
     1
  9
$SHADEDGE
 70
     3
  9
$SHADEDIF
 70
    70
  9
$TILEMODE
 70
     1
  9
$MAXACTVP
 70
    48
  9
$PINSBASE
 10
0.0
 20
0.0
 30
0.0
  9
$PLIMCHECK
 70
     0
  9
$PEXTMIN
 10
-100000000000000000000.0
 20
-100000000000000000000.0
 30
-100000000000000000000.0
  9
$PEXTMAX
 10
100000000000000000000.0
 20
100000000000000000000.0
 30
100000000000000000000.0
  9
$PLIMMIN
 10
0.0
 20
0.0
  9
$PLIMMAX
 10
12.0
 20
9.0
  9
$UNITMODE
 70
     0
  9
$VISRETAIN
 70
     0
  9
$PLINEGEN
 70
     0
  9
$PSLTSCALE
 70
     0
  9
$TREEDEPTH
 70
  3020
  9
$ATTDIA
 70
     0
  9
$ATTREQ
 70
     1
  9
$BLIPMODE
 70
     1
  9
$COORDS
 70
     1
  9
$DRAGMODE
 70
     2
  9
$OSMODE
 70
     0
  9
$HANDLING
 70
     0
  9
$HANDSEED
  5
F115
  0
ENDSEC
  0
SECTION
  2
TABLES
  0
TABLE
  2
LTYPE
 70
     2
  0
LTYPE
  2
CONTINUOUS
 70
     0
  3
実線
 72
    65
 73
     0
 40
0.0
  0
LTYPE
  2
DASHDOT
 70
     0
  3
____ _ ____ _ ____ _ ____ _ ____ _ ____ _ ____
 72
    65
 73
     4
 40
5.5
 49
4.0
 49
-0.6
 49
0.3
 49
-0.6
  0
ENDTAB
  0
TABLE
  2
LAYER
 70
    12
  0
LAYER
  2
0
 70
     0
 62
     7
  6
CONTINUOUS
  0
LAYER
  2
BASIS
 70
     0
 62
     6
  6
DASHDOT
  0
LAYER
  2
OUTLINE
 70
     0
 62
     3
  6
CONTINUOUS
  0
LAYER
  2
DETAIL
 70
     0
 62
     5
  6
CONTINUOUS
  0
LAYER
  2
SIZE
 70
     0
 62
    30
  6
CONTINUOUS
  0
LAYER
  2
ARRANGE
 70
     0
 62
     1
  6
CONTINUOUS
  0
LAYER
  2
DEFPOINTS
 70
     0
 62
     7
  6
CONTINUOUS
  0
LAYER
  2
ETC
 70
     0
 62
    61
  6
CONTINUOUS
  0
LAYER
  2
FIX
 70
     0
 62
    11
  6
CONTINUOUS
  0
LAYER
  2
NOTE
 70
     0
 62
     4
  6
CONTINUOUS
  0
LAYER
  2
SERVICESPACE
 70
    64
 62
     2
  6
DASHDOT
  0
LAYER
  2
SYMBOLLINE
 70
    64
 62
    15
  6
CONTINUOUS
  0
ENDTAB
  0
TABLE
  2
STYLE
 70
     1
  0
STYLE
  2
STANDARD
 70
     0
 40
64.0
 41
0.9
 50
0.0
 71
     0
 42
64.0
  3
SIMPLEX.shx
  4
BIGFONT.shx
  0
ENDTAB
  0
TABLE
  2
APPID
 70
    17
  0
APPID
  2
ACAD
 70
     0
  0
APPID
  2
AUTOCAD_POSTSCRIPT_FIGURE
 70
     0
  0
APPID
  2
ACAD_EXEMPT_FROM_CAD_STANDARDS
 70
     0
  0
APPID
  2
ACAD_PSEXT
 70
     0
  0
APPID
  2
ACAUTHENVIRON
 70
     0
  0
APPID
  2
GENIUS_GENOENT_13
 70
     0
  0
APPID
  2
GENIUS_GENCFG_13
 70
     0
  0
APPID
  2
GENIUS_GENCFG0_13
 70
     0
  0
APPID
  2
GENIUS_GENCFG1_13
 70
     0
  0
APPID
  2
GENIUS_GENCFG2_13
 70
     0
  0
APPID
  2
GENIUS_GENCFG3_13
 70
     0
  0
APPID
  2
GENIUS_GENCFG4_13
 70
     0
  0
APPID
  2
GENIUS_GEVCFG0_13
 70
     0
  0
APPID
  2
CONTENTBLOCKICON
 70
     0
  0
APPID
  2
CONTENTBLOCKDESCRIPTION
 70
     0
  0
APPID
  2
ACAD_NAV_VCDISPLAY
 70
     0
  0
APPID
  2
ACAD_MLEADERVER
 70
     0
  0
ENDTAB
  0
TABLE
  2
DIMSTYLE
 70
     1
  0
DIMSTYLE
  2
STANDARD
 70
     0
  3

  4

  5
_ORIGIN
  6

  7

 40
1.0
 41
12.0
 42
20.0
 43
200.0
 44
20.0
 45
0.0
 46
0.0
 47
0.0
 48
0.0
140
64.0
141
0.09
142
0.0
143
25.399999999999999
144
1.0
145
0.0
146
1.0
147
25.0
 71
     0
 72
     0
 73
     0
 74
     0
 75
     0
 76
     0
 77
     1
 78
     8
170
     0
171
     2
172
     1
173
     0
174
     1
175
     0
176
     7
177
     7
178
     7
  0
ENDTAB
  0
TABLE
  2
VIEW
 70
     1
  0
VIEW
  2
ALL
 70
     0
 40
4282.6198079999986
 10
0.0
 20
41.309904000000003
 41
5940.0
 11
0.0
 21
0.0
 31
1.0
 12
0.0
 22
0.0
 32
0.0
 42
50.0
 43
0.0
 44
0.0
 50
0.0
 71
     0
  0
ENDTAB
  0
TABLE
  2
UCS
 70
     0
  0
ENDTAB
  0
TABLE
  2
VPORT
 70
     1
  0
VPORT
  2
*ACTIVE
 70
     0
 10
0.0
 20
0.0
 11
1.0
 21
1.0
 12
-472.3931468566052
 22
216.10255295599609
 13
0.0
 23
0.0
 14
1.0
 24
1.0
 15
0.0
 25
0.0
 16
0.0
 26
0.0
 36
1.0
 17
0.0
 27
0.0
 37
0.0
 40
1757.1821579000309
 41
1.996865203761756
 42
50.0
 43
0.0
 44
0.0
 50
0.0
 51
0.0
 71
     0
 72
  1000
 73
     1
 74
     3
 75
     0
 76
     0
 77
     0
 78
     0
  0
ENDTAB
  0
ENDSEC
  0
SECTION
  2
BLOCKS
  0
BLOCK
  8
0
  2
_ORIGIN
 70
     0
 10
0.0
 20
0.0
 30
0.0
  3
_ORIGIN
  1
_ORIGIN
  0
CIRCLE
  8
0
  6
CONTINUOUS
 62
     7
 10
0.0
 20
0.0
 30
0.0
 40
0.5
  0
LINE
  8
0
  6
CONTINUOUS
 62
     7
 10
0.0
 20
0.0
 30
0.0
 11
-1.0
 21
0.0
 31
0.0
  0
ENDBLK
  8
0
  0
ENDSEC
  0
SECTION
  2
ENTITIES
  0
LINE
  8
OUTLINE
  6
CONTINUOUS
 62
     3
 10
-127.5
 20
194.0
 30
0.0
 11
127.5
 21
194.0
 31
0.0
  0
LINE
  8
OUTLINE
  6
CONTINUOUS
 62
     3
 10
80.0
 20
194.0
 30
0.0
 11
-80.0
 21
194.0
 31
0.0
  0
LINE
  8
OUTLINE
  6
CONTINUOUS
 62
     3
 10
127.5
 20
-194.0
 30
0.0
 11
-127.5
 21
-194.0
 31
0.0
  0
LINE
  8
OUTLINE
  6
CONTINUOUS
 62
     3
 10
-80.0
 20
-194.0
 30
0.0
 11
80.0
 21
-194.0
 31
0.0
  0
LINE
  8
SIZE
  6
CONTINUOUS
 62
    30
 10
80.0
 20
214.0
 30
0.0
 11
80.0
 21
484.28965599999992
 31
0.0
  0
LINE
  8
SIZE
  6
CONTINUOUS
 62
    30
 10
-80.0
 20
214.0
 30
0.0
 11
-80.0
 21
484.28965599999992
 31
0.0
  0
LINE
  8
SIZE
  6
CONTINUOUS
 62
    30
 10
82.0
 20
454.28965599999992
 30
0.0
 11
84.0
 21
454.28965599999992
 31
0.0
  0
LINE
  8
SIZE
  6
CONTINUOUS
 62
    30
 10
-82.0
 20
454.28965599999992
 30
0.0
 11
-84.0
 21
454.28965599999992
 31
0.0
  0
LINE
  8
SIZE
  6
CONTINUOUS
 62
    30
 10
80.0
 20
454.28965599999992
 30
0.0
 11
-297.12557845901762
 21
454.28965599999992
 31
0.0
  0
CIRCLE
  8
SIZE
  6
CONTINUOUS
 62
    30
 10
80.0
 20
454.28965599999992
 30
0.0
 40
6.0
  0
CIRCLE
  8
SIZE
  6
CONTINUOUS
 62
    30
 10
-80.0
 20
454.28965599999992
 30
0.0
 40
6.0
  0
TEXT
  8
SIZE
  6
CONTINUOUS
 62
    30
 10
-301.89554404528229
 20
474.28965599999992
 30
0.0
 40
64.0
  1
φ160
 41
0.9
 72
     1
 11
-193.00411547385369
 21
474.28965599999992
 31
0.0
  0
POINT
  8
DEFPOINTS
  6
CONTINUOUS
 62
    30
 10
80.0
 20
194.0
 30
0.0
  0
POINT
  8
DEFPOINTS
  6
CONTINUOUS
 62
    30
 10
-80.0
 20
194.0
 30
0.0
  0
POINT
  8
DEFPOINTS
  6
CONTINUOUS
 62
    30
 10
-80.0
 20
454.28965599999992
 30
0.0
  0
LINE
  8
SIZE
  6
CONTINUOUS
 62
    30
 10
-185.5
 20
-205.36824999999999
 30
0.0
 11
-185.5
 21
-685.28754000000004
 31
0.0
  0
LINE
  8
SIZE
  6
CONTINUOUS
 62
    30
 10
185.5
 20
-205.36824999999999
 30
0.0
 11
185.5
 21
-685.28754000000004
 31
0.0
  0
LINE
  8
SIZE
  6
CONTINUOUS
 62
    30
 10
-183.5
 20
-655.28754000000004
 30
0.0
 11
183.5
 21
-655.28754000000004
 31
0.0
  0
CIRCLE
  8
SIZE
  6
CONTINUOUS
 62
    30
 10
-185.5
 20
-655.28754000000004
 30
0.0
 40
6.0
  0
CIRCLE
  8
SIZE
  6
CONTINUOUS
 62
    30
 10
185.5
 20
-655.28754000000004
 30
0.0
 40
6.0
  0
TEXT
  8
SIZE
  6
CONTINUOUS
 62
    30
 10
-61.714285714285701
 20
-635.28754000000004
 30
0.0
 40
64.0
  1
371
 41
0.9
 72
     1
 11
0.0
 21
-635.28754000000004
 31
0.0
  0
POINT
  8
DEFPOINTS
  6
CONTINUOUS
 62
    30
 10
-185.5
 20
-185.36824999999999
 30
0.0
  0
POINT
  8
DEFPOINTS
  6
CONTINUOUS
 62
    30
 10
185.5
 20
-185.36824999999999
 30
0.0
  0
POINT
  8
DEFPOINTS
  6
CONTINUOUS
 62
    30
 10
185.5
 20
-655.28754000000004
 30
0.0
  0
LINE
  8
SIZE
  6
CONTINUOUS
 62
    30
 10
165.49999900000009
 20
-219.7103373396026
 30
0.0
 11
165.49999900000009
 21
-552.94514000000004
 31
0.0
  0
LINE
  8
SIZE
  6
CONTINUOUS
 62
    30
 10
-165.49996300000001
 20
-211.54795423799851
 30
0.0
 11
-165.49996300000001
 21
-552.94514000000004
 31
0.0
  0
LINE
  8
SIZE
  6
CONTINUOUS
 62
    30
 10
163.49999900000009
 20
-522.94514000000004
 30
0.0
 11
-163.49996300000001
 21
-522.94514000000004
 31
0.0
  0
CIRCLE
  8
SIZE
  6
CONTINUOUS
 62
    30
 10
165.49999900000009
 20
-522.94514000000004
 30
0.0
 40
6.0
  0
CIRCLE
  8
SIZE
  6
CONTINUOUS
 62
    30
 10
-165.49996300000001
 20
-522.94514000000004
 30
0.0
 40
6.0
  0
TEXT
  8
SIZE
  6
CONTINUOUS
 62
    30
 10
-61.714267714285761
 20
-502.94513999999998
 30
0.0
 40
64.0
  1
331
 41
0.9
 72
     1
 11
0.0000179999999546
 21
-502.94513999999998
 31
0.0
  0
POINT
  8
DEFPOINTS
  6
CONTINUOUS
 62
    30
 10
165.49999900000009
 20
-176.49999800000001
 30
0.0
  0
POINT
  8
DEFPOINTS
  6
CONTINUOUS
 62
    30
 10
-165.49996300000001
 20
-176.49999800000001
 30
0.0
  0
POINT
  8
DEFPOINTS
  6
CONTINUOUS
 62
    30
 10
-165.49996300000001
 20
-522.94514000000004
 30
0.0
  0
LINE
  8
SIZE
  6
CONTINUOUS
 62
    30
 10
127.5
 20
-214.0
 30
0.0
 11
127.5
 21
-411.52228500000001
 31
0.0
  0
LINE
  8
SIZE
  6
CONTINUOUS
 62
    30
 10
-127.5
 20
-214.0
 30
0.0
 11
-127.5
 21
-411.52228500000001
 31
0.0
  0
LINE
  8
SIZE
  6
CONTINUOUS
 62
    30
 10
125.5
 20
-381.52228500000001
 30
0.0
 11
-125.5
 21
-381.52228500000001
 31
0.0
  0
CIRCLE
  8
SIZE
  6
CONTINUOUS
 62
    30
 10
127.5
 20
-381.52228500000001
 30
0.0
 40
6.0
  0
CIRCLE
  8
SIZE
  6
CONTINUOUS
 62
    30
 10
-127.5
 20
-381.52228500000001
 30
0.0
 40
6.0
  0
TEXT
  8
SIZE
  6
CONTINUOUS
 62
    30
 10
-74.05714285714285
 20
-361.52228500000001
 30
0.0
 40
64.0
  1
255
 41
0.9
 72
     1
 11
0.0
 21
-361.52228500000001
 31
0.0
  0
POINT
  8
DEFPOINTS
  6
CONTINUOUS
 62
    30
 10
127.5
 20
-194.0
 30
0.0
  0
POINT
  8
DEFPOINTS
  6
CONTINUOUS
 62
    30
 10
-127.5
 20
-194.0
 30
0.0
  0
POINT
  8
DEFPOINTS
  6
CONTINUOUS
 62
    30
 10
-127.5
 20
-381.52228500000001
 30
0.0
  0
LINE
  8
SIZE
  6
CONTINUOUS
 62
    30
 10
-71.0
 20
284.0
 30
0.0
 11
-71.0
 21
359.69828999999999
 31
0.0
  0
LINE
  8
SIZE
  6
CONTINUOUS
 62
    30
 10
71.0
 20
284.0
 30
0.0
 11
71.0
 21
359.69828999999999
 31
0.0
  0
LINE
  8
SIZE
  6
CONTINUOUS
 62
    30
 10
-73.0
 20
329.69828999999999
 30
0.0
 11
-75.0
 21
329.69828999999999
 31
0.0
  0
LINE
  8
SIZE
  6
CONTINUOUS
 62
    30
 10
73.0
 20
329.69828999999999
 30
0.0
 11
75.0
 21
329.69828999999999
 31
0.0
  0
LINE
  8
SIZE
  6
CONTINUOUS
 62
    30
 10
-296.44505399374788
 20
329.69828999999999
 30
0.0
 11
71.0
 21
329.69828999999999
 31
0.0
  0
CIRCLE
  8
SIZE
  6
CONTINUOUS
 62
    30
 10
-71.0
 20
329.69828999999999
 30
0.0
 40
6.0
  0
CIRCLE
  8
SIZE
  6
CONTINUOUS
 62
    30
 10
71.0
 20
329.69828999999999
 30
0.0
 40
6.0
  0
TEXT
  8
SIZE
  6
CONTINUOUS
 62
    30
 10
-305.29820333523412
 20
349.69828999999999
 30
0.0
 40
64.0
  1
φ142
 41
0.9
 72
     1
 11
-196.40677476380549
 21
349.69828999999999
 31
0.0
  0
POINT
  8
DEFPOINTS
  6
CONTINUOUS
 62
    30
 10
-71.0
 20
264.0
 30
0.0
  0
POINT
  8
DEFPOINTS
  6
CONTINUOUS
 62
    30
 10
71.0
 20
264.0
 30
0.0
  0
POINT
  8
DEFPOINTS
  6
CONTINUOUS
 62
    30
 10
71.0
 20
329.69828999999999
 30
0.0
  0
LINE
  8
DETAIL
  6
CONTINUOUS
 62
     5
 10
72.219575000000077
 20
254.51441700000001
 30
0.0
 11
-72.219575000000077
 21
254.51441700000001
 31
0.0
  0
LINE
  8
DETAIL
  6
CONTINUOUS
 62
     5
 10
71.0
 20
264.0
 30
0.0
 11
-71.0
 21
264.0
 31
0.0
  0
LINE
  8
DETAIL
  6
CONTINUOUS
 62
     5
 10
79.186329999999998
 20
200.3271520000001
 30
0.0
 11
-79.188854999999876
 21
200.30751599999999
 31
0.0
  0
LINE
  8
DETAIL
  6
CONTINUOUS
 62
     5
 10
80.0
 20
194.0
 30
0.0
 11
-80.0
 21
194.0
 31
0.0
  0
LINE
  8
DETAIL
  6
CONTINUOUS
 62
     5
 10
-72.219575000000077
 20
-254.51441700000001
 30
0.0
 11
72.219575000000077
 21
-254.51441700000001
 31
0.0
  0
LINE
  8
DETAIL
  6
CONTINUOUS
 62
     5
 10
-71.0
 20
-264.0
 30
0.0
 11
71.0
 21
-264.0
 31
0.0
  0
LINE
  8
DETAIL
  6
CONTINUOUS
 62
     5
 10
-80.0
 20
-194.0
 30
0.0
 11
80.0
 21
-194.0
 31
0.0
  0
LINE
  8
DETAIL
  6
CONTINUOUS
 62
     5
 10
-79.186329999999998
 20
-200.32715200000001
 30
0.0
 11
79.188854999999876
 21
-200.30751599999999
 31
0.0
  0
LINE
  8
DETAIL
  6
CONTINUOUS
 62
     5
 10
-127.5
 20
194.0
 30
0.0
 11
127.5
 21
194.0
 31
0.0
  0
LINE
  8
DETAIL
  6
CONTINUOUS
 62
     5
 10
127.5
 20
-194.0
 30
0.0
 11
-127.5
 21
-194.0
 31
0.0
  0
CIRCLE
  8
ARRANGE
  6
CONTINUOUS
 62
     1
 10
0.0
 20
0.0
 30
0.0
 40
44.210526000000002
  0
POINT
  8
ARRANGE
  6
CONTINUOUS
 62
     1
 10
0.0
 20
0.0
 30
0.0
  0
LINE
  8
BASIS
  6
DASHDOT
 62
     6
 10
-168.06208599999991
 20
0.0
 30
0.0
 11
168.06208599999991
 21
0.0
 31
0.0
  0
LINE
  8
OUTLINE
  6
CONTINUOUS
 62
     3
 10
-127.5
 20
-194.0
 30
0.0
 11
-127.5
 21
194.0
 31
0.0
  0
LINE
  8
SIZE
  6
CONTINUOUS
 62
    30
 10
-193.585722
 20
197.0
 30
0.0
 11
-469.17616199999998
 21
197.0
 31
0.0
  0
LINE
  8
SIZE
  6
CONTINUOUS
 62
    30
 10
-200.97345000000001
 20
-197.0
 30
0.0
 11
-469.17616199999998
 21
-197.0
 31
0.0
  0
LINE
  8
SIZE
  6
CONTINUOUS
 62
    30
 10
-439.17616199999998
 20
195.0
 30
0.0
 11
-439.17616199999998
 21
-195.0
 31
0.0
  0
CIRCLE
  8
SIZE
  6
CONTINUOUS
 62
    30
 10
-439.17616199999998
 20
197.0
 30
0.0
 40
6.0
  0
CIRCLE
  8
SIZE
  6
CONTINUOUS
 62
    30
 10
-439.17616199999998
 20
-197.0
 30
0.0
 40
6.0
  0
TEXT
  8
SIZE
  6
CONTINUOUS
 62
    30
 10
-459.17616199999998
 20
-75.428571428571416
 30
0.0
 40
64.0
  1
394
 50
90.0
 41
0.9
 72
     1
 11
-459.17616199999998
 21
0.0
 31
0.0
  0
POINT
  8
DEFPOINTS
  6
CONTINUOUS
 62
    30
 10
-173.585722
 20
197.0
 30
0.0
  0
POINT
  8
DEFPOINTS
  6
CONTINUOUS
 62
    30
 10
-180.97345000000001
 20
-197.0
 30
0.0
  0
POINT
  8
DEFPOINTS
  6
CONTINUOUS
 62
    30
 10
-439.17616199999998
 20
-197.0
 30
0.0
  0
LINE
  8
SIZE
  6
CONTINUOUS
 62
    30
 10
-192.39001459259819
 20
176.49999800000001
 30
0.0
 11
-247.93091999999999
 21
176.49999800000001
 31
0.0
  0
LINE
  8
SIZE
  6
CONTINUOUS
 62
    30
 10
-196.9108719800515
 20
-176.49999800000001
 30
0.0
 11
-247.93091999999999
 21
-176.49999800000001
 31
0.0
  0
LINE
  8
SIZE
  6
CONTINUOUS
 62
    30
 10
-217.93091999999999
 20
174.49999800000001
 30
0.0
 11
-217.93091999999999
 21
-174.49999800000001
 31
0.0
  0
CIRCLE
  8
SIZE
  6
CONTINUOUS
 62
    30
 10
-217.93091999999999
 20
176.49999800000001
 30
0.0
 40
6.0
  0
CIRCLE
  8
SIZE
  6
CONTINUOUS
 62
    30
 10
-217.93091999999999
 20
-176.49999800000001
 30
0.0
 40
6.0
  0
TEXT
  8
SIZE
  6
CONTINUOUS
 62
    30
 10
-237.93091999999999
 20
-74.057142857142836
 30
0.0
 40
64.0
  1
353
 50
90.0
 41
0.9
 72
     1
 11
-237.93091999999999
 21
0.0
 31
0.0
  0
POINT
  8
DEFPOINTS
  6
CONTINUOUS
 62
    30
 10
-165.49999900000009
 20
176.49999800000001
 30
0.0
  0
POINT
  8
DEFPOINTS
  6
CONTINUOUS
 62
    30
 10
-165.49999900000009
 20
-176.49999800000001
 30
0.0
  0
POINT
  8
DEFPOINTS
  6
CONTINUOUS
 62
    30
 10
-217.93091999999999
 20
-176.49999800000001
 30
0.0
  0
LINE
  8
SIZE
  6
CONTINUOUS
 62
    30
 10
-147.5
 20
194.0
 30
0.0
 11
-357.73579000000001
 21
194.0
 31
0.0
  0
LINE
  8
SIZE
  6
CONTINUOUS
 62
    30
 10
-147.5
 20
-194.0
 30
0.0
 11
-357.73579000000001
 21
-194.0
 31
0.0
  0
LINE
  8
SIZE
  6
CONTINUOUS
 62
    30
 10
-327.73579000000001
 20
192.0
 30
0.0
 11
-327.73579000000001
 21
-192.0
 31
0.0
  0
CIRCLE
  8
SIZE
  6
CONTINUOUS
 62
    30
 10
-327.73579000000001
 20
194.0
 30
0.0
 40
6.0
  0
CIRCLE
  8
SIZE
  6
CONTINUOUS
 62
    30
 10
-327.73579000000001
 20
-194.0
 30
0.0
 40
6.0
  0
TEXT
  8
SIZE
  6
CONTINUOUS
 62
    30
 10
-347.73579000000001
 20
-74.057142857142836
 30
0.0
 40
64.0
  1
388
 50
90.0
 41
0.9
 72
     1
 11
-347.73579000000001
 21
0.0
 31
0.0
  0
POINT
  8
DEFPOINTS
  6
CONTINUOUS
 62
    30
 10
-127.5
 20
194.0
 30
0.0
  0
POINT
  8
DEFPOINTS
  6
CONTINUOUS
 62
    30
 10
-127.5
 20
-194.0
 30
0.0
  0
POINT
  8
DEFPOINTS
  6
CONTINUOUS
 62
    30
 10
-327.73579000000001
 20
-194.0
 30
0.0
  0
LINE
  8
DETAIL
  6
CONTINUOUS
 62
     5
 10
-127.5
 20
-194.0
 30
0.0
 11
-127.5
 21
194.0
 31
0.0
  0
LINE
  8
BASIS
  6
DASHDOT
 62
     6
 10
0.0
 20
-282.4403432010472
 30
0.0
 11
0.0
 21
313.61028800000003
 31
0.0
  0
LINE
  8
DETAIL
  6
CONTINUOUS
 62
     5
 10
-171.0
 20
-156.5
 30
0.0
 11
-171.0
 21
-176.5
 31
0.0
  0
LINE
  8
DETAIL
  6
CONTINUOUS
 62
     5
 10
-160.0
 20
-156.5
 30
0.0
 11
-159.99999600000001
 21
-176.5
 31
0.0
  0
LINE
  8
NOTE
  6
CONTINUOUS
 62
     4
 10
-165.49996300000001
 20
-198.60526100000001
 30
0.0
 11
-165.49996300000001
 21
-154.394735
 31
0.0
  0
LINE
  8
DETAIL
  6
CONTINUOUS
 62
     5
 10
-185.5
 20
-156.5
 30
0.0
 11
-185.5
 21
-197.0
 31
0.0
  0
LINE
  8
DETAIL
  6
CONTINUOUS
 62
     5
 10
-96.780651000000034
 20
-197.0
 30
0.0
 11
-185.5
 21
-197.0
 31
0.0
  0
LINE
  8
NOTE
  6
CONTINUOUS
 62
     4
 10
-143.39470000000011
 20
-176.49999800000001
 30
0.0
 11
-187.60522700000001
 21
-176.49999800000001
 31
0.0
  0
CIRCLE
  8
FIX
  6
CONTINUOUS
 62
    11
 10
-165.49996300000001
 20
-176.49999800000001
 30
0.0
 40
5.5
  0
ARC
  8
DETAIL
  6
CONTINUOUS
 62
     5
 10
-165.49996300000001
 20
-176.49999600000001
 30
0.0
 40
5.5000019999999994
 50
180.000020000002
 51
359.99995900000113
  0
LINE
  8
DETAIL
  6
CONTINUOUS
 62
     5
 10
-150.99264500000001
 20
-197.5
 30
0.0
 11
-150.99264500000001
 21
-197.0
 31
0.0
  0
LINE
  8
DETAIL
  6
CONTINUOUS
 62
     5
 10
-150.99267900000001
 20
-197.5
 30
0.0
 11
-120.992679
 21
-197.5
 31
0.0
  0
LINE
  8
DETAIL
  6
CONTINUOUS
 62
     5
 10
-120.992679
 20
-197.5
 30
0.0
 11
-120.992679
 21
-197.0
 31
0.0
  0
LINE
  8
DETAIL
  6
CONTINUOUS
 62
     5
 10
-71.0
 20
-264.0
 30
0.0
 11
-80.0
 21
-194.0
 31
0.0
  0
LINE
  8
DETAIL
  6
CONTINUOUS
 62
     5
 10
-96.780651000000034
 20
-197.0
 30
0.0
 11
-96.780651000000034
 21
-194.0
 31
0.0
  0
LINE
  8
DETAIL
  6
CONTINUOUS
 62
     5
 10
-185.5
 20
-156.5
 30
0.0
 11
-171.0
 21
-156.5
 31
0.0
  0
LINE
  8
OUTLINE
  6
CONTINUOUS
 62
     3
 10
-127.5
 20
-82.869238999999993
 30
0.0
 11
-127.5
 21
-121.57563
 31
0.0
  0
LINE
  8
DETAIL
  6
CONTINUOUS
 62
     5
 10
-160.0
 20
-156.5
 30
0.0
 11
-127.5
 21
-156.5
 31
0.0
  0
LINE
  8
DETAIL
  6
CONTINUOUS
 62
     5
 10
-127.5
 20
-82.869238999999993
 30
0.0
 11
-127.5
 21
-121.57563
 31
0.0
  0
LINE
  8
DETAIL
  6
CONTINUOUS
 62
     5
 10
-160.0
 20
156.5
 30
0.0
 11
-159.99999600000001
 21
176.5
 31
0.0
  0
LINE
  8
DETAIL
  6
CONTINUOUS
 62
     5
 10
-171.0
 20
156.5
 30
0.0
 11
-171.0
 21
176.5
 31
0.0
  0
LINE
  8
NOTE
  6
CONTINUOUS
 62
     4
 10
-165.49999900000009
 20
198.60526100000001
 30
0.0
 11
-165.49999900000009
 21
154.394735
 31
0.0
  0
LINE
  8
DETAIL
  6
CONTINUOUS
 62
     5
 10
-185.5
 20
156.5
 30
0.0
 11
-185.5
 21
197.0
 31
0.0
  0
LINE
  8
DETAIL
  6
CONTINUOUS
 62
     5
 10
-185.5
 20
156.5
 30
0.0
 11
-171.0
 21
156.5
 31
0.0
  0
LINE
  8
DETAIL
  6
CONTINUOUS
 62
     5
 10
-160.0
 20
156.5
 30
0.0
 11
-127.5
 21
156.5
 31
0.0
  0
LINE
  8
DETAIL
  6
CONTINUOUS
 62
     5
 10
-96.780651000000034
 20
197.0
 30
0.0
 11
-185.5
 21
197.0
 31
0.0
  0
LINE
  8
NOTE
  6
CONTINUOUS
 62
     4
 10
-143.39473599999999
 20
176.49999800000001
 30
0.0
 11
-187.60526200000001
 21
176.49999800000001
 31
0.0
  0
ARC
  8
DETAIL
  6
CONTINUOUS
 62
     5
 10
-165.49999800000001
 20
176.49999600000001
 30
0.0
 40
5.5000019999999994
 50
0.0000409999989153
 51
179.999979999998
  0
CIRCLE
  8
FIX
  6
CONTINUOUS
 62
    11
 10
-165.49999900000009
 20
176.49999800000001
 30
0.0
 40
5.5
  0
LINE
  8
DETAIL
  6
CONTINUOUS
 62
     5
 10
-120.992679
 20
197.5
 30
0.0
 11
-120.992679
 21
197.0
 31
0.0
  0
LINE
  8
DETAIL
  6
CONTINUOUS
 62
     5
 10
-150.99267900000001
 20
197.5
 30
0.0
 11
-150.99267900000001
 21
197.0
 31
0.0
  0
LINE
  8
DETAIL
  6
CONTINUOUS
 62
     5
 10
-150.99267900000001
 20
197.5
 30
0.0
 11
-120.992679
 21
197.5
 31
0.0
  0
LINE
  8
DETAIL
  6
CONTINUOUS
 62
     5
 10
-80.0
 20
194.0
 30
0.0
 11
-71.0
 21
264.0
 31
0.0
  0
LINE
  8
DETAIL
  6
CONTINUOUS
 62
     5
 10
-96.780651000000034
 20
197.0
 30
0.0
 11
-96.780651000000034
 21
194.0
 31
0.0
  0
LINE
  8
OUTLINE
  6
CONTINUOUS
 62
     3
 10
127.5
 20
194.0
 30
0.0
 11
127.5
 21
-194.0
 31
0.0
  0
LINE
  8
SIZE
  6
CONTINUOUS
 62
    30
 10
185.49999900000009
 20
-136.5
 30
0.0
 11
185.49999900000009
 21
8.5804739999999811
 31
0.0
  0
LINE
  8
SIZE
  6
CONTINUOUS
 62
    30
 10
165.49999900000009
 20
-137.493414
 30
0.0
 11
165.49999900000009
 21
8.5804739999999811
 31
0.0
  0
LINE
  8
SIZE
  6
CONTINUOUS
 62
    30
 10
187.49999900000009
 20
-21.419526000000019
 30
0.0
 11
189.49999900000009
 21
-21.419526000000019
 31
0.0
  0
LINE
  8
SIZE
  6
CONTINUOUS
 62
    30
 10
163.49999900000009
 20
-21.419526000000019
 30
0.0
 11
161.49999900000009
 21
-21.419526000000019
 31
0.0
  0
LINE
  8
SIZE
  6
CONTINUOUS
 62
    30
 10
383.25057299999997
 20
-21.419526000000019
 30
0.0
 11
185.49999900000009
 21
-21.419526000000019
 31
0.0
  0
TEXT
  8
SIZE
  6
CONTINUOUS
 62
    30
 10
269.99343057142858
 20
-1.4195260000000189
 30
0.0
 40
64.0
  1
20
 41
0.9
 72
     1
 11
316.62200200000012
 21
-1.4195260000000189
 31
0.0
  0
LINE
  8
SIZE
  6
CONTINUOUS
 62
    30
 10
185.49999900000009
 20
-21.419526000000019
 30
0.0
 11
165.49999900000009
 21
-21.419526000000019
 31
0.0
  0
LINE
  8
SIZE
  6
CONTINUOUS
 62
    30
 10
185.49999900000009
 20
-21.419526000000019
 30
0.0
 11
165.49999900000009
 21
-21.419526000000019
 31
0.0
  0
CIRCLE
  8
SIZE
  6
CONTINUOUS
 62
    30
 10
185.49999900000009
 20
-21.419526000000019
 30
0.0
 40
6.0
  0
CIRCLE
  8
SIZE
  6
CONTINUOUS
 62
    30
 10
165.49999900000009
 20
-21.419526000000019
 30
0.0
 40
6.0
  0
POINT
  8
DEFPOINTS
  6
CONTINUOUS
 62
    30
 10
185.49999900000009
 20
-156.5
 30
0.0
  0
POINT
  8
DEFPOINTS
  6
CONTINUOUS
 62
    30
 10
165.49999900000009
 20
-157.493414
 30
0.0
  0
POINT
  8
DEFPOINTS
  6
CONTINUOUS
 62
    30
 10
165.49999900000009
 20
-21.419526000000019
 30
0.0
  0
LINE
  8
DETAIL
  6
CONTINUOUS
 62
     5
 10
127.5
 20
194.0
 30
0.0
 11
127.5
 21
-194.0
 31
0.0
  0
LINE
  8
SIZE
  6
CONTINUOUS
 62
    30
 10
198.25
 20
-156.5
 30
0.0
 11
442.5923150000001
 21
-156.5
 31
0.0
  0
LINE
  8
SIZE
  6
CONTINUOUS
 62
    30
 10
191.03088900000009
 20
-197.5
 30
0.0
 11
442.5923150000001
 21
-197.5
 31
0.0
  0
LINE
  8
SIZE
  6
CONTINUOUS
 62
    30
 10
412.59231499999993
 20
-154.5
 30
0.0
 11
412.59231499999993
 21
-152.5
 31
0.0
  0
LINE
  8
SIZE
  6
CONTINUOUS
 62
    30
 10
412.59231499999993
 20
-199.5
 30
0.0
 11
412.59231499999993
 21
-201.5
 31
0.0
  0
LINE
  8
SIZE
  6
CONTINUOUS
 62
    30
 10
412.59231499999993
 20
-376.29847799999999
 30
0.0
 11
412.59231499999993
 21
-197.5
 31
0.0
  0
TEXT
  8
SIZE
  6
CONTINUOUS
 62
    30
 10
392.59231499999993
 20
-356.29847828571428
 30
0.0
 40
64.0
  1
41
 50
90.0
 41
0.9
 72
     1
 11
392.59231499999993
 21
-322.012764
 31
0.0
  0
LINE
  8
SIZE
  6
CONTINUOUS
 62
    30
 10
412.59231499999993
 20
-156.5
 30
0.0
 11
412.59231499999993
 21
-197.5
 31
0.0
  0
LINE
  8
SIZE
  6
CONTINUOUS
 62
    30
 10
412.59231499999993
 20
-156.5
 30
0.0
 11
412.59231499999993
 21
-197.5
 31
0.0
  0
CIRCLE
  8
SIZE
  6
CONTINUOUS
 62
    30
 10
412.59231499999993
 20
-156.5
 30
0.0
 40
6.0
  0
CIRCLE
  8
SIZE
  6
CONTINUOUS
 62
    30
 10
412.59231499999993
 20
-197.5
 30
0.0
 40
6.0
  0
POINT
  8
DEFPOINTS
  6
CONTINUOUS
 62
    30
 10
178.25
 20
-156.5
 30
0.0
  0
POINT
  8
DEFPOINTS
  6
CONTINUOUS
 62
    30
 10
171.03088900000009
 20
-197.5
 30
0.0
  0
POINT
  8
DEFPOINTS
  6
CONTINUOUS
 62
    30
 10
412.59231499999993
 20
-197.5
 30
0.0
  0
LINE
  8
SIZE
  6
CONTINUOUS
 62
    30
 10
160.0
 20
-136.5
 30
0.0
 11
160.0
 21
-78.409220000000005
 31
0.0
  0
LINE
  8
SIZE
  6
CONTINUOUS
 62
    30
 10
171.0
 20
-136.5
 30
0.0
 11
171.0
 21
-78.409220000000005
 31
0.0
  0
LINE
  8
SIZE
  6
CONTINUOUS
 62
    30
 10
158.0
 20
-108.40922
 30
0.0
 11
156.0
 21
-108.40922
 31
0.0
  0
LINE
  8
SIZE
  6
CONTINUOUS
 62
    30
 10
173.0
 20
-108.40922
 30
0.0
 11
175.0
 21
-108.40922
 31
0.0
  0
LINE
  8
SIZE
  6
CONTINUOUS
 62
    30
 10
343.89933500000012
 20
-108.40922
 30
0.0
 11
171.0
 21
-108.40922
 31
0.0
  0
TEXT
  8
SIZE
  6
CONTINUOUS
 62
    30
 10
266.29933499999993
 20
-88.409220000000005
 30
0.0
 40
64.0
  1
11
 41
0.9
 72
     1
 11
295.09933499999988
 21
-88.409220000000005
 31
0.0
  0
LINE
  8
SIZE
  6
CONTINUOUS
 62
    30
 10
160.0
 20
-108.40922
 30
0.0
 11
171.0
 21
-108.40922
 31
0.0
  0
LINE
  8
SIZE
  6
CONTINUOUS
 62
    30
 10
160.0
 20
-108.40922
 30
0.0
 11
171.0
 21
-108.40922
 31
0.0
  0
CIRCLE
  8
SIZE
  6
CONTINUOUS
 62
    30
 10
160.0
 20
-108.40922
 30
0.0
 40
6.0
  0
CIRCLE
  8
SIZE
  6
CONTINUOUS
 62
    30
 10
171.0
 20
-108.40922
 30
0.0
 40
6.0
  0
POINT
  8
DEFPOINTS
  6
CONTINUOUS
 62
    30
 10
160.0
 20
-156.5
 30
0.0
  0
POINT
  8
DEFPOINTS
  6
CONTINUOUS
 62
    30
 10
171.0
 20
-156.5
 30
0.0
  0
POINT
  8
DEFPOINTS
  6
CONTINUOUS
 62
    30
 10
171.0
 20
-108.40922
 30
0.0
  0
LINE
  8
SIZE
  6
CONTINUOUS
 62
    30
 10
198.25
 20
-176.49999800000001
 30
0.0
 11
322.20215499999989
 21
-176.49999800000001
 31
0.0
  0
LINE
  8
SIZE
  6
CONTINUOUS
 62
    30
 10
198.25
 20
-156.5
 30
0.0
 11
322.20215499999989
 21
-156.5
 31
0.0
  0
LINE
  8
SIZE
  6
CONTINUOUS
 62
    30
 10
292.20215499999989
 20
-178.49999800000001
 30
0.0
 11
292.20215499999989
 21
-180.49999800000001
 31
0.0
  0
LINE
  8
SIZE
  6
CONTINUOUS
 62
    30
 10
292.20215499999989
 20
-154.5
 30
0.0
 11
292.20215499999989
 21
-152.5
 31
0.0
  0
LINE
  8
SIZE
  6
CONTINUOUS
 62
    30
 10
292.20215499999989
 20
-327.34749900000003
 30
0.0
 11
292.20215499999989
 21
-176.49999800000001
 31
0.0
  0
TEXT
  8
SIZE
  6
CONTINUOUS
 62
    30
 10
272.20215499999989
 20
-307.34749942857138
 30
0.0
 40
64.0
  1
20
 50
90.0
 41
0.9
 72
     1
 11
272.20215499999989
 21
-260.71892800000001
 31
0.0
  0
LINE
  8
SIZE
  6
CONTINUOUS
 62
    30
 10
292.20215499999989
 20
-176.49999800000001
 30
0.0
 11
292.20215499999989
 21
-156.5
 31
0.0
  0
LINE
  8
SIZE
  6
CONTINUOUS
 62
    30
 10
292.20215499999989
 20
-176.49999800000001
 30
0.0
 11
292.20215499999989
 21
-156.5
 31
0.0
  0
CIRCLE
  8
SIZE
  6
CONTINUOUS
 62
    30
 10
292.20215499999989
 20
-176.49999800000001
 30
0.0
 40
6.0
  0
CIRCLE
  8
SIZE
  6
CONTINUOUS
 62
    30
 10
292.20215499999989
 20
-156.5
 30
0.0
 40
6.0
  0
POINT
  8
DEFPOINTS
  6
CONTINUOUS
 62
    30
 10
178.25
 20
-176.49999800000001
 30
0.0
  0
POINT
  8
DEFPOINTS
  6
CONTINUOUS
 62
    30
 10
178.25
 20
-156.5
 30
0.0
  0
POINT
  8
DEFPOINTS
  6
CONTINUOUS
 62
    30
 10
292.20215499999989
 20
-156.5
 30
0.0
  0
LINE
  8
DETAIL
  6
CONTINUOUS
 62
     5
 10
160.0
 20
-156.5
 30
0.0
 11
159.99999600000001
 21
-176.5
 31
0.0
  0
LINE
  8
NOTE
  6
CONTINUOUS
 62
     4
 10
165.49999900000009
 20
-198.60526100000001
 30
0.0
 11
165.49999900000009
 21
-154.394735
 31
0.0
  0
LINE
  8
DETAIL
  6
CONTINUOUS
 62
     5
 10
171.0
 20
-156.5
 30
0.0
 11
171.0
 21
-176.5
 31
0.0
  0
LINE
  8
DETAIL
  6
CONTINUOUS
 62
     5
 10
185.5
 20
-156.5
 30
0.0
 11
185.5
 21
-197.0
 31
0.0
  0
LINE
  8
DETAIL
  6
CONTINUOUS
 62
     5
 10
96.780651000000034
 20
-197.0
 30
0.0
 11
185.5
 21
-197.0
 31
0.0
  0
LINE
  8
DETAIL
  6
CONTINUOUS
 62
     5
 10
80.0
 20
-194.0
 30
0.0
 11
71.0
 21
-264.0
 31
0.0
  0
LINE
  8
DETAIL
  6
CONTINUOUS
 62
     5
 10
96.780651000000034
 20
-197.0
 30
0.0
 11
96.780651000000034
 21
-194.0
 31
0.0
  0
LINE
  8
NOTE
  6
CONTINUOUS
 62
     4
 10
143.39473599999999
 20
-176.49999800000001
 30
0.0
 11
187.60526200000001
 21
-176.49999800000001
 31
0.0
  0
CIRCLE
  8
FIX
  6
CONTINUOUS
 62
    11
 10
165.49999900000009
 20
-176.49999800000001
 30
0.0
 40
5.5
  0
ARC
  8
DETAIL
  6
CONTINUOUS
 62
     5
 10
165.49999800000001
 20
-176.49999600000001
 30
0.0
 40
5.5000019999999994
 50
180.0000409999989
 51
359.999979999998
  0
LINE
  8
DETAIL
  6
CONTINUOUS
 62
     5
 10
150.99267900000001
 20
-197.5
 30
0.0
 11
150.99267900000001
 21
-197.0
 31
0.0
  0
LINE
  8
DETAIL
  6
CONTINUOUS
 62
     5
 10
120.992679
 20
-197.5
 30
0.0
 11
120.992679
 21
-197.0
 31
0.0
  0
LINE
  8
DETAIL
  6
CONTINUOUS
 62
     5
 10
150.99267900000001
 20
-197.5
 30
0.0
 11
120.992679
 21
-197.5
 31
0.0
  0
LINE
  8
DETAIL
  6
CONTINUOUS
 62
     5
 10
185.5
 20
-156.5
 30
0.0
 11
171.0
 21
-156.5
 31
0.0
  0
LINE
  8
DETAIL
  6
CONTINUOUS
 62
     5
 10
160.0
 20
-156.5
 30
0.0
 11
127.5
 21
-156.5
 31
0.0
  0
LINE
  8
NOTE
  6
CONTINUOUS
 62
     4
 10
337.82962800000001
 20
454.97249699999998
 30
0.0
 11
494.24617200083048
 21
454.97249699999998
 31
0.0
  0
TEXT
  8
NOTE
  6
CONTINUOUS
 62
     4
 10
356.532872
 20
490.60036700000001
 30
0.0
 40
70.73684200000001
  1
AH
 41
0.9
  0
TEXT
  8
NOTE
  6
CONTINUOUS
 62
     4
 10
-866.73212990545017
 20
-230.38909699999999
 30
0.0
 40
70.73684200000001
  1
端子カバ－
 41
0.9
  0
LINE
  8
NOTE
  6
CONTINUOUS
 62
     4
 10
-877.01689690545027
 20
-276.44726100000003
 30
0.0
 11
-390.88598899999988
 21
-276.44723599999992
 31
0.0
  0
LINE
  8
NOTE
  6
CONTINUOUS
 62
     4
 10
165.49999900000009
 20
176.49999800000001
 30
0.0
 11
337.82962800000001
 21
454.97249699999998
 31
0.0
  0
LINE
  8
NOTE
  6
CONTINUOUS
 62
     4
 10
-153.62213600000001
 20
-84.666226000000037
 30
0.0
 11
-390.88598899999988
 21
-276.44723599999992
 31
0.0
  0
LINE
  8
DETAIL
  6
CONTINUOUS
 62
     5
 10
185.5
 20
156.5
 30
0.0
 11
185.5
 21
197.0
 31
0.0
  0
LINE
  8
DETAIL
  6
CONTINUOUS
 62
     5
 10
171.0
 20
156.5
 30
0.0
 11
171.0
 21
176.5
 31
0.0
  0
LINE
  8
NOTE
  6
CONTINUOUS
 62
     4
 10
165.49999900000009
 20
198.60526100000001
 30
0.0
 11
165.49999900000009
 21
154.394735
 31
0.0
  0
LINE
  8
DETAIL
  6
CONTINUOUS
 62
     5
 10
160.0
 20
156.5
 30
0.0
 11
159.99999600000001
 21
176.5
 31
0.0
  0
LINE
  8
DETAIL
  6
CONTINUOUS
 62
     5
 10
-153.62213600000001
 20
-137.733465
 30
0.0
 11
-153.62213600000001
 21
-16.79765199999995
 31
0.0
  0
ARC
  8
DETAIL
  6
CONTINUOUS
 62
     5
 10
-148.78470300000001
 20
-16.79765199999995
 30
0.0
 40
4.8374329999999999
 50
89.999999999999986
 51
180.0
  0
LINE
  8
DETAIL
  6
CONTINUOUS
 62
     5
 10
-127.5
 20
-11.960219000000039
 30
0.0
 11
-148.78470300000001
 21
-11.960219000000031
 31
0.0
  0
LINE
  8
NOTE
  6
CONTINUOUS
 62
     4
 10
-178.3102770000001
 20
-121.341364
 30
0.0
 11
-153.62213600000001
 21
-84.666226000000037
 31
0.0
  0
LINE
  8
NOTE
  6
CONTINUOUS
 62
     4
 10
-153.62213600000001
 20
-84.666226000000037
 30
0.0
 11
-193.34026299999999
 21
-104.08375599999999
 31
0.0
  0
LINE
  8
DETAIL
  6
CONTINUOUS
 62
     5
 10
185.5
 20
156.5
 30
0.0
 11
171.0
 21
156.5
 31
0.0
  0
ARC
  8
DETAIL
  6
CONTINUOUS
 62
     5
 10
-148.78470300000009
 20
-137.733465
 30
0.0
 40
4.8374329999999999
 50
180.0
 51
270.0
  0
LINE
  8
DETAIL
  6
CONTINUOUS
 62
     5
 10
-127.5
 20
-142.570897
 30
0.0
 11
-148.78470300000009
 21
-142.570897
 31
0.0
  0
LINE
  8
DETAIL
  6
CONTINUOUS
 62
     5
 10
160.0
 20
156.5
 30
0.0
 11
127.5
 21
156.5
 31
0.0
  0
LINE
  8
DETAIL
  6
CONTINUOUS
 62
     5
 10
96.780651000000034
 20
197.0
 30
0.0
 11
185.5
 21
197.0
 31
0.0
  0
LINE
  8
DETAIL
  6
CONTINUOUS
 62
     5
 10
71.0
 20
264.0
 30
0.0
 11
80.0
 21
194.0
 31
0.0
  0
LINE
  8
DETAIL
  6
CONTINUOUS
 62
     5
 10
96.780651000000034
 20
197.0
 30
0.0
 11
96.780651000000034
 21
194.0
 31
0.0
  0
LINE
  8
NOTE
  6
CONTINUOUS
 62
     4
 10
181.1816960000001
 20
217.83587199999999
 30
0.0
 11
165.49999900000009
 21
176.49999800000001
 31
0.0
  0
LINE
  8
NOTE
  6
CONTINUOUS
 62
     4
 10
165.49999900000009
 20
176.49999800000001
 30
0.0
 11
199.74868400000011
 21
204.45706599999991
 31
0.0
  0
LINE
  8
NOTE
  6
CONTINUOUS
 62
     4
 10
143.39473599999999
 20
176.49999800000001
 30
0.0
 11
187.60526200000001
 21
176.49999800000001
 31
0.0
  0
LINE
  8
DETAIL
  6
CONTINUOUS
 62
     5
 10
120.992679
 20
197.5
 30
0.0
 11
120.992679
 21
197.0
 31
0.0
  0
LINE
  8
DETAIL
  6
CONTINUOUS
 62
     5
 10
150.99267900000001
 20
197.5
 30
0.0
 11
120.992679
 21
197.5
 31
0.0
  0
LINE
  8
DETAIL
  6
CONTINUOUS
 62
     5
 10
150.99267900000001
 20
197.5
 30
0.0
 11
150.99267900000001
 21
197.0
 31
0.0
  0
ARC
  8
DETAIL
  6
CONTINUOUS
 62
     5
 10
165.49999800000001
 20
176.49999600000001
 30
0.0
 40
5.5000019999999994
 50
0.0000200000020129
 51
179.9999590000011
  0
CIRCLE
  8
FIX
  6
CONTINUOUS
 62
    11
 10
165.49999900000009
 20
176.49999800000001
 30
0.0
 40
5.5
  0
LINE
  8
SIZE
  6
CONTINUOUS
 62
    30
 10
-75.864061263861004
 20
264.0
 30
0.0
 11
-357.73579000000001
 21
264.0
 31
0.0
  0
LINE
  8
SIZE
  6
CONTINUOUS
 62
    30
 10
-134.9082943562353
 20
194.0
 30
0.0
 11
-357.73579000000001
 21
194.0
 31
0.0
  0
LINE
  8
SIZE
  6
CONTINUOUS
 62
    30
 10
-327.73579000000001
 20
262.0
 30
0.0
 11
-327.73579000000001
 21
196.0
 31
0.0
  0
LINE
  8
SIZE
  6
CONTINUOUS
 62
    30
 10
-327.73579000000001
 20
413.70946400000003
 30
0.0
 11
-327.73579000000001
 21
264.0
 31
0.0
  0
TEXT
  8
SIZE
  6
CONTINUOUS
 62
    30
 10
-347.73579000000001
 20
300.45232057142852
 30
0.0
 40
64.0
  1
70
 50
90.0
 41
0.9
 72
     1
 11
-347.73579000000001
 21
347.08089199999989
 31
0.0
  0
CIRCLE
  8
SIZE
  6
CONTINUOUS
 62
    30
 10
-327.73579000000001
 20
264.0
 30
0.0
 40
6.0
  0
CIRCLE
  8
SIZE
  6
CONTINUOUS
 62
    30
 10
-327.73579000000001
 20
194.0
 30
0.0
 40
6.0
  0
POINT
  8
DEFPOINTS
  6
CONTINUOUS
 62
    30
 10
0.0
 20
264.0
 30
0.0
  0
POINT
  8
DEFPOINTS
  6
CONTINUOUS
 62
    30
 10
0.0
 20
194.0
 30
0.0
  0
POINT
  8
DEFPOINTS
  6
CONTINUOUS
 62
    30
 10
-327.73579000000001
 20
194.0
 30
0.0
  0
LINE
  8
SIZE
  6
CONTINUOUS
 62
    30
 10
-83.151114083755601
 20
-264.0
 30
0.0
 11
-357.73579000000001
 21
-264.0
 31
0.0
  0
LINE
  8
SIZE
  6
CONTINUOUS
 62
    30
 10
-138.40008520002991
 20
-194.0
 30
0.0
 11
-357.73579000000001
 21
-194.0
 31
0.0
  0
LINE
  8
SIZE
  6
CONTINUOUS
 62
    30
 10
-327.73579000000001
 20
-262.0
 30
0.0
 11
-327.73579000000001
 21
-196.0
 31
0.0
  0
LINE
  8
SIZE
  6
CONTINUOUS
 62
    30
 10
-327.73579000000001
 20
-409.30747000000002
 30
0.0
 11
-327.73579000000001
 21
-264.0
 31
0.0
  0
TEXT
  8
SIZE
  6
CONTINUOUS
 62
    30
 10
-347.73579000000001
 20
-389.30747042857138
 30
0.0
 40
64.0
  1
70
 50
90.0
 41
0.9
 72
     1
 11
-347.73579000000001
 21
-342.678899
 31
0.0
  0
CIRCLE
  8
SIZE
  6
CONTINUOUS
 62
    30
 10
-327.73579000000001
 20
-264.0
 30
0.0
 40
6.0
  0
CIRCLE
  8
SIZE
  6
CONTINUOUS
 62
    30
 10
-327.73579000000001
 20
-194.0
 30
0.0
 40
6.0
  0
POINT
  8
DEFPOINTS
  6
CONTINUOUS
 62
    30
 10
0.0
 20
-264.0
 30
0.0
  0
POINT
  8
DEFPOINTS
  6
CONTINUOUS
 62
    30
 10
0.0
 20
-194.0
 30
0.0
  0
POINT
  8
DEFPOINTS
  6
CONTINUOUS
 62
    30
 10
-327.73579000000001
 20
-194.0
 30
0.0
  0
TEXT
  8
ETC
  6
CONTINUOUS
 62
    61
 10
566.19781158270655
 20
722.45763648367051
 30
0.0
 40
60.0
  1
BFS-40SG2_6
 41
0.9
  0
TEXT
  8
ETC
  6
CONTINUOUS
 62
    61
 10
560.07048408270657
 20
628.33895398367031
 30
0.0
 40
60.0
  1
産業扇
 41
0.9
  0
TEXT
  8
ETC
  6
CONTINUOUS
 62
    61
 10
614.82158571762716
 20
557.76551158420671
 30
0.0
 40
40.0
  1
BFS-40SG2
 41
0.9
  0
ENDSEC
  0
EOF
