  0
SECTION
  2
HEADER
  9
$ACADVER
  1
AC1009
  9
$DWGCODEPAGE
  3
dos932
  9
$INSBASE
 10
0.0
 20
0.0
 30
0.0
  9
$EXTMIN
 10
-488.53452917949289
 20
-552.10875306756861
 30
-0.0030516297567118
  9
$EXTMAX
 10
1045.5001946951941
 20
765.19776213122168
 30
0.0007631257219032
  9
$LIMMIN
 10
-2970.0
 20
-2100.0
  9
$LIMMAX
 10
2970.0
 20
2100.0
  9
$ORTHOMODE
 70
     1
  9
$REGENMODE
 70
     1
  9
$FILLMODE
 70
     1
  9
$QTEXTMODE
 70
     0
  9
$MIRRTEXT
 70
     0
  9
$LTSCALE
 40
20.0
  9
$ATTMODE
 70
     1
  9
$TEXTSIZE
 40
64.0
  9
$TRACEWID
 40
0.05
  9
$TEXTSTYLE
  7
STANDARD
  9
$CLAYER
  8
SIZE
  9
$CELTYPE
  6
CONTINUOUS
  9
$CECOLOR
 62
     7
  9
$DIMSCALE
 40
1.0
  9
$DIMASZ
 40
12.0
  9
$DIMEXO
 40
20.0
  9
$DIMDLI
 40
200.0
  9
$DIMRND
 40
0.0
  9
$DIMDLE
 40
0.0
  9
$DIMEXE
 40
20.0
  9
$DIMTP
 40
0.0
  9
$DIMTM
 40
0.0
  9
$DIMTXT
 40
64.0
  9
$DIMCEN
 40
0.09
  9
$DIMTSZ
 40
0.0
  9
$DIMTOL
 70
     0
  9
$DIMLIM
 70
     0
  9
$DIMTIH
 70
     0
  9
$DIMTOH
 70
     0
  9
$DIMSE1
 70
     0
  9
$DIMSE2
 70
     0
  9
$DIMTAD
 70
     1
  9
$DIMZIN
 70
     8
  9
$DIMBLK
  1

  9
$DIMASO
 70
     1
  9
$DIMSHO
 70
     0
  9
$DIMPOST
  1

  9
$DIMAPOST
  1

  9
$DIMALT
 70
     0
  9
$DIMALTD
 70
     2
  9
$DIMALTF
 40
25.399999999999999
  9
$DIMLFAC
 40
1.0
  9
$DIMTOFL
 70
     1
  9
$DIMTVP
 40
0.0
  9
$DIMTIX
 70
     1
  9
$DIMSOXD
 70
     0
  9
$DIMSAH
 70
     0
  9
$DIMBLK1
  1

  9
$DIMBLK2
  1

  9
$DIMSTYLE
  2
STANDARD
  9
$DIMCLRD
 70
     7
  9
$DIMCLRE
 70
     7
  9
$DIMCLRT
 70
     7
  9
$DIMTFAC
 40
1.0
  9
$DIMGAP
 40
25.0
  9
$LUNITS
 70
     2
  9
$LUPREC
 70
     4
  9
$SKETCHINC
 40
0.1
  9
$FILLETRAD
 40
3.0
  9
$AUNITS
 70
     1
  9
$AUPREC
 70
     3
  9
$MENU
  1
ACAD
  9
$ELEVATION
 40
0.0
  9
$PELEVATION
 40
0.0
  9
$THICKNESS
 40
0.0
  9
$LIMCHECK
 70
     0
  9
$CHAMFERA
 40
0.0
  9
$CHAMFERB
 40
0.0
  9
$SKPOLY
 70
     0
  9
$TDCREATE
 40
2453019.62301037
  9
$TDUPDATE
 40
2459268.670188264
  9
$TDINDWG
 40
1.7858608912
  9
$TDUSRTIMER
 40
1.7858608912
  9
$USRTIMER
 70
     1
  9
$ANGBASE
 50
0.0
  9
$ANGDIR
 70
     0
  9
$PDMODE
 70
     3
  9
$PDSIZE
 40
-2.0
  9
$PLINEWID
 40
0.0
  9
$SPLFRAME
 70
     0
  9
$SPLINETYPE
 70
     6
  9
$SPLINESEGS
 70
     8
  9
$SURFTAB1
 70
     6
  9
$SURFTAB2
 70
     6
  9
$SURFTYPE
 70
     6
  9
$SURFU
 70
     6
  9
$SURFV
 70
     6
  9
$UCSNAME
  2

  9
$UCSORG
 10
0.0
 20
0.0
 30
0.0
  9
$UCSXDIR
 10
1.0
 20
0.0
 30
0.0
  9
$UCSYDIR
 10
0.0
 20
1.0
 30
0.0
  9
$PUCSNAME
  2

  9
$PUCSORG
 10
0.0
 20
0.0
 30
0.0
  9
$PUCSXDIR
 10
1.0
 20
0.0
 30
0.0
  9
$PUCSYDIR
 10
0.0
 20
1.0
 30
0.0
  9
$USERI1
 70
     0
  9
$USERI2
 70
     0
  9
$USERI3
 70
     0
  9
$USERI4
 70
     0
  9
$USERI5
 70
     0
  9
$USERR1
 40
20.0
  9
$USERR2
 40
0.0
  9
$USERR3
 40
0.0
  9
$USERR4
 40
0.0
  9
$USERR5
 40
0.0
  9
$WORLDVIEW
 70
     1
  9
$SHADEDGE
 70
     3
  9
$SHADEDIF
 70
    70
  9
$TILEMODE
 70
     1
  9
$MAXACTVP
 70
    48
  9
$PINSBASE
 10
0.0
 20
0.0
 30
0.0
  9
$PLIMCHECK
 70
     0
  9
$PEXTMIN
 10
-100000000000000000000.0
 20
-100000000000000000000.0
 30
-100000000000000000000.0
  9
$PEXTMAX
 10
100000000000000000000.0
 20
100000000000000000000.0
 30
100000000000000000000.0
  9
$PLIMMIN
 10
0.0
 20
0.0
  9
$PLIMMAX
 10
12.0
 20
9.0
  9
$UNITMODE
 70
     0
  9
$VISRETAIN
 70
     0
  9
$PLINEGEN
 70
     0
  9
$PSLTSCALE
 70
     0
  9
$TREEDEPTH
 70
  3020
  9
$ATTDIA
 70
     0
  9
$ATTREQ
 70
     1
  9
$BLIPMODE
 70
     1
  9
$COORDS
 70
     1
  9
$DRAGMODE
 70
     2
  9
$OSMODE
 70
     0
  9
$HANDLING
 70
     0
  9
$HANDSEED
  5
F3E1
  0
ENDSEC
  0
SECTION
  2
TABLES
  0
TABLE
  2
LTYPE
 70
     2
  0
LTYPE
  2
CONTINUOUS
 70
     0
  3
実線
 72
    65
 73
     0
 40
0.0
  0
LTYPE
  2
DASHDOT
 70
     0
  3
____ _ ____ _ ____ _ ____ _ ____ _ ____ _ ____
 72
    65
 73
     4
 40
5.5
 49
4.0
 49
-0.6
 49
0.3
 49
-0.6
  0
ENDTAB
  0
TABLE
  2
LAYER
 70
    12
  0
LAYER
  2
0
 70
     0
 62
     7
  6
CONTINUOUS
  0
LAYER
  2
BASIS
 70
     0
 62
     6
  6
DASHDOT
  0
LAYER
  2
OUTLINE
 70
     0
 62
     3
  6
CONTINUOUS
  0
LAYER
  2
DETAIL
 70
     0
 62
     5
  6
CONTINUOUS
  0
LAYER
  2
SIZE
 70
     0
 62
    30
  6
CONTINUOUS
  0
LAYER
  2
ARRANGE
 70
     0
 62
     1
  6
CONTINUOUS
  0
LAYER
  2
DEFPOINTS
 70
     0
 62
     7
  6
CONTINUOUS
  0
LAYER
  2
ETC
 70
     0
 62
    61
  6
CONTINUOUS
  0
LAYER
  2
FIX
 70
     0
 62
    11
  6
CONTINUOUS
  0
LAYER
  2
NOTE
 70
     0
 62
     4
  6
CONTINUOUS
  0
LAYER
  2
SERVICESPACE
 70
    64
 62
     2
  6
DASHDOT
  0
LAYER
  2
SYMBOLLINE
 70
    64
 62
    15
  6
CONTINUOUS
  0
ENDTAB
  0
TABLE
  2
STYLE
 70
     1
  0
STYLE
  2
STANDARD
 70
     0
 40
64.0
 41
0.9
 50
0.0
 71
     0
 42
64.0
  3
SIMPLEX.shx
  4
BIGFONT.shx
  0
ENDTAB
  0
TABLE
  2
APPID
 70
    19
  0
APPID
  2
ACAD
 70
     0
  0
APPID
  2
AUTOCAD_POSTSCRIPT_FIGURE
 70
     0
  0
APPID
  2
ACAD_EXEMPT_FROM_CAD_STANDARDS
 70
     0
  0
APPID
  2
ACAD_PSEXT
 70
     0
  0
APPID
  2
ACAUTHENVIRON
 70
     0
  0
APPID
  2
GENIUS_GENOENT_13
 70
     0
  0
APPID
  2
GENIUS_GENCFG_13
 70
     0
  0
APPID
  2
GENIUS_GENCFG0_13
 70
     0
  0
APPID
  2
GENIUS_GENCFG1_13
 70
     0
  0
APPID
  2
GENIUS_GENCFG2_13
 70
     0
  0
APPID
  2
GENIUS_GENCFG3_13
 70
     0
  0
APPID
  2
GENIUS_GENCFG4_13
 70
     0
  0
APPID
  2
GENIUS_GEVCFG0_13
 70
     0
  0
APPID
  2
CONTENTBLOCKICON
 70
     0
  0
APPID
  2
CONTENTBLOCKDESCRIPTION
 70
     0
  0
APPID
  2
ACAD_NAV_VCDISPLAY
 70
     0
  0
APPID
  2
ACAD_MLEADERVER
 70
     0
  0
APPID
  2
ACDBDYNAMICBLOCKTRUENAME
 70
     0
  0
APPID
  2
ACDBDYNAMICBLOCKGUID
 70
     0
  0
ENDTAB
  0
TABLE
  2
DIMSTYLE
 70
     1
  0
DIMSTYLE
  2
STANDARD
 70
     0
  3

  4

  5
_ORIGIN
  6

  7

 40
1.0
 41
12.0
 42
20.0
 43
200.0
 44
20.0
 45
0.0
 46
0.0
 47
0.0
 48
0.0
140
64.0
141
0.09
142
0.0
143
25.399999999999999
144
1.0
145
0.0
146
1.0
147
25.0
 71
     0
 72
     0
 73
     0
 74
     0
 75
     0
 76
     0
 77
     1
 78
     8
170
     0
171
     2
172
     1
173
     0
174
     1
175
     0
176
     7
177
     7
178
     7
  0
ENDTAB
  0
TABLE
  2
VIEW
 70
     1
  0
VIEW
  2
ALL
 70
     0
 40
4282.6198079999986
 10
0.0
 20
41.309904000000003
 41
5940.0
 11
0.0
 21
0.0
 31
1.0
 12
0.0
 22
0.0
 32
0.0
 42
50.0
 43
0.0
 44
0.0
 50
0.0
 71
     0
  0
ENDTAB
  0
TABLE
  2
UCS
 70
     0
  0
ENDTAB
  0
TABLE
  2
VPORT
 70
     1
  0
VPORT
  2
*ACTIVE
 70
     0
 10
0.0
 20
0.0
 11
1.0
 21
1.0
 12
278.48283275785059
 22
106.5445045318265
 13
0.0
 23
0.0
 14
1.0
 24
1.0
 15
0.0
 25
0.0
 16
0.0
 26
0.0
 36
1.0
 17
0.0
 27
0.0
 37
0.0
 40
1326.3021143079011
 41
1.767337807606264
 42
50.0
 43
0.0
 44
0.0
 50
0.0
 51
0.0
 71
     0
 72
  1000
 73
     1
 74
     3
 75
     0
 76
     0
 77
     0
 78
     0
  0
ENDTAB
  0
ENDSEC
  0
SECTION
  2
BLOCKS
  0
BLOCK
  8
0
  2
_ORIGIN
 70
     0
 10
0.0
 20
0.0
 30
0.0
  3
_ORIGIN
  1
_ORIGIN
  0
CIRCLE
  8
SIZE
  6
CONTINUOUS
 62
    30
 10
0.0
 20
0.0
 30
0.0
 40
0.5
  0
LINE
  8
SIZE
  6
CONTINUOUS
 62
    30
 10
0.0
 20
0.0
 30
0.0
 11
-1.0
 21
0.0
 31
0.0
  0
ENDBLK
  8
0
  0
ENDSEC
  0
SECTION
  2
ENTITIES
  0
TEXT
  8
ETC
  6
CONTINUOUS
 62
    61
 10
450.25983611888108
 20
678.70122964030611
 30
0.0
 40
64.0
  1
BFS-40SKA2_1
 41
0.9
  0
TEXT
  8
ETC
  6
CONTINUOUS
 62
    61
 10
446.07384211888069
 20
560.74591962547481
 30
0.0
 40
64.0
  1
産業扇
 41
0.9
  0
CIRCLE
  8
ARRANGE
  6
CONTINUOUS
 62
     1
 10
0.0
 20
0.0
 30
0.0
 40
40.0
  0
POINT
  8
ARRANGE
  6
CONTINUOUS
 62
     1
 10
0.0
 20
0.0
 30
0.0
  0
LINE
  8
BASIS
  6
DASHDOT
 62
     6
 10
0.0
 20
289.61922587200718
 30
0.0
 11
0.0
 21
-289.61922587200718
 31
0.0
  0
LINE
  8
BASIS
  6
DASHDOT
 62
     6
 10
-180.85195011998351
 20
0.0000000000000142
 30
0.0
 11
180.85195011998351
 21
-0.0000000000000142
 31
0.0
  0
TEXT
  8
ETC
  6
CONTINUOUS
 62
    61
 10
496.77524036743671
 20
452.59714673924958
 30
0.0
 40
40.0
  1
BFS-40SKA2
 41
0.9
  0
LINE
  8
SIZE
  6
CONTINUOUS
 62
    30
 10
-185.35700940931
 20
216.99543934290909
 30
0.0
 11
-185.35700940930971
 21
695.92120332255956
 31
0.0
  0
LINE
  8
SIZE
  6
CONTINUOUS
 62
    30
 10
185.6429659187352
 20
216.99543934290909
 30
0.0
 11
185.6429659187352
 21
695.92120332255956
 31
0.0
  0
LINE
  8
SIZE
  6
CONTINUOUS
 62
    30
 10
-173.35700940930971
 20
675.92120332255956
 30
0.0
 11
173.6429659187352
 21
675.92120332255956
 31
0.0
  0
CIRCLE
  8
SIZE
  6
CONTINUOUS
 62
    30
 10
-185.35700940930971
 20
675.92120332255956
 30
0.0
 40
6.0
  0
LINE
  8
SIZE
  6
CONTINUOUS
 62
    30
 10
-185.35700940930971
 20
675.92120332255956
 30
0.0
 11
-173.35700940930971
 21
675.92120332255956
 31
0.0
  0
CIRCLE
  8
SIZE
  6
CONTINUOUS
 62
    30
 10
185.6429659187352
 20
675.92120332255956
 30
0.0
 40
6.0
  0
LINE
  8
SIZE
  6
CONTINUOUS
 62
    30
 10
185.6429659187352
 20
675.92120332255956
 30
0.0
 11
173.6429659187352
 21
675.92120332255956
 31
0.0
  0
TEXT
  8
SIZE
  6
CONTINUOUS
 62
    30
 10
-58.074599785446402
 20
700.92120332255956
 30
0.0
 40
64.0
  1
371
 41
0.9
 72
     1
 11
3.6396859288392989
 21
700.92120332255956
 31
0.0
  0
POINT
  8
DEFPOINTS
  6
CONTINUOUS
 62
    30
 10
-185.35700940931
 20
196.99543934290909
 30
0.0
  0
POINT
  8
DEFPOINTS
  6
CONTINUOUS
 62
    30
 10
185.6429659187352
 20
196.99543934290909
 30
0.0
  0
POINT
  8
DEFPOINTS
  6
CONTINUOUS
 62
    30
 10
185.6429659187352
 20
675.92120332255956
 30
0.0
  0
LINE
  8
SIZE
  6
CONTINUOUS
 62
    30
 10
-165.340053749557
 20
219.71556972705341
 30
0.0
 11
-165.340053749557
 21
567.47503717667507
 31
0.0
  0
LINE
  8
SIZE
  6
CONTINUOUS
 62
    30
 10
165.6832015608675
 20
219.71556972705341
 30
0.0
 11
165.6832015608675
 21
567.47503717667507
 31
0.0
  0
LINE
  8
SIZE
  6
CONTINUOUS
 62
    30
 10
-153.340053749557
 20
547.47503717667496
 30
0.0
 11
153.6832015608675
 21
547.47503717667496
 31
0.0
  0
CIRCLE
  8
SIZE
  6
CONTINUOUS
 62
    30
 10
-165.340053749557
 20
547.47503717667496
 30
0.0
 40
6.0
  0
LINE
  8
SIZE
  6
CONTINUOUS
 62
    30
 10
-165.340053749557
 20
547.47503717667496
 30
0.0
 11
-153.340053749557
 21
547.47503717667496
 31
0.0
  0
CIRCLE
  8
SIZE
  6
CONTINUOUS
 62
    30
 10
165.6832015608675
 20
547.47503717667496
 30
0.0
 40
6.0
  0
LINE
  8
SIZE
  6
CONTINUOUS
 62
    30
 10
165.6832015608675
 20
547.47503717667496
 30
0.0
 11
153.6832015608675
 21
547.47503717667496
 31
0.0
  0
TEXT
  8
SIZE
  6
CONTINUOUS
 62
    30
 10
-59.769600998913511
 20
572.47503717667507
 30
0.0
 40
64.0
  1
331
 41
0.9
 72
     1
 11
1.9446847153722051
 21
572.47503717667507
 31
0.0
  0
POINT
  8
DEFPOINTS
  6
CONTINUOUS
 62
    30
 10
-165.340053749557
 20
199.71556972705341
 30
0.0
  0
POINT
  8
DEFPOINTS
  6
CONTINUOUS
 62
    30
 10
165.6832015608675
 20
199.71556972705341
 30
0.0
  0
POINT
  8
DEFPOINTS
  6
CONTINUOUS
 62
    30
 10
165.6832015608675
 20
547.47503717667496
 30
0.0
  0
LINE
  8
SIZE
  6
CONTINUOUS
 62
    30
 10
-127.3650292979121
 20
212.51979607891349
 30
0.0
 11
-127.3650292979121
 21
439.02887103079001
 31
0.0
  0
LINE
  8
SIZE
  6
CONTINUOUS
 62
    30
 10
127.59379450545249
 20
212.80575258833821
 30
0.0
 11
127.59379450545249
 21
439.02887103079001
 31
0.0
  0
LINE
  8
SIZE
  6
CONTINUOUS
 62
    30
 10
-115.3650292979121
 20
419.02887103079001
 30
0.0
 11
115.59379450545249
 21
419.02887103079001
 31
0.0
  0
CIRCLE
  8
SIZE
  6
CONTINUOUS
 62
    30
 10
-127.3650292979121
 20
419.02887103079001
 30
0.0
 40
6.0
  0
LINE
  8
SIZE
  6
CONTINUOUS
 62
    30
 10
-127.3650292979121
 20
419.02887103079001
 30
0.0
 11
-115.3650292979121
 21
419.02887103079001
 31
0.0
  0
CIRCLE
  8
SIZE
  6
CONTINUOUS
 62
    30
 10
127.59379450545249
 20
419.02887103079001
 30
0.0
 40
6.0
  0
LINE
  8
SIZE
  6
CONTINUOUS
 62
    30
 10
127.59379450545249
 20
419.02887103079001
 30
0.0
 11
115.59379450545249
 21
419.02887103079001
 31
0.0
  0
TEXT
  8
SIZE
  6
CONTINUOUS
 62
    30
 10
-72.112458141770645
 20
444.02887103079001
 30
0.0
 40
64.0
  1
255
 41
0.9
 72
     1
 11
1.9446847153722051
 21
444.02887103079001
 31
0.0
  0
POINT
  8
DEFPOINTS
  6
CONTINUOUS
 62
    30
 10
-127.3650292979121
 20
192.51979607891349
 30
0.0
  0
POINT
  8
DEFPOINTS
  6
CONTINUOUS
 62
    30
 10
127.59379450545249
 20
192.80575258833821
 30
0.0
  0
POINT
  8
DEFPOINTS
  6
CONTINUOUS
 62
    30
 10
127.59379450545249
 20
419.02887103079001
 30
0.0
  0
LINE
  8
SIZE
  6
CONTINUOUS
 62
    30
 10
-213.71307656064101
 20
176.29218806053629
 30
0.0
 11
-285.41176442247342
 21
176.29218806053629
 31
0.0
  0
LINE
  8
SIZE
  6
CONTINUOUS
 62
    30
 10
-213.71307656064121
 20
-177.07814456996149
 30
0.0
 11
-285.41176442247342
 21
-177.07814456996149
 31
0.0
  0
LINE
  8
SIZE
  6
CONTINUOUS
 62
    30
 10
-265.41176442247342
 20
164.29218806053629
 30
0.0
 11
-265.41176442247342
 21
-165.07814456996149
 31
0.0
  0
CIRCLE
  8
SIZE
  6
CONTINUOUS
 62
    30
 10
-265.41176442247342
 20
176.29218806053629
 30
0.0
 40
6.0
  0
LINE
  8
SIZE
  6
CONTINUOUS
 62
    30
 10
-265.41176442247342
 20
176.29218806053629
 30
0.0
 11
-265.41176442247342
 21
164.29218806053629
 31
0.0
  0
CIRCLE
  8
SIZE
  6
CONTINUOUS
 62
    30
 10
-265.41176442247342
 20
-177.07814456996149
 30
0.0
 40
6.0
  0
LINE
  8
SIZE
  6
CONTINUOUS
 62
    30
 10
-265.41176442247342
 20
-177.07814456996149
 30
0.0
 11
-265.41176442247342
 21
-165.07814456996149
 31
0.0
  0
TEXT
  8
SIZE
  6
CONTINUOUS
 62
    30
 10
-290.41176442247342
 20
-74.450121111855466
 30
0.0
 40
64.0
  1
353
 50
90.0
 41
0.9
 72
     1
 11
-290.41176442247342
 21
-0.3929782547126308
 31
0.0
  0
POINT
  8
DEFPOINTS
  6
CONTINUOUS
 62
    30
 10
-193.71307656064101
 20
176.29218806053629
 30
0.0
  0
POINT
  8
DEFPOINTS
  6
CONTINUOUS
 62
    30
 10
-193.71307656064121
 20
-177.07814456996149
 30
0.0
  0
POINT
  8
DEFPOINTS
  6
CONTINUOUS
 62
    30
 10
-265.41176442247342
 20
-177.07814456996149
 30
0.0
  0
LINE
  8
SIZE
  6
CONTINUOUS
 62
    30
 10
-205.35700940931
 20
196.99543934290909
 30
0.0
 11
-419.21310302184071
 21
196.99543934290921
 31
0.0
  0
LINE
  8
SIZE
  6
CONTINUOUS
 62
    30
 10
-205.35700940931019
 20
-197.16701324856419
 30
0.0
 11
-419.21310302184071
 21
-197.1670132485641
 31
0.0
  0
LINE
  8
SIZE
  6
CONTINUOUS
 62
    30
 10
-399.21310302184071
 20
184.99543934290921
 30
0.0
 11
-399.21310302184071
 21
-185.16701324856419
 31
0.0
  0
CIRCLE
  8
SIZE
  6
CONTINUOUS
 62
    30
 10
-399.21310302184071
 20
196.99543934290921
 30
0.0
 40
6.0
  0
LINE
  8
SIZE
  6
CONTINUOUS
 62
    30
 10
-399.21310302184071
 20
196.99543934290921
 30
0.0
 11
-399.21310302184071
 21
184.99543934290921
 31
0.0
  0
CIRCLE
  8
SIZE
  6
CONTINUOUS
 62
    30
 10
-399.21310302184071
 20
-197.16701324856419
 30
0.0
 40
6.0
  0
LINE
  8
SIZE
  6
CONTINUOUS
 62
    30
 10
-399.21310302184071
 20
-197.16701324856419
 30
0.0
 11
-399.21310302184071
 21
-185.16701324856419
 31
0.0
  0
TEXT
  8
SIZE
  6
CONTINUOUS
 62
    30
 10
-424.21310302184071
 20
-75.514358381398921
 30
0.0
 40
64.0
  1
394
 50
90.0
 41
0.9
 72
     1
 11
-424.21310302184071
 21
-0.0857869528275046
 31
0.0
  0
POINT
  8
DEFPOINTS
  6
CONTINUOUS
 62
    30
 10
-185.35700940931
 20
196.99543934290909
 30
0.0
  0
POINT
  8
DEFPOINTS
  6
CONTINUOUS
 62
    30
 10
-185.35700940931019
 20
-197.16701324856419
 30
0.0
  0
POINT
  8
DEFPOINTS
  6
CONTINUOUS
 62
    30
 10
-399.21310302184071
 20
-197.16701324856419
 30
0.0
  0
CIRCLE
  8
FIX
  6
CONTINUOUS
 62
    11
 10
165.6832015608675
 20
-177.07814456996149
 30
0.0
 40
5.0
  0
LINE
  8
NOTE
  6
CONTINUOUS
 62
     4
 10
165.6832015608675
 20
-200.00152623647861
 30
0.0
 11
165.6832015608675
 21
-153.8547629034444
 31
0.0
  0
LINE
  8
NOTE
  6
CONTINUOUS
 62
     4
 10
194.056224371951
 20
-177.07814456996149
 30
0.0
 11
137.31017874978349
 21
-177.07814456996149
 31
0.0
  0
CIRCLE
  8
FIX
  6
CONTINUOUS
 62
    11
 10
-165.3400537495572
 20
-177.07814456996149
 30
0.0
 40
5.0
  0
LINE
  8
NOTE
  6
CONTINUOUS
 62
     4
 10
-165.3400537495572
 20
-200.00152623647861
 30
0.0
 11
-165.3400537495572
 21
-153.85476290344451
 31
0.0
  0
LINE
  8
NOTE
  6
CONTINUOUS
 62
     4
 10
-136.9670309384735
 20
-177.07814456996149
 30
0.0
 11
-193.71307656064121
 21
-177.07814456996149
 31
0.0
  0
CIRCLE
  8
FIX
  6
CONTINUOUS
 62
    11
 10
-165.340053749557
 20
176.29218806053629
 30
0.0
 40
5.0
  0
LINE
  8
NOTE
  6
CONTINUOUS
 62
     4
 10
-165.340053749557
 20
153.06880639401919
 30
0.0
 11
-165.340053749557
 21
199.21556972705341
 31
0.0
  0
LINE
  8
NOTE
  6
CONTINUOUS
 62
     4
 10
-136.9670309384733
 20
176.29218806053629
 30
0.0
 11
-193.71307656064101
 21
176.29218806053629
 31
0.0
  0
CIRCLE
  8
FIX
  6
CONTINUOUS
 62
    11
 10
165.6832015608675
 20
176.29218806053629
 30
0.0
 40
5.0
  0
LINE
  8
NOTE
  6
CONTINUOUS
 62
     4
 10
165.6832015608675
 20
153.06880639401919
 30
0.0
 11
165.6832015608675
 21
199.21556972705341
 31
0.0
  0
LINE
  8
NOTE
  6
CONTINUOUS
 62
     4
 10
194.0562243719514
 20
176.29218806053629
 30
0.0
 11
137.31017874978369
 21
176.29218806053629
 31
0.0
  0
LINE
  8
SIZE
  6
CONTINUOUS
 62
    30
 10
-71.012326555174241
 20
-278.26203062334599
 30
0.0
 11
-71.012326555174241
 21
-413.62633165797428
 31
0.0
  0
LINE
  8
SIZE
  6
CONTINUOUS
 62
    30
 10
70.957320880072984
 20
-282.007227869198
 30
0.0
 11
70.957320880072984
 21
-413.62633165797428
 31
0.0
  0
LINE
  8
SIZE
  6
CONTINUOUS
 62
    30
 10
58.957320880072977
 20
-393.62633165797428
 30
0.0
 11
-59.012326555174241
 21
-393.62633165797428
 31
0.0
  0
LINE
  8
SIZE
  6
CONTINUOUS
 62
    30
 10
-71.012326555174241
 20
-393.62633165797428
 30
0.0
 11
-386.2468607447413
 21
-393.62633165797428
 31
0.0
  0
CIRCLE
  8
SIZE
  6
CONTINUOUS
 62
    30
 10
70.957320880072984
 20
-393.62633165797428
 30
0.0
 40
6.0
  0
LINE
  8
SIZE
  6
CONTINUOUS
 62
    30
 10
70.957320880072984
 20
-393.62633165797428
 30
0.0
 11
58.957320880072977
 21
-393.62633165797428
 31
0.0
  0
CIRCLE
  8
SIZE
  6
CONTINUOUS
 62
    30
 10
-71.012326555174241
 20
-393.62633165797428
 30
0.0
 40
6.0
  0
LINE
  8
SIZE
  6
CONTINUOUS
 62
    30
 10
-71.012326555174241
 20
-393.62633165797428
 30
0.0
 11
-59.012326555174241
 21
-393.62633165797428
 31
0.0
  0
TEXT
  8
SIZE
  6
CONTINUOUS
 62
    30
 10
-371.3954321733126
 20
-357.9596649913077
 30
0.0
 40
64.0
  1
φ142
 41
0.9
 72
     1
 11
-262.50400360188411
 21
-357.9596649913077
 31
0.0
  0
POINT
  8
DEFPOINTS
  6
CONTINUOUS
 62
    30
 10
-71.012326555174241
 20
-258.26203062334599
 30
0.0
  0
POINT
  8
DEFPOINTS
  6
CONTINUOUS
 62
    30
 10
70.957320880072984
 20
-262.007227869198
 30
0.0
  0
POINT
  8
DEFPOINTS
  6
CONTINUOUS
 62
    30
 10
70.957320880072984
 20
-393.62633165797428
 30
0.0
  0
LINE
  8
SIZE
  6
CONTINUOUS
 62
    30
 10
79.953440035240874
 20
-224.08716077665031
 30
0.0
 11
79.953440035240874
 21
-552.07368537496359
 31
0.0
  0
LINE
  8
SIZE
  6
CONTINUOUS
 62
    30
 10
-79.896248733355833
 20
-224.08716077665031
 30
0.0
 11
-79.896248733355833
 21
-552.07368537496359
 31
0.0
  0
LINE
  8
SIZE
  6
CONTINUOUS
 62
    30
 10
67.953440035240874
 20
-532.07368537496359
 30
0.0
 11
-67.896248733355833
 21
-532.07368537496359
 31
0.0
  0
LINE
  8
SIZE
  6
CONTINUOUS
 62
    30
 10
-79.896248733355833
 20
-532.07368537496359
 30
0.0
 11
-388.9230684231643
 21
-532.07368537496359
 31
0.0
  0
CIRCLE
  8
SIZE
  6
CONTINUOUS
 62
    30
 10
79.953440035240874
 20
-532.07368537496359
 30
0.0
 40
6.0
  0
LINE
  8
SIZE
  6
CONTINUOUS
 62
    30
 10
79.953440035240874
 20
-532.07368537496359
 30
0.0
 11
67.953440035240874
 21
-532.07368537496359
 31
0.0
  0
CIRCLE
  8
SIZE
  6
CONTINUOUS
 62
    30
 10
-79.896248733355833
 20
-532.07368537496359
 30
0.0
 40
6.0
  0
LINE
  8
SIZE
  6
CONTINUOUS
 62
    30
 10
-79.896248733355833
 20
-532.07368537496359
 30
0.0
 11
-67.896248733355833
 21
-532.07368537496359
 31
0.0
  0
TEXT
  8
SIZE
  6
CONTINUOUS
 62
    30
 10
-374.07163985173571
 20
-496.40701870829702
 30
0.0
 40
64.0
  1
φ160
 41
0.9
 72
     1
 11
-265.18021128030699
 21
-496.40701870829702
 31
0.0
  0
POINT
  8
DEFPOINTS
  6
CONTINUOUS
 62
    30
 10
79.953440035240874
 20
-204.08716077665031
 30
0.0
  0
POINT
  8
DEFPOINTS
  6
CONTINUOUS
 62
    30
 10
-79.896248733355833
 20
-204.08716077665031
 30
0.0
  0
POINT
  8
DEFPOINTS
  6
CONTINUOUS
 62
    30
 10
-79.896248733355833
 20
-532.07368537496359
 30
0.0
  0
LINE
  8
SIZE
  6
CONTINUOUS
 62
    30
 10
88.457988356354235
 20
-264.52364515213839
 30
0.0
 11
365.56827127091492
 21
-264.5236451521385
 31
0.0
  0
LINE
  8
SIZE
  6
CONTINUOUS
 62
    30
 10
146.67873367529231
 20
-194.5786829467738
 30
0.0
 11
365.56827127091492
 21
-194.57868294677391
 31
0.0
  0
LINE
  8
SIZE
  6
CONTINUOUS
 62
    30
 10
345.56827127091492
 20
-182.57868294677391
 30
0.0
 11
345.56827127091492
 21
-170.57868294677391
 31
0.0
  0
LINE
  8
SIZE
  6
CONTINUOUS
 62
    30
 10
345.56827127091492
 20
-276.5236451521385
 30
0.0
 11
345.56827127091492
 21
-431.78078800928142
 31
0.0
  0
LINE
  8
SIZE
  6
CONTINUOUS
 62
    30
 10
345.56827127091492
 20
-194.57868294677391
 30
0.0
 11
345.56827127091492
 21
-264.5236451521385
 31
0.0
  0
CIRCLE
  8
SIZE
  6
CONTINUOUS
 62
    30
 10
345.56827127091492
 20
-194.57868294677391
 30
0.0
 40
6.0
  0
LINE
  8
SIZE
  6
CONTINUOUS
 62
    30
 10
345.56827127091492
 20
-194.57868294677391
 30
0.0
 11
345.56827127091492
 21
-182.57868294677391
 31
0.0
  0
CIRCLE
  8
SIZE
  6
CONTINUOUS
 62
    30
 10
345.56827127091492
 20
-264.5236451521385
 30
0.0
 40
6.0
  0
LINE
  8
SIZE
  6
CONTINUOUS
 62
    30
 10
345.56827127091492
 20
-264.5236451521385
 30
0.0
 11
345.56827127091492
 21
-276.5236451521385
 31
0.0
  0
TEXT
  8
SIZE
  6
CONTINUOUS
 62
    30
 10
320.56827127091492
 20
-406.78078800928131
 30
0.0
 40
64.0
  1
70
 50
90.0
 41
0.9
 72
     1
 11
320.56827127091492
 21
-360.15221658070982
 31
0.0
  0
POINT
  8
DEFPOINTS
  6
CONTINUOUS
 62
    30
 10
68.457988356354235
 20
-264.52364515213839
 30
0.0
  0
POINT
  8
DEFPOINTS
  6
CONTINUOUS
 62
    30
 10
126.67873367529231
 20
-194.5786829467738
 30
0.0
  0
POINT
  8
DEFPOINTS
  6
CONTINUOUS
 62
    30
 10
345.56827127091492
 20
-194.57868294677391
 30
0.0
  0
LINE
  8
SIZE
  6
CONTINUOUS
 62
    30
 10
146.67873367529231
 20
-194.5786829467738
 30
0.0
 11
365.56827127091492
 21
-194.57868294677391
 31
0.0
  0
LINE
  8
SIZE
  6
CONTINUOUS
 62
    30
 10
146.67873367529231
 20
194.0786829467738
 30
0.0
 11
365.56827127091492
 21
194.07868294677371
 31
0.0
  0
LINE
  8
SIZE
  6
CONTINUOUS
 62
    30
 10
345.56827127091492
 20
-182.57868294677391
 30
0.0
 11
345.56827127091492
 21
182.0786829467738
 31
0.0
  0
CIRCLE
  8
SIZE
  6
CONTINUOUS
 62
    30
 10
345.56827127091492
 20
-194.57868294677391
 30
0.0
 40
6.0
  0
LINE
  8
SIZE
  6
CONTINUOUS
 62
    30
 10
345.56827127091492
 20
-194.57868294677391
 30
0.0
 11
345.56827127091492
 21
-182.57868294677391
 31
0.0
  0
CIRCLE
  8
SIZE
  6
CONTINUOUS
 62
    30
 10
345.56827127091492
 20
194.0786829467738
 30
0.0
 40
6.0
  0
LINE
  8
SIZE
  6
CONTINUOUS
 62
    30
 10
345.56827127091492
 20
194.0786829467738
 30
0.0
 11
345.56827127091492
 21
182.0786829467738
 31
0.0
  0
TEXT
  8
SIZE
  6
CONTINUOUS
 62
    30
 10
320.56827127091492
 20
-73.03572473781422
 30
0.0
 40
64.0
  1
389
 50
90.0
 41
0.9
 72
     1
 11
320.56827127091492
 21
-0.3500104520999514
 31
0.0
  0
POINT
  8
DEFPOINTS
  6
CONTINUOUS
 62
    30
 10
126.67873367529231
 20
-194.5786829467738
 30
0.0
  0
POINT
  8
DEFPOINTS
  6
CONTINUOUS
 62
    30
 10
126.67873367529231
 20
194.0786829467738
 30
0.0
  0
POINT
  8
DEFPOINTS
  6
CONTINUOUS
 62
    30
 10
345.56827127091492
 20
194.0786829467738
 30
0.0
  0
LINE
  8
SIZE
  6
CONTINUOUS
 62
    30
 10
88.457988356354235
 20
264.52364515213799
 30
0.0
 11
365.56827127091492
 21
264.52364515213787
 31
0.0
  0
LINE
  8
SIZE
  6
CONTINUOUS
 62
    30
 10
146.67873367529231
 20
194.5786829467738
 30
0.0
 11
365.56827127091492
 21
194.57868294677371
 31
0.0
  0
LINE
  8
SIZE
  6
CONTINUOUS
 62
    30
 10
345.56827127091492
 20
182.5786829467738
 30
0.0
 11
345.56827127091492
 21
170.5786829467738
 31
0.0
  0
LINE
  8
SIZE
  6
CONTINUOUS
 62
    30
 10
345.56827127091492
 20
276.52364515213787
 30
0.0
 11
345.56827127091492
 21
431.7807880092808
 31
0.0
  0
LINE
  8
SIZE
  6
CONTINUOUS
 62
    30
 10
345.56827127091492
 20
194.5786829467738
 30
0.0
 11
345.56827127091492
 21
264.52364515213787
 31
0.0
  0
CIRCLE
  8
SIZE
  6
CONTINUOUS
 62
    30
 10
345.56827127091492
 20
194.5786829467738
 30
0.0
 40
6.0
  0
LINE
  8
SIZE
  6
CONTINUOUS
 62
    30
 10
345.56827127091492
 20
194.5786829467738
 30
0.0
 11
345.56827127091492
 21
182.5786829467738
 31
0.0
  0
CIRCLE
  8
SIZE
  6
CONTINUOUS
 62
    30
 10
345.56827127091492
 20
264.52364515213787
 30
0.0
 40
6.0
  0
LINE
  8
SIZE
  6
CONTINUOUS
 62
    30
 10
345.56827127091492
 20
264.52364515213787
 30
0.0
 11
345.56827127091492
 21
276.52364515213787
 31
0.0
  0
TEXT
  8
SIZE
  6
CONTINUOUS
 62
    30
 10
320.56827127091492
 20
313.52364515213799
 30
0.0
 40
64.0
  1
70
 50
90.0
 41
0.9
 72
     1
 11
320.56827127091492
 21
360.15221658070948
 31
0.0
  0
POINT
  8
DEFPOINTS
  6
CONTINUOUS
 62
    30
 10
68.457988356354235
 20
264.52364515213799
 30
0.0
  0
POINT
  8
DEFPOINTS
  6
CONTINUOUS
 62
    30
 10
126.67873367529231
 20
194.5786829467738
 30
0.0
  0
POINT
  8
DEFPOINTS
  6
CONTINUOUS
 62
    30
 10
345.56827127091492
 20
194.5786829467738
 30
0.0
  0
TEXT
  8
NOTE
  6
CONTINUOUS
 62
     4
 10
-361.47298594085999
 20
319.10094900108118
 30
0.0
 40
64.0
  1
AH
 41
0.9
 72
     2
 11
-262.73012879800291
 21
319.10094900108118
 31
0.0
  0
LINE
  8
NOTE
  6
CONTINUOUS
 62
     4
 10
-167.08422685811519
 20
182.253946144976
 30
0.0
 11
-165.340053749557
 21
176.29218806053629
 31
0.0
  0
LINE
  8
NOTE
  6
CONTINUOUS
 62
     4
 10
-165.340053749557
 20
176.29218806053629
 30
0.0
 11
-169.83143747859731
 21
180.58312869034151
 31
0.0
  0
LINE
  8
NOTE
  6
CONTINUOUS
 62
     4
 10
-165.340053749557
 20
176.29218806053629
 30
0.0
 11
-171.57561058715561
 21
186.5448867747813
 31
0.0
  0
LINE
  8
NOTE
  6
CONTINUOUS
 62
     4
 10
-171.57561058715561
 20
186.5448867747813
 30
0.0
 11
-237.96640291255579
 21
295.20671607734278
 31
0.0
  0
LINE
  8
NOTE
  6
CONTINUOUS
 62
     4
 10
-237.96640291255579
 20
295.20671607734278
 30
0.0
 11
-373.70926005541293
 21
295.20671607734278
 31
0.0
  0
TEXT
  8
NOTE
  6
CONTINUOUS
 62
     4
 10
-50.742857142857147
 20
312.91313203698797
 30
0.0
 40
64.0
  1
RA
 41
0.9
 72
     1
 11
0.0
 21
312.91313203698797
 31
0.0
  0
TEXT
  8
NOTE
  6
CONTINUOUS
 62
     4
 10
-50.89858964851237
 20
-373.56671382857212
 30
0.0
 40
64.0
  1
EA
 41
0.9
 72
     1
 11
-2.8985896485123699
 21
-373.56671382857212
 31
0.0
  0
LINE
  8
DETAIL
  6
CONTINUOUS
 62
     5
 10
-128.3944727318424
 20
1.172421688642544
 30
0.0
 11
-133.0841594864128
 21
1.172421688642544
 31
0.0
  0
LINE
  8
DETAIL
  6
CONTINUOUS
 62
     5
 10
-133.0841594864128
 20
1.172421688642544
 30
0.0
 11
-134.05641161845799
 21
0.9436564811026074
 31
0.0
  0
LINE
  8
DETAIL
  6
CONTINUOUS
 62
     5
 10
-134.05641161845799
 20
0.9436564811026074
 30
0.0
 11
-134.8570898448481
 21
0.4289347641374661
 31
0.0
  0
LINE
  8
DETAIL
  6
CONTINUOUS
 62
     5
 10
-134.8570898448481
 20
0.4289347641374661
 30
0.0
 11
-135.60057676935321
 21
-0.0285956509426342
 31
0.0
  0
LINE
  8
DETAIL
  6
CONTINUOUS
 62
     5
 10
-135.60057676935321
 20
-0.0285956509426342
 30
0.0
 11
-136.17248978820339
 21
-1.0580390848726891
 31
0.0
  0
LINE
  8
DETAIL
  6
CONTINUOUS
 62
     5
 10
-136.17248978820339
 20
-1.0580390848726891
 30
0.0
 11
-136.17248978820339
 21
-1.744334707492726
 31
0.0
  0
LINE
  8
DETAIL
  6
CONTINUOUS
 62
     5
 10
-132.56943776944789
 20
-1.744334707492726
 30
0.0
 11
-136.17248978820339
 21
-1.744334707492726
 31
0.0
  0
LINE
  8
DETAIL
  6
CONTINUOUS
 62
     5
 10
-126.3927771658673
 20
-124.4196772508344
 30
0.0
 11
-126.3927771658673
 21
-126.2497989111548
 31
0.0
  0
LINE
  8
DETAIL
  6
CONTINUOUS
 62
     5
 10
116.72744714730059
 20
-193.2060917015335
 30
0.0
 11
123.5904033735019
 21
-193.2060917015335
 31
0.0
  0
LINE
  8
DETAIL
  6
CONTINUOUS
 62
     5
 10
-123.36163816596169
 20
-193.2060917015335
 30
0.0
 11
-116.3842993359908
 21
-193.2060917015335
 31
0.0
  0
LINE
  8
DETAIL
  6
CONTINUOUS
 62
     5
 10
126.67873367529231
 20
194.5786829467738
 30
0.0
 11
126.67873367529231
 21
192.80575258833821
 31
0.0
  0
LINE
  8
DETAIL
  6
CONTINUOUS
 62
     5
 10
-126.3927771658671
 20
194.5786829467738
 30
0.0
 11
-126.3927771658671
 21
192.51979607891349
 31
0.0
  0
LINE
  8
DETAIL
  6
CONTINUOUS
 62
     5
 10
-126.3927771658671
 20
194.5786829467738
 30
0.0
 11
126.67873367529231
 21
194.5786829467738
 31
0.0
  0
LINE
  8
DETAIL
  6
CONTINUOUS
 62
     5
 10
-123.87635988292659
 20
-192.69136998456861
 30
0.0
 11
-123.36163816596169
 21
-193.2060917015335
 31
0.0
  0
LINE
  8
DETAIL
  6
CONTINUOUS
 62
     5
 10
123.93355118481171
 20
-193.2060917015335
 30
0.0
 11
123.5904033735019
 21
-193.2060917015335
 31
0.0
  0
LINE
  8
DETAIL
  6
CONTINUOUS
 62
     5
 10
-126.3927771658671
 20
128.6371118733598
 30
0.0
 11
-126.3927771658671
 21
126.52103370361441
 31
0.0
  0
LINE
  8
DETAIL
  6
CONTINUOUS
 62
     5
 10
126.67873367529231
 20
-193.89238732415379
 30
0.0
 11
126.67873367529231
 21
-194.5786829467738
 31
0.0
  0
LINE
  8
DETAIL
  6
CONTINUOUS
 62
     5
 10
126.67873367529231
 20
-193.3776656071889
 30
0.0
 11
126.67873367529231
 21
-193.89238732415379
 31
0.0
  0
LINE
  8
DETAIL
  6
CONTINUOUS
 62
     5
 10
-126.3927771658673
 20
-193.89238732415379
 30
0.0
 11
-126.3927771658673
 21
-194.5786829467738
 31
0.0
  0
LINE
  8
DETAIL
  6
CONTINUOUS
 62
     5
 10
113.6391168455102
 20
-176.67780545676649
 30
0.0
 11
116.72744714730059
 21
-179.59456185290171
 31
0.0
  0
LINE
  8
DETAIL
  6
CONTINUOUS
 62
     5
 10
-113.41035163797029
 20
-176.67780545676649
 30
0.0
 11
-116.3842993359908
 21
-179.59456185290171
 31
0.0
  0
LINE
  8
DETAIL
  6
CONTINUOUS
 62
     5
 10
59.764910469833012
 20
-194.5786829467738
 30
0.0
 11
62.967623375393487
 21
-194.5786829467738
 31
0.0
  0
LINE
  8
DETAIL
  6
CONTINUOUS
 62
     5
 10
69.944962205364391
 20
-194.5786829467738
 30
0.0
 11
73.433631620349843
 21
-194.5786829467738
 31
0.0
  0
LINE
  8
DETAIL
  6
CONTINUOUS
 62
     5
 10
126.67873367529231
 20
-194.5786829467738
 30
0.0
 11
-126.3927771658673
 21
-194.5786829467738
 31
0.0
  0
LINE
  8
DETAIL
  6
CONTINUOUS
 62
     5
 10
-70.116536111019286
 20
-194.5786829467738
 30
0.0
 11
-66.913823205458812
 21
-194.5786829467738
 31
0.0
  0
LINE
  8
DETAIL
  6
CONTINUOUS
 62
     5
 10
-59.936484375487908
 20
-194.5786829467738
 30
0.0
 11
-56.447814960502683
 21
-194.5786829467738
 31
0.0
  0
LINE
  8
DETAIL
  6
CONTINUOUS
 62
     5
 10
-116.3842993359908
 20
-179.59456185290171
 30
0.0
 11
-116.3842993359908
 21
-194.5786829467738
 31
0.0
  0
LINE
  8
DETAIL
  6
CONTINUOUS
 62
     5
 10
-116.3842993359908
 20
-193.89238732415379
 30
0.0
 11
-126.3927771658673
 21
-193.89238732415379
 31
0.0
  0
LINE
  8
DETAIL
  6
CONTINUOUS
 62
     5
 10
84.242787676616445
 20
-194.5786829467738
 30
0.0
 11
87.445500582176919
 21
-194.5786829467738
 31
0.0
  0
LINE
  8
DETAIL
  6
CONTINUOUS
 62
     5
 10
94.422839412147823
 20
-194.5786829467738
 30
0.0
 11
97.911508827133275
 21
-194.5786829467738
 31
0.0
  0
LINE
  8
DETAIL
  6
CONTINUOUS
 62
     5
 10
126.67873367529231
 20
-193.89238732415379
 30
0.0
 11
116.72744714730059
 21
-193.89238732415379
 31
0.0
  0
LINE
  8
DETAIL
  6
CONTINUOUS
 62
     5
 10
116.72744714730059
 20
-179.59456185290171
 30
0.0
 11
116.72744714730059
 21
-194.5786829467738
 31
0.0
  0
LINE
  8
DETAIL
  6
CONTINUOUS
 62
     5
 10
113.6391168455102
 20
-176.67780545676649
 30
0.0
 11
-113.41035163797029
 21
-176.67780545676649
 31
0.0
  0
LINE
  8
DETAIL
  6
CONTINUOUS
 62
     5
 10
126.67873367529231
 20
-193.2060917015335
 30
0.0
 11
126.67873367529231
 21
-193.3776656071889
 31
0.0
  0
LINE
  8
DETAIL
  6
CONTINUOUS
 62
     5
 10
-126.3927771658673
 20
-192.69136998456861
 30
0.0
 11
-126.3927771658673
 21
-193.3776656071889
 31
0.0
  0
LINE
  8
DETAIL
  6
CONTINUOUS
 62
     5
 10
118.2144209963112
 20
-193.2060917015335
 30
0.0
 11
118.2144209963112
 21
-193.3776656071889
 31
0.0
  0
LINE
  8
DETAIL
  6
CONTINUOUS
 62
     5
 10
118.2144209963112
 20
-193.3776656071889
 30
0.0
 11
118.3859949019661
 21
-193.60643081472881
 31
0.0
  0
LINE
  8
DETAIL
  6
CONTINUOUS
 62
     5
 10
118.3859949019661
 20
-193.60643081472881
 30
0.0
 11
118.61476010950631
 21
-193.89238732415379
 31
0.0
  0
LINE
  8
DETAIL
  6
CONTINUOUS
 62
     5
 10
118.61476010950631
 20
-193.89238732415379
 30
0.0
 11
118.900716618931
 21
-193.89238732415379
 31
0.0
  0
LINE
  8
DETAIL
  6
CONTINUOUS
 62
     5
 10
118.900716618931
 20
-193.89238732415379
 30
0.0
 11
119.1866731283562
 21
-193.89238732415379
 31
0.0
  0
LINE
  8
DETAIL
  6
CONTINUOUS
 62
     5
 10
118.900716618931
 20
-193.2060917015335
 30
0.0
 11
119.1866731283562
 21
-193.3776656071889
 31
0.0
  0
LINE
  8
DETAIL
  6
CONTINUOUS
 62
     5
 10
126.67873367529231
 20
193.60643081472861
 30
0.0
 11
126.9074988828324
 21
193.60643081472861
 31
0.0
  0
LINE
  8
DETAIL
  6
CONTINUOUS
 62
     5
 10
126.9074988828324
 20
193.60643081472861
 30
0.0
 11
126.9074988828324
 21
193.77800472038351
 31
0.0
  0
LINE
  8
DETAIL
  6
CONTINUOUS
 62
     5
 10
126.9074988828324
 20
193.77800472038351
 30
0.0
 11
127.19345539225741
 21
194.00676992792339
 31
0.0
  0
LINE
  8
DETAIL
  6
CONTINUOUS
 62
     5
 10
127.19345539225741
 20
194.00676992792339
 30
0.0
 11
127.19345539225741
 21
194.29272643734859
 31
0.0
  0
LINE
  8
DETAIL
  6
CONTINUOUS
 62
     5
 10
127.19345539225741
 20
194.29272643734859
 30
0.0
 11
126.9074988828324
 21
194.29272643734859
 31
0.0
  0
LINE
  8
DETAIL
  6
CONTINUOUS
 62
     5
 10
126.9074988828324
 20
194.29272643734859
 30
0.0
 11
126.67873367529231
 21
194.5786829467738
 31
0.0
  0
LINE
  8
DETAIL
  6
CONTINUOUS
 62
     5
 10
126.67873367529231
 20
194.5786829467738
 30
0.0
 11
126.3927771658673
 21
194.29272643734859
 31
0.0
  0
LINE
  8
DETAIL
  6
CONTINUOUS
 62
     5
 10
126.3927771658673
 20
194.29272643734859
 30
0.0
 11
126.3927771658673
 21
194.00676992792339
 31
0.0
  0
LINE
  8
DETAIL
  6
CONTINUOUS
 62
     5
 10
126.3927771658673
 20
194.00676992792339
 30
0.0
 11
126.3927771658673
 21
193.77800472038351
 31
0.0
  0
LINE
  8
DETAIL
  6
CONTINUOUS
 62
     5
 10
126.3927771658673
 20
193.77800472038351
 30
0.0
 11
126.67873367529231
 21
193.60643081472861
 31
0.0
  0
LINE
  8
DETAIL
  6
CONTINUOUS
 62
     5
 10
126.67873367529231
 20
192.97732649399339
 30
0.0
 11
126.9074988828324
 21
192.97732649399339
 31
0.0
  0
LINE
  8
DETAIL
  6
CONTINUOUS
 62
     5
 10
126.9074988828324
 20
192.97732649399339
 30
0.0
 11
127.4222205997974
 21
193.26328300341859
 31
0.0
  0
LINE
  8
DETAIL
  6
CONTINUOUS
 62
     5
 10
127.4222205997974
 20
193.26328300341859
 30
0.0
 11
127.4222205997974
 21
193.60643081472861
 31
0.0
  0
LINE
  8
DETAIL
  6
CONTINUOUS
 62
     5
 10
127.4222205997974
 20
193.60643081472861
 30
0.0
 11
127.59379450545249
 21
193.77800472038351
 31
0.0
  0
LINE
  8
DETAIL
  6
CONTINUOUS
 62
     5
 10
127.59379450545249
 20
193.77800472038351
 30
0.0
 11
127.59379450545249
 21
194.00676992792339
 31
0.0
  0
LINE
  8
DETAIL
  6
CONTINUOUS
 62
     5
 10
127.59379450545249
 20
194.00676992792339
 30
0.0
 11
127.59379450545249
 21
194.29272643734859
 31
0.0
  0
LINE
  8
DETAIL
  6
CONTINUOUS
 62
     5
 10
127.59379450545249
 20
194.29272643734859
 30
0.0
 11
127.4222205997974
 21
194.5786829467738
 31
0.0
  0
LINE
  8
DETAIL
  6
CONTINUOUS
 62
     5
 10
127.4222205997974
 20
194.5786829467738
 30
0.0
 11
127.4222205997974
 21
194.8074481543137
 31
0.0
  0
LINE
  8
DETAIL
  6
CONTINUOUS
 62
     5
 10
127.4222205997974
 20
194.8074481543137
 30
0.0
 11
126.9074988828324
 21
194.97902205996871
 31
0.0
  0
LINE
  8
DETAIL
  6
CONTINUOUS
 62
     5
 10
126.9074988828324
 20
194.97902205996871
 30
0.0
 11
126.67873367529231
 21
194.97902205996871
 31
0.0
  0
LINE
  8
DETAIL
  6
CONTINUOUS
 62
     5
 10
126.67873367529231
 20
194.5786829467738
 30
0.0
 11
118.9007166189313
 21
194.5786829467738
 31
0.0
  0
LINE
  8
DETAIL
  6
CONTINUOUS
 62
     5
 10
118.9007166189313
 20
194.97902205996871
 30
0.0
 11
118.9007166189313
 21
194.5786829467738
 31
0.0
  0
LINE
  8
DETAIL
  6
CONTINUOUS
 62
     5
 10
126.67873367529231
 20
194.97902205996871
 30
0.0
 11
118.9007166189313
 21
194.97902205996871
 31
0.0
  0
LINE
  8
DETAIL
  6
CONTINUOUS
 62
     5
 10
123.9335511848119
 20
192.80575258833821
 30
0.0
 11
122.2178121282618
 21
192.51979607891329
 31
0.0
  0
LINE
  8
DETAIL
  6
CONTINUOUS
 62
     5
 10
122.2178121282618
 20
192.51979607891329
 30
0.0
 11
120.90241218490659
 21
191.77630915440821
 31
0.0
  0
LINE
  8
DETAIL
  6
CONTINUOUS
 62
     5
 10
120.90241218490659
 20
191.77630915440821
 30
0.0
 11
119.7013948453214
 21
190.51810051293819
 31
0.0
  0
LINE
  8
DETAIL
  6
CONTINUOUS
 62
     5
 10
119.7013948453214
 20
190.51810051293819
 30
0.0
 11
119.1866731283562
 21
189.31708317335301
 31
0.0
  0
LINE
  8
DETAIL
  6
CONTINUOUS
 62
     5
 10
119.1866731283562
 20
189.31708317335301
 30
0.0
 11
118.9007166189313
 21
187.7729180224577
 31
0.0
  0
LINE
  8
DETAIL
  6
CONTINUOUS
 62
     5
 10
127.59379450545249
 20
192.80575258833821
 30
0.0
 11
123.9335511848119
 21
192.80575258833821
 31
0.0
  0
LINE
  8
DETAIL
  6
CONTINUOUS
 62
     5
 10
118.900716618931
 20
-188.1732571356529
 30
0.0
 11
119.1866731283562
 21
-189.60303968277819
 31
0.0
  0
LINE
  8
DETAIL
  6
CONTINUOUS
 62
     5
 10
119.1866731283562
 20
-189.60303968277819
 30
0.0
 11
119.7013948453211
 21
-190.86124832424841
 31
0.0
  0
LINE
  8
DETAIL
  6
CONTINUOUS
 62
     5
 10
119.7013948453211
 20
-190.86124832424841
 30
0.0
 11
120.90241218490659
 21
-192.06226566383361
 31
0.0
  0
LINE
  8
DETAIL
  6
CONTINUOUS
 62
     5
 10
120.90241218490659
 20
-192.06226566383361
 30
0.0
 11
122.2178121282616
 21
-192.86294389022351
 31
0.0
  0
LINE
  8
DETAIL
  6
CONTINUOUS
 62
     5
 10
122.2178121282616
 20
-192.86294389022351
 30
0.0
 11
123.93355118481171
 21
-193.2060917015335
 31
0.0
  0
LINE
  8
DETAIL
  6
CONTINUOUS
 62
     5
 10
118.9007166189313
 20
187.7729180224577
 30
0.0
 11
118.900716618931
 21
-188.1732571356529
 31
0.0
  0
LINE
  8
DETAIL
  6
CONTINUOUS
 62
     5
 10
118.900716618931
 20
-195.3793611731638
 30
0.0
 11
118.900716618931
 21
-194.5786829467738
 31
0.0
  0
LINE
  8
DETAIL
  6
CONTINUOUS
 62
     5
 10
127.593794505452
 20
-193.2060917015335
 30
0.0
 11
123.93355118481171
 21
-193.2060917015335
 31
0.0
  0
LINE
  8
DETAIL
  6
CONTINUOUS
 62
     5
 10
127.59379450545249
 20
192.80575258833821
 30
0.0
 11
127.593794505452
 21
-193.2060917015335
 31
0.0
  0
LINE
  8
DETAIL
  6
CONTINUOUS
 62
     5
 10
126.67873367529231
 20
-195.3793611731638
 30
0.0
 11
118.900716618931
 21
-195.3793611731638
 31
0.0
  0
LINE
  8
DETAIL
  6
CONTINUOUS
 62
     5
 10
126.67873367529231
 20
-194.5786829467738
 30
0.0
 11
118.900716618931
 21
-194.5786829467738
 31
0.0
  0
LINE
  8
DETAIL
  6
CONTINUOUS
 62
     5
 10
126.67873367529231
 20
-193.3776656071889
 30
0.0
 11
119.1866731283562
 21
-193.3776656071889
 31
0.0
  0
LINE
  8
DETAIL
  6
CONTINUOUS
 62
     5
 10
126.67873367529231
 20
-195.3793611731638
 30
0.0
 11
126.907498882832
 21
-195.3793611731638
 31
0.0
  0
LINE
  8
DETAIL
  6
CONTINUOUS
 62
     5
 10
126.907498882832
 20
-195.3793611731638
 30
0.0
 11
127.4222205997971
 21
-195.20778726750891
 31
0.0
  0
LINE
  8
DETAIL
  6
CONTINUOUS
 62
     5
 10
127.4222205997971
 20
-195.20778726750891
 30
0.0
 11
127.4222205997971
 21
-194.8646394561988
 31
0.0
  0
LINE
  8
DETAIL
  6
CONTINUOUS
 62
     5
 10
127.4222205997971
 20
-194.8646394561988
 30
0.0
 11
127.593794505452
 21
-194.5786829467738
 31
0.0
  0
LINE
  8
DETAIL
  6
CONTINUOUS
 62
     5
 10
127.593794505452
 20
-194.5786829467738
 30
0.0
 11
127.593794505452
 21
-194.4071090411189
 31
0.0
  0
LINE
  8
DETAIL
  6
CONTINUOUS
 62
     5
 10
127.593794505452
 20
-194.4071090411189
 30
0.0
 11
127.593794505452
 21
-194.17834383357879
 31
0.0
  0
LINE
  8
DETAIL
  6
CONTINUOUS
 62
     5
 10
127.593794505452
 20
-194.17834383357879
 30
0.0
 11
127.4222205997971
 21
-193.89238732415379
 31
0.0
  0
LINE
  8
DETAIL
  6
CONTINUOUS
 62
     5
 10
127.4222205997971
 20
-193.89238732415379
 30
0.0
 11
127.4222205997971
 21
-193.60643081472881
 31
0.0
  0
LINE
  8
DETAIL
  6
CONTINUOUS
 62
     5
 10
127.4222205997971
 20
-193.60643081472881
 30
0.0
 11
126.907498882832
 21
-193.3776656071889
 31
0.0
  0
LINE
  8
DETAIL
  6
CONTINUOUS
 62
     5
 10
126.907498882832
 20
-193.3776656071889
 30
0.0
 11
126.67873367529231
 21
-193.3776656071889
 31
0.0
  0
LINE
  8
DETAIL
  6
CONTINUOUS
 62
     5
 10
126.67873367529231
 20
-194.5786829467738
 30
0.0
 11
126.907498882832
 21
-194.5786829467738
 31
0.0
  0
LINE
  8
DETAIL
  6
CONTINUOUS
 62
     5
 10
126.907498882832
 20
-194.5786829467738
 30
0.0
 11
127.19345539225741
 21
-194.4071090411189
 31
0.0
  0
LINE
  8
DETAIL
  6
CONTINUOUS
 62
     5
 10
127.19345539225741
 20
-194.4071090411189
 30
0.0
 11
127.19345539225741
 21
-194.17834383357879
 31
0.0
  0
LINE
  8
DETAIL
  6
CONTINUOUS
 62
     5
 10
127.19345539225741
 20
-194.17834383357879
 30
0.0
 11
126.907498882832
 21
-194.17834383357879
 31
0.0
  0
LINE
  8
DETAIL
  6
CONTINUOUS
 62
     5
 10
126.907498882832
 20
-194.17834383357879
 30
0.0
 11
126.907498882832
 21
-193.89238732415379
 31
0.0
  0
LINE
  8
DETAIL
  6
CONTINUOUS
 62
     5
 10
126.907498882832
 20
-193.89238732415379
 30
0.0
 11
126.67873367529231
 21
-193.89238732415379
 31
0.0
  0
LINE
  8
DETAIL
  6
CONTINUOUS
 62
     5
 10
126.67873367529231
 20
-193.89238732415379
 30
0.0
 11
126.3927771658671
 21
-193.89238732415379
 31
0.0
  0
LINE
  8
DETAIL
  6
CONTINUOUS
 62
     5
 10
126.3927771658671
 20
-193.89238732415379
 30
0.0
 11
126.3927771658671
 21
-194.17834383357879
 31
0.0
  0
LINE
  8
DETAIL
  6
CONTINUOUS
 62
     5
 10
126.3927771658671
 20
-194.17834383357879
 30
0.0
 11
126.3927771658671
 21
-194.4071090411189
 31
0.0
  0
LINE
  8
DETAIL
  6
CONTINUOUS
 62
     5
 10
126.3927771658671
 20
-194.4071090411189
 30
0.0
 11
126.3927771658671
 21
-194.5786829467738
 31
0.0
  0
LINE
  8
DETAIL
  6
CONTINUOUS
 62
     5
 10
126.3927771658671
 20
-194.5786829467738
 30
0.0
 11
126.67873367529231
 21
-194.5786829467738
 31
0.0
  0
LINE
  8
DETAIL
  6
CONTINUOUS
 62
     5
 10
126.67873367529231
 20
-193.89238732415379
 30
0.0
 11
126.3927771658671
 21
-193.89238732415379
 31
0.0
  0
LINE
  8
DETAIL
  6
CONTINUOUS
 62
     5
 10
119.4154383358962
 20
-193.89238732415379
 30
0.0
 11
119.1866731283562
 21
-193.89238732415379
 31
0.0
  0
LINE
  8
DETAIL
  6
CONTINUOUS
 62
     5
 10
-118.9007166189308
 20
187.48696151303261
 30
0.0
 11
-119.0722905245859
 21
188.97393536204299
 31
0.0
  0
LINE
  8
DETAIL
  6
CONTINUOUS
 62
     5
 10
-119.0722905245859
 20
188.97393536204299
 30
0.0
 11
-119.70139484532091
 21
190.28933530539831
 31
0.0
  0
LINE
  8
DETAIL
  6
CONTINUOUS
 62
     5
 10
-119.70139484532091
 20
190.28933530539831
 30
0.0
 11
-120.9024121849061
 21
191.4903526449834
 31
0.0
  0
LINE
  8
DETAIL
  6
CONTINUOUS
 62
     5
 10
-120.9024121849061
 20
191.4903526449834
 30
0.0
 11
-122.1606208263763
 21
192.29103087137329
 31
0.0
  0
LINE
  8
DETAIL
  6
CONTINUOUS
 62
     5
 10
-122.1606208263763
 20
192.29103087137329
 30
0.0
 11
-123.87635988292659
 21
192.51979607891349
 31
0.0
  0
LINE
  8
DETAIL
  6
CONTINUOUS
 62
     5
 10
-123.87635988292659
 20
192.51979607891349
 30
0.0
 11
-127.3650292979121
 21
192.51979607891349
 31
0.0
  0
LINE
  8
DETAIL
  6
CONTINUOUS
 62
     5
 10
-118.9007166189308
 20
187.48696151303261
 30
0.0
 11
-118.9007166189308
 21
133.66994643924039
 31
0.0
  0
LINE
  8
DETAIL
  6
CONTINUOUS
 62
     5
 10
-123.87635988292659
 20
128.6371118733598
 30
0.0
 11
-123.7047859772715
 21
128.6371118733598
 31
0.0
  0
LINE
  8
DETAIL
  6
CONTINUOUS
 62
     5
 10
-123.87635988292659
 20
128.6371118733598
 30
0.0
 11
-122.1606208263763
 21
128.86587708089999
 31
0.0
  0
LINE
  8
DETAIL
  6
CONTINUOUS
 62
     5
 10
-122.1606208263763
 20
128.86587708089999
 30
0.0
 11
-120.9024121849061
 21
129.66655530729011
 31
0.0
  0
LINE
  8
DETAIL
  6
CONTINUOUS
 62
     5
 10
-120.9024121849061
 20
129.66655530729011
 30
0.0
 11
-119.70139484532091
 21
130.86757264687529
 31
0.0
  0
LINE
  8
DETAIL
  6
CONTINUOUS
 62
     5
 10
-119.70139484532091
 20
130.86757264687529
 30
0.0
 11
-119.0722905245859
 21
132.12578128834531
 31
0.0
  0
LINE
  8
DETAIL
  6
CONTINUOUS
 62
     5
 10
-119.0722905245859
 20
132.12578128834531
 30
0.0
 11
-118.9007166189308
 21
133.66994643924039
 31
0.0
  0
LINE
  8
DETAIL
  6
CONTINUOUS
 62
     5
 10
-127.3650292979121
 20
128.6371118733598
 30
0.0
 11
-123.87635988292659
 21
128.6371118733598
 31
0.0
  0
LINE
  8
DETAIL
  6
CONTINUOUS
 62
     5
 10
-118.9007166189308
 20
194.5786829467738
 30
0.0
 11
-126.5643510715222
 21
194.5786829467738
 31
0.0
  0
LINE
  8
DETAIL
  6
CONTINUOUS
 62
     5
 10
-126.3927771658671
 20
193.60643081472861
 30
0.0
 11
-126.1640119583267
 21
193.77800472038351
 31
0.0
  0
LINE
  8
DETAIL
  6
CONTINUOUS
 62
     5
 10
-126.1640119583267
 20
193.77800472038351
 30
0.0
 11
-126.1640119583267
 21
194.00676992792361
 31
0.0
  0
LINE
  8
DETAIL
  6
CONTINUOUS
 62
     5
 10
-126.1640119583267
 20
194.00676992792361
 30
0.0
 11
-126.1640119583267
 21
194.29272643734859
 31
0.0
  0
LINE
  8
DETAIL
  6
CONTINUOUS
 62
     5
 10
-126.1640119583267
 20
194.29272643734859
 30
0.0
 11
-126.3927771658671
 21
194.29272643734859
 31
0.0
  0
LINE
  8
DETAIL
  6
CONTINUOUS
 62
     5
 10
-126.3927771658671
 20
194.29272643734859
 30
0.0
 11
-126.3927771658671
 21
194.5786829467738
 31
0.0
  0
LINE
  8
DETAIL
  6
CONTINUOUS
 62
     5
 10
-126.3927771658671
 20
194.5786829467738
 30
0.0
 11
-126.5643510715222
 21
194.5786829467738
 31
0.0
  0
LINE
  8
DETAIL
  6
CONTINUOUS
 62
     5
 10
-126.5643510715222
 20
194.5786829467738
 30
0.0
 11
-126.5643510715222
 21
194.29272643734859
 31
0.0
  0
LINE
  8
DETAIL
  6
CONTINUOUS
 62
     5
 10
-126.5643510715222
 20
194.29272643734859
 30
0.0
 11
-126.907498882832
 21
194.29272643734859
 31
0.0
  0
LINE
  8
DETAIL
  6
CONTINUOUS
 62
     5
 10
-126.907498882832
 20
194.29272643734859
 30
0.0
 11
-126.907498882832
 21
194.00676992792361
 31
0.0
  0
LINE
  8
DETAIL
  6
CONTINUOUS
 62
     5
 10
-126.907498882832
 20
194.00676992792361
 30
0.0
 11
-126.907498882832
 21
193.77800472038351
 31
0.0
  0
LINE
  8
DETAIL
  6
CONTINUOUS
 62
     5
 10
-126.907498882832
 20
193.77800472038351
 30
0.0
 11
-126.5643510715222
 21
193.77800472038351
 31
0.0
  0
LINE
  8
DETAIL
  6
CONTINUOUS
 62
     5
 10
-126.5643510715222
 20
193.77800472038351
 30
0.0
 11
-126.5643510715222
 21
193.60643081472861
 31
0.0
  0
LINE
  8
DETAIL
  6
CONTINUOUS
 62
     5
 10
-126.5643510715222
 20
193.60643081472861
 30
0.0
 11
-126.3927771658671
 21
193.60643081472861
 31
0.0
  0
LINE
  8
DETAIL
  6
CONTINUOUS
 62
     5
 10
-118.9007166189308
 20
194.5786829467738
 30
0.0
 11
-118.9007166189308
 21
194.97902205996871
 31
0.0
  0
LINE
  8
DETAIL
  6
CONTINUOUS
 62
     5
 10
-118.9007166189308
 20
194.97902205996871
 30
0.0
 11
-126.5643510715222
 21
194.97902205996871
 31
0.0
  0
LINE
  8
DETAIL
  6
CONTINUOUS
 62
     5
 10
-126.3927771658671
 20
194.97902205996871
 30
0.0
 11
-126.5643510715222
 21
194.97902205996871
 31
0.0
  0
LINE
  8
DETAIL
  6
CONTINUOUS
 62
     5
 10
-126.5643510715222
 20
194.97902205996871
 30
0.0
 11
-127.19345539225699
 21
194.8074481543137
 31
0.0
  0
LINE
  8
DETAIL
  6
CONTINUOUS
 62
     5
 10
-127.19345539225699
 20
194.8074481543137
 30
0.0
 11
-127.3650292979121
 21
194.5786829467738
 31
0.0
  0
LINE
  8
DETAIL
  6
CONTINUOUS
 62
     5
 10
-127.3650292979121
 20
194.5786829467738
 30
0.0
 11
-127.3650292979121
 21
194.29272643734859
 31
0.0
  0
LINE
  8
DETAIL
  6
CONTINUOUS
 62
     5
 10
-127.3650292979121
 20
194.29272643734859
 30
0.0
 11
-127.3650292979121
 21
194.00676992792361
 31
0.0
  0
LINE
  8
DETAIL
  6
CONTINUOUS
 62
     5
 10
-127.3650292979121
 20
194.00676992792361
 30
0.0
 11
-127.3650292979121
 21
193.77800472038351
 31
0.0
  0
LINE
  8
DETAIL
  6
CONTINUOUS
 62
     5
 10
-127.3650292979121
 20
193.77800472038351
 30
0.0
 11
-127.3650292979121
 21
193.60643081472861
 31
0.0
  0
LINE
  8
DETAIL
  6
CONTINUOUS
 62
     5
 10
-127.3650292979121
 20
193.60643081472861
 30
0.0
 11
-127.19345539225699
 21
193.26328300341859
 31
0.0
  0
LINE
  8
DETAIL
  6
CONTINUOUS
 62
     5
 10
-127.19345539225699
 20
193.26328300341859
 30
0.0
 11
-126.907498882832
 21
192.97732649399359
 31
0.0
  0
LINE
  8
DETAIL
  6
CONTINUOUS
 62
     5
 10
-126.907498882832
 20
192.97732649399359
 30
0.0
 11
-126.3927771658671
 21
192.97732649399359
 31
0.0
  0
LINE
  8
DETAIL
  6
CONTINUOUS
 62
     5
 10
-127.3650292979121
 20
128.6371118733598
 30
0.0
 11
-127.3650292979121
 21
192.51979607891349
 31
0.0
  0
LINE
  8
DETAIL
  6
CONTINUOUS
 62
     5
 10
-126.3927771658673
 20
-194.5786829467738
 30
0.0
 11
-118.3859949019661
 21
-194.5786829467738
 31
0.0
  0
LINE
  8
DETAIL
  6
CONTINUOUS
 62
     5
 10
-126.3927771658673
 20
-193.89238732415379
 30
0.0
 11
-126.1640119583269
 21
-193.89238732415379
 31
0.0
  0
LINE
  8
DETAIL
  6
CONTINUOUS
 62
     5
 10
-119.0722905245859
 20
-193.89238732415379
 30
0.0
 11
-118.900716618931
 21
-193.89238732415379
 31
0.0
  0
LINE
  8
DETAIL
  6
CONTINUOUS
 62
     5
 10
-126.3927771658673
 20
-194.5786829467738
 30
0.0
 11
-126.1640119583269
 21
-194.5786829467738
 31
0.0
  0
LINE
  8
DETAIL
  6
CONTINUOUS
 62
     5
 10
-126.1640119583269
 20
-194.5786829467738
 30
0.0
 11
-126.1640119583269
 21
-194.4071090411189
 31
0.0
  0
LINE
  8
DETAIL
  6
CONTINUOUS
 62
     5
 10
-126.1640119583269
 20
-194.4071090411189
 30
0.0
 11
-126.1640119583269
 21
-194.17834383357879
 31
0.0
  0
LINE
  8
DETAIL
  6
CONTINUOUS
 62
     5
 10
-126.1640119583269
 20
-194.17834383357879
 30
0.0
 11
-126.3927771658673
 21
-193.89238732415379
 31
0.0
  0
LINE
  8
DETAIL
  6
CONTINUOUS
 62
     5
 10
-126.3927771658673
 20
-193.89238732415379
 30
0.0
 11
-126.5643510715222
 21
-193.89238732415379
 31
0.0
  0
LINE
  8
DETAIL
  6
CONTINUOUS
 62
     5
 10
-126.5643510715222
 20
-193.89238732415379
 30
0.0
 11
-126.9074988828322
 21
-194.17834383357879
 31
0.0
  0
LINE
  8
DETAIL
  6
CONTINUOUS
 62
     5
 10
-126.9074988828322
 20
-194.17834383357879
 30
0.0
 11
-126.9074988828322
 21
-194.4071090411189
 31
0.0
  0
LINE
  8
DETAIL
  6
CONTINUOUS
 62
     5
 10
-126.9074988828322
 20
-194.4071090411189
 30
0.0
 11
-126.9074988828322
 21
-194.5786829467738
 31
0.0
  0
LINE
  8
DETAIL
  6
CONTINUOUS
 62
     5
 10
-126.9074988828322
 20
-194.5786829467738
 30
0.0
 11
-126.5643510715222
 21
-194.5786829467738
 31
0.0
  0
LINE
  8
DETAIL
  6
CONTINUOUS
 62
     5
 10
-126.5643510715222
 20
-194.5786829467738
 30
0.0
 11
-126.3927771658673
 21
-194.5786829467738
 31
0.0
  0
LINE
  8
DETAIL
  6
CONTINUOUS
 62
     5
 10
-126.3927771658673
 20
-193.3776656071889
 30
0.0
 11
-118.900716618931
 21
-193.3776656071889
 31
0.0
  0
LINE
  8
DETAIL
  6
CONTINUOUS
 62
     5
 10
-126.3927771658673
 20
-195.3793611731638
 30
0.0
 11
-118.3859949019661
 21
-195.3793611731638
 31
0.0
  0
LINE
  8
DETAIL
  6
CONTINUOUS
 62
     5
 10
-118.900716618931
 20
-193.3776656071889
 30
0.0
 11
-118.67195141139111
 21
-193.2060917015335
 31
0.0
  0
LINE
  8
DETAIL
  6
CONTINUOUS
 62
     5
 10
-118.900716618931
 20
-193.89238732415379
 30
0.0
 11
-118.67195141139111
 21
-193.89238732415379
 31
0.0
  0
LINE
  8
DETAIL
  6
CONTINUOUS
 62
     5
 10
-118.67195141139111
 20
-193.89238732415379
 30
0.0
 11
-118.3859949019661
 21
-193.89238732415379
 31
0.0
  0
LINE
  8
DETAIL
  6
CONTINUOUS
 62
     5
 10
-118.3859949019661
 20
-193.89238732415379
 30
0.0
 11
-118.1000383925409
 21
-193.60643081472881
 31
0.0
  0
LINE
  8
DETAIL
  6
CONTINUOUS
 62
     5
 10
-118.1000383925409
 20
-193.60643081472881
 30
0.0
 11
-118.1000383925409
 21
-193.3776656071889
 31
0.0
  0
LINE
  8
DETAIL
  6
CONTINUOUS
 62
     5
 10
-118.1000383925409
 20
-193.3776656071889
 30
0.0
 11
-117.871273185001
 21
-193.2060917015335
 31
0.0
  0
LINE
  8
DETAIL
  6
CONTINUOUS
 62
     5
 10
-126.3927771658673
 20
-193.3776656071889
 30
0.0
 11
-126.9074988828322
 21
-193.3776656071889
 31
0.0
  0
LINE
  8
DETAIL
  6
CONTINUOUS
 62
     5
 10
-126.9074988828322
 20
-193.3776656071889
 30
0.0
 11
-127.19345539225721
 21
-193.60643081472881
 31
0.0
  0
LINE
  8
DETAIL
  6
CONTINUOUS
 62
     5
 10
-127.19345539225721
 20
-193.60643081472881
 30
0.0
 11
-127.3650292979121
 21
-193.89238732415379
 31
0.0
  0
LINE
  8
DETAIL
  6
CONTINUOUS
 62
     5
 10
-127.3650292979121
 20
-193.89238732415379
 30
0.0
 11
-127.3650292979121
 21
-194.17834383357879
 31
0.0
  0
LINE
  8
DETAIL
  6
CONTINUOUS
 62
     5
 10
-127.3650292979121
 20
-194.17834383357879
 30
0.0
 11
-127.3650292979121
 21
-194.4071090411189
 31
0.0
  0
LINE
  8
DETAIL
  6
CONTINUOUS
 62
     5
 10
-127.3650292979121
 20
-194.4071090411189
 30
0.0
 11
-127.3650292979121
 21
-194.5786829467738
 31
0.0
  0
LINE
  8
DETAIL
  6
CONTINUOUS
 62
     5
 10
-127.3650292979121
 20
-194.5786829467738
 30
0.0
 11
-127.3650292979121
 21
-194.8646394561988
 31
0.0
  0
LINE
  8
DETAIL
  6
CONTINUOUS
 62
     5
 10
-127.3650292979121
 20
-194.8646394561988
 30
0.0
 11
-127.19345539225721
 21
-195.20778726750891
 31
0.0
  0
LINE
  8
DETAIL
  6
CONTINUOUS
 62
     5
 10
-127.19345539225721
 20
-195.20778726750891
 30
0.0
 11
-126.9074988828322
 21
-195.3793611731638
 31
0.0
  0
LINE
  8
DETAIL
  6
CONTINUOUS
 62
     5
 10
-126.9074988828322
 20
-195.3793611731638
 30
0.0
 11
-126.3927771658673
 21
-195.3793611731638
 31
0.0
  0
LINE
  8
DETAIL
  6
CONTINUOUS
 62
     5
 10
-118.3859949019661
 20
-195.3793611731638
 30
0.0
 11
-118.3859949019661
 21
-194.5786829467738
 31
0.0
  0
LINE
  8
DETAIL
  6
CONTINUOUS
 62
     5
 10
-118.67195141139111
 20
-130.93948566572541
 30
0.0
 11
-118.67195141139111
 21
-188.1732571356529
 31
0.0
  0
LINE
  8
DETAIL
  6
CONTINUOUS
 62
     5
 10
-118.67195141139111
 20
-131.22544217515039
 30
0.0
 11
-118.900716618931
 21
-129.73846832614029
 31
0.0
  0
LINE
  8
DETAIL
  6
CONTINUOUS
 62
     5
 10
-118.900716618931
 20
-129.73846832614029
 30
0.0
 11
-119.70139484532091
 21
-128.423068382785
 31
0.0
  0
LINE
  8
DETAIL
  6
CONTINUOUS
 62
     5
 10
-119.70139484532091
 20
-128.423068382785
 30
0.0
 11
-120.55926437359631
 21
-127.2220510431998
 31
0.0
  0
LINE
  8
DETAIL
  6
CONTINUOUS
 62
     5
 10
-120.55926437359631
 20
-127.2220510431998
 30
0.0
 11
-122.1606208263765
 21
-126.42137281680969
 31
0.0
  0
LINE
  8
DETAIL
  6
CONTINUOUS
 62
     5
 10
-122.1606208263765
 20
-126.42137281680969
 30
0.0
 11
-123.7047859772717
 21
-126.2497989111548
 31
0.0
  0
LINE
  8
DETAIL
  6
CONTINUOUS
 62
     5
 10
-127.3650292979121
 20
-126.2497989111548
 30
0.0
 11
-123.7047859772717
 21
-126.2497989111548
 31
0.0
  0
LINE
  8
DETAIL
  6
CONTINUOUS
 62
     5
 10
-123.7047859772717
 20
-192.69136998456861
 30
0.0
 11
-122.1606208263765
 21
-192.4054134751436
 31
0.0
  0
LINE
  8
DETAIL
  6
CONTINUOUS
 62
     5
 10
-122.1606208263765
 20
-192.4054134751436
 30
0.0
 11
-120.55926437359631
 21
-191.89069175817849
 31
0.0
  0
LINE
  8
DETAIL
  6
CONTINUOUS
 62
     5
 10
-120.55926437359631
 20
-191.89069175817849
 30
0.0
 11
-119.70139484532091
 21
-190.68967441859331
 31
0.0
  0
LINE
  8
DETAIL
  6
CONTINUOUS
 62
     5
 10
-119.70139484532091
 20
-190.68967441859331
 30
0.0
 11
-118.900716618931
 21
-189.37427447523811
 31
0.0
  0
LINE
  8
DETAIL
  6
CONTINUOUS
 62
     5
 10
-118.900716618931
 20
-189.37427447523811
 30
0.0
 11
-118.67195141139111
 21
-187.65853541868799
 31
0.0
  0
LINE
  8
DETAIL
  6
CONTINUOUS
 62
     5
 10
-127.3650292979121
 20
-192.69136998456861
 30
0.0
 11
-123.7047859772717
 21
-192.69136998456861
 31
0.0
  0
LINE
  8
DETAIL
  6
CONTINUOUS
 62
     5
 10
-127.3650292979121
 20
-126.2497989111548
 30
0.0
 11
-127.3650292979121
 21
-192.69136998456861
 31
0.0
  0
LINE
  8
DETAIL
  6
CONTINUOUS
 62
     5
 10
-127.3650292979121
 20
146.3092241558272
 30
0.0
 11
-127.879751014877
 21
146.1376502501723
 31
0.0
  0
LINE
  8
DETAIL
  6
CONTINUOUS
 62
     5
 10
-127.879751014877
 20
146.1376502501723
 30
0.0
 11
-128.0513249205321
 21
145.85169374074709
 31
0.0
  0
LINE
  8
DETAIL
  6
CONTINUOUS
 62
     5
 10
-128.0513249205321
 20
145.85169374074709
 30
0.0
 11
-128.39447273184209
 21
145.33697202378201
 31
0.0
  0
LINE
  8
DETAIL
  6
CONTINUOUS
 62
     5
 10
-128.39447273184209
 20
145.33697202378201
 30
0.0
 11
-128.39447273184209
 21
144.8222503068171
 31
0.0
  0
LINE
  8
DETAIL
  6
CONTINUOUS
 62
     5
 10
-128.39447273184209
 20
144.8222503068171
 30
0.0
 11
-128.0513249205321
 21
144.3075285898519
 31
0.0
  0
LINE
  8
DETAIL
  6
CONTINUOUS
 62
     5
 10
-128.0513249205321
 20
144.3075285898519
 30
0.0
 11
-127.879751014877
 21
144.02157208042689
 31
0.0
  0
LINE
  8
DETAIL
  6
CONTINUOUS
 62
     5
 10
-127.879751014877
 20
144.02157208042689
 30
0.0
 11
-127.3650292979121
 21
143.8499981747718
 31
0.0
  0
LINE
  8
DETAIL
  6
CONTINUOUS
 62
     5
 10
-124.39108159989181
 20
-124.4196772508344
 30
0.0
 11
-122.90410775088139
 21
-124.13372074140941
 31
0.0
  0
LINE
  8
DETAIL
  6
CONTINUOUS
 62
     5
 10
-122.90410775088139
 20
-124.13372074140941
 30
0.0
 11
-121.3599425999864
 21
-123.4474251187894
 31
0.0
  0
LINE
  8
DETAIL
  6
CONTINUOUS
 62
     5
 10
-121.3599425999864
 20
-123.4474251187894
 30
0.0
 11
-120.3876904679412
 21
-122.4179816848591
 31
0.0
  0
LINE
  8
DETAIL
  6
CONTINUOUS
 62
     5
 10
-120.3876904679412
 20
-122.4179816848591
 30
0.0
 11
-119.70139484532091
 21
-120.931007835849
 31
0.0
  0
LINE
  8
DETAIL
  6
CONTINUOUS
 62
     5
 10
-119.70139484532091
 20
-120.931007835849
 30
0.0
 11
-119.3582470340109
 21
-119.4440339868388
 31
0.0
  0
LINE
  8
DETAIL
  6
CONTINUOUS
 62
     5
 10
-119.3582470340109
 20
-119.4440339868388
 30
0.0
 11
-119.3582470340109
 21
121.5453904396188
 31
0.0
  0
LINE
  8
DETAIL
  6
CONTINUOUS
 62
     5
 10
-128.3944727318424
 20
-124.4196772508344
 30
0.0
 11
-128.39447273184209
 21
126.52103370361441
 31
0.0
  0
LINE
  8
DETAIL
  6
CONTINUOUS
 62
     5
 10
-119.3582470340109
 20
121.5453904396188
 30
0.0
 11
-119.70139484532091
 21
123.032364288629
 31
0.0
  0
LINE
  8
DETAIL
  6
CONTINUOUS
 62
     5
 10
-119.70139484532091
 20
123.032364288629
 30
0.0
 11
-120.3876904679412
 21
124.3477642319842
 31
0.0
  0
LINE
  8
DETAIL
  6
CONTINUOUS
 62
     5
 10
-120.3876904679412
 20
124.3477642319842
 30
0.0
 11
-121.3599425999862
 21
125.54878157156941
 31
0.0
  0
LINE
  8
DETAIL
  6
CONTINUOUS
 62
     5
 10
-121.3599425999862
 20
125.54878157156941
 30
0.0
 11
-122.90410775088139
 21
126.3494597979595
 31
0.0
  0
LINE
  8
DETAIL
  6
CONTINUOUS
 62
     5
 10
-122.90410775088139
 20
126.3494597979595
 30
0.0
 11
-124.39108159989181
 21
126.52103370361441
 31
0.0
  0
LINE
  8
DETAIL
  6
CONTINUOUS
 62
     5
 10
-124.39108159989181
 20
-124.4196772508344
 30
0.0
 11
-128.3944727318424
 21
-124.4196772508344
 31
0.0
  0
LINE
  8
DETAIL
  6
CONTINUOUS
 62
     5
 10
-128.39447273184209
 20
126.52103370361441
 30
0.0
 11
-124.39108159989181
 21
126.52103370361441
 31
0.0
  0
LINE
  8
DETAIL
  6
CONTINUOUS
 62
     5
 10
-119.3582470340109
 20
-104.9746346099319
 30
0.0
 11
-119.3582470340109
 21
-103.9451911760016
 31
0.0
  0
LINE
  8
DETAIL
  6
CONTINUOUS
 62
     5
 10
-119.3582470340109
 20
-100.2849478553612
 30
0.0
 11
-119.3582470340109
 21
-99.14112181766086
 31
0.0
  0
LINE
  8
DETAIL
  6
CONTINUOUS
 62
     5
 10
151.67133259904091
 20
192.51979607891329
 30
0.0
 11
151.67133259904091
 21
196.99543934290909
 31
0.0
  0
LINE
  8
DETAIL
  6
CONTINUOUS
 62
     5
 10
151.67133259904091
 20
192.51979607891329
 30
0.0
 11
154.702471598946
 21
196.99543934290909
 31
0.0
  0
LINE
  8
DETAIL
  6
CONTINUOUS
 62
     5
 10
151.67133259904091
 20
192.51979607891329
 30
0.0
 11
148.86895880667541
 21
196.99543934290909
 31
0.0
  0
LINE
  8
DETAIL
  6
CONTINUOUS
 62
     5
 10
179.63787922080931
 20
192.51979607891329
 30
0.0
 11
179.63787922080931
 21
196.99543934290909
 31
0.0
  0
LINE
  8
DETAIL
  6
CONTINUOUS
 62
     5
 10
179.63787922080931
 20
192.51979607891329
 30
0.0
 11
176.83550542844389
 21
196.99543934290909
 31
0.0
  0
LINE
  8
DETAIL
  6
CONTINUOUS
 62
     5
 10
179.63787922080931
 20
192.51979607891329
 30
0.0
 11
182.55463561694481
 21
196.99543934290909
 31
0.0
  0
LINE
  8
DETAIL
  6
CONTINUOUS
 62
     5
 10
160.0784539761369
 20
156.54646719324359
 30
0.0
 11
127.59379450545249
 21
156.54646719324359
 31
0.0
  0
LINE
  8
DETAIL
  6
CONTINUOUS
 62
     5
 10
171.0591839380584
 20
176.79218806053629
 30
0.0
 11
170.88761003240319
 21
178.62230972085649
 31
0.0
  0
LINE
  8
DETAIL
  6
CONTINUOUS
 62
     5
 10
170.88761003240319
 20
178.62230972085649
 30
0.0
 11
169.85816659847299
 21
180.2808574755218
 31
0.0
  0
LINE
  8
DETAIL
  6
CONTINUOUS
 62
     5
 10
169.85816659847299
 20
180.2808574755218
 30
0.0
 11
168.37119274946281
 21
181.48187481510689
 31
0.0
  0
LINE
  8
DETAIL
  6
CONTINUOUS
 62
     5
 10
168.37119274946281
 20
181.48187481510689
 30
0.0
 11
166.65545369291249
 21
182.11097913584189
 31
0.0
  0
LINE
  8
DETAIL
  6
CONTINUOUS
 62
     5
 10
166.65545369291249
 20
182.11097913584189
 30
0.0
 11
164.65375812693739
 21
182.11097913584189
 31
0.0
  0
LINE
  8
DETAIL
  6
CONTINUOUS
 62
     5
 10
164.65375812693739
 20
182.11097913584189
 30
0.0
 11
162.88082776850209
 21
181.48187481510689
 31
0.0
  0
LINE
  8
DETAIL
  6
CONTINUOUS
 62
     5
 10
162.88082776850209
 20
181.48187481510689
 30
0.0
 11
161.3938539194919
 21
180.2808574755218
 31
0.0
  0
LINE
  8
DETAIL
  6
CONTINUOUS
 62
     5
 10
161.3938539194919
 20
180.2808574755218
 30
0.0
 11
160.36441048556159
 21
178.62230972085649
 31
0.0
  0
LINE
  8
DETAIL
  6
CONTINUOUS
 62
     5
 10
160.36441048556159
 20
178.62230972085649
 30
0.0
 11
160.0784539761369
 21
176.79218806053629
 31
0.0
  0
LINE
  8
DETAIL
  6
CONTINUOUS
 62
     5
 10
171.0591839380584
 20
176.79218806053629
 30
0.0
 11
171.0591839380584
 21
156.54646719324359
 31
0.0
  0
LINE
  8
DETAIL
  6
CONTINUOUS
 62
     5
 10
160.0784539761369
 20
176.79218806053629
 30
0.0
 11
160.0784539761369
 21
156.54646719324359
 31
0.0
  0
LINE
  8
DETAIL
  6
CONTINUOUS
 62
     5
 10
185.6429659187352
 20
156.54646719324359
 30
0.0
 11
171.0591839380584
 21
156.54646719324359
 31
0.0
  0
LINE
  8
DETAIL
  6
CONTINUOUS
 62
     5
 10
185.6429659187352
 20
196.99543934290909
 30
0.0
 11
100.14196960064869
 21
196.99543934290909
 31
0.0
  0
LINE
  8
DETAIL
  6
CONTINUOUS
 62
     5
 10
185.6429659187352
 20
196.99543934290909
 30
0.0
 11
185.6429659187352
 21
156.54646719324359
 31
0.0
  0
LINE
  8
DETAIL
  6
CONTINUOUS
 62
     5
 10
116.72744714730079
 20
194.5786829467738
 30
0.0
 11
100.14196960064869
 21
194.5786829467738
 31
0.0
  0
LINE
  8
DETAIL
  6
CONTINUOUS
 62
     5
 10
116.72744714730079
 20
194.5786829467738
 30
0.0
 11
116.8990210529557
 21
194.5786829467738
 31
0.0
  0
LINE
  8
DETAIL
  6
CONTINUOUS
 62
     5
 10
116.8990210529557
 20
194.5786829467738
 30
0.0
 11
117.18497756238121
 21
194.5786829467738
 31
0.0
  0
LINE
  8
DETAIL
  6
CONTINUOUS
 62
     5
 10
117.18497756238121
 20
194.5786829467738
 30
0.0
 11
117.4137427699211
 21
194.8074481543137
 31
0.0
  0
LINE
  8
DETAIL
  6
CONTINUOUS
 62
     5
 10
117.4137427699211
 20
194.8074481543137
 30
0.0
 11
117.585316675576
 21
194.97902205996871
 31
0.0
  0
LINE
  8
DETAIL
  6
CONTINUOUS
 62
     5
 10
117.585316675576
 20
194.97902205996871
 30
0.0
 11
117.585316675576
 21
195.4937437769338
 31
0.0
  0
LINE
  8
DETAIL
  6
CONTINUOUS
 62
     5
 10
128.90919444880771
 20
195.4937437769338
 30
0.0
 11
100.14196960064869
 21
195.4937437769338
 31
0.0
  0
LINE
  8
DETAIL
  6
CONTINUOUS
 62
     5
 10
128.90919444880771
 20
192.1194569657182
 30
0.0
 11
127.59379450545249
 21
192.1194569657182
 31
0.0
  0
LINE
  8
DETAIL
  6
CONTINUOUS
 62
     5
 10
128.90919444880771
 20
195.4937437769338
 30
0.0
 11
128.90919444880771
 21
192.1194569657182
 31
0.0
  0
LINE
  8
DETAIL
  6
CONTINUOUS
 62
     5
 10
142.86387210874949
 20
199.11151751265419
 30
0.0
 11
113.41035163797051
 21
199.11151751265419
 31
0.0
  0
LINE
  8
DETAIL
  6
CONTINUOUS
 62
     5
 10
144.86556767472479
 20
196.99543934290909
 30
0.0
 11
144.86556767472479
 21
197.51016105987421
 31
0.0
  0
LINE
  8
DETAIL
  6
CONTINUOUS
 62
     5
 10
144.86556767472479
 20
197.51016105987421
 30
0.0
 11
144.69399376906989
 21
198.08207407872419
 31
0.0
  0
LINE
  8
DETAIL
  6
CONTINUOUS
 62
     5
 10
144.69399376906989
 20
198.08207407872419
 30
0.0
 11
144.17927205210481
 21
198.48241319191919
 31
0.0
  0
LINE
  8
DETAIL
  6
CONTINUOUS
 62
     5
 10
144.17927205210481
 20
198.48241319191919
 30
0.0
 11
143.6073590332544
 21
198.7683697013442
 31
0.0
  0
LINE
  8
DETAIL
  6
CONTINUOUS
 62
     5
 10
143.6073590332544
 20
198.7683697013442
 30
0.0
 11
142.86387210874949
 21
199.11151751265419
 31
0.0
  0
LINE
  8
DETAIL
  6
CONTINUOUS
 62
     5
 10
113.41035163797051
 20
199.11151751265419
 30
0.0
 11
112.6096734115804
 21
198.7683697013442
 31
0.0
  0
LINE
  8
DETAIL
  6
CONTINUOUS
 62
     5
 10
112.6096734115804
 20
198.7683697013442
 30
0.0
 11
112.2093342983853
 21
198.48241319191919
 31
0.0
  0
LINE
  8
DETAIL
  6
CONTINUOUS
 62
     5
 10
112.2093342983853
 20
198.48241319191919
 30
0.0
 11
111.6946125814202
 21
198.08207407872419
 31
0.0
  0
LINE
  8
DETAIL
  6
CONTINUOUS
 62
     5
 10
111.6946125814202
 20
198.08207407872419
 30
0.0
 11
111.4086560719952
 21
197.51016105987421
 31
0.0
  0
LINE
  8
DETAIL
  6
CONTINUOUS
 62
     5
 10
111.4086560719952
 20
197.51016105987421
 30
0.0
 11
111.4086560719952
 21
196.99543934290909
 31
0.0
  0
LINE
  8
DETAIL
  6
CONTINUOUS
 62
     5
 10
100.14196960064869
 20
194.5786829467738
 30
0.0
 11
100.14196960064869
 21
196.99543934290909
 31
0.0
  0
LINE
  8
DETAIL
  6
CONTINUOUS
 62
     5
 10
-151.38537608961539
 20
192.51979607891349
 30
0.0
 11
-151.38537608961539
 21
196.99543934290909
 31
0.0
  0
LINE
  8
DETAIL
  6
CONTINUOUS
 62
     5
 10
-151.38537608961539
 20
192.51979607891349
 30
0.0
 11
-154.3593237876355
 21
196.99543934290909
 31
0.0
  0
LINE
  8
DETAIL
  6
CONTINUOUS
 62
     5
 10
-151.38537608961539
 20
192.51979607891349
 30
0.0
 11
-148.64019359913499
 21
196.99543934290909
 31
0.0
  0
LINE
  8
DETAIL
  6
CONTINUOUS
 62
     5
 10
-179.35192271138411
 20
192.51979607891349
 30
0.0
 11
-179.35192271138411
 21
196.99543934290909
 31
0.0
  0
LINE
  8
DETAIL
  6
CONTINUOUS
 62
     5
 10
-179.35192271138411
 20
192.51979607891349
 30
0.0
 11
-176.54954891901869
 21
196.99543934290909
 31
0.0
  0
LINE
  8
DETAIL
  6
CONTINUOUS
 62
     5
 10
-179.35192271138411
 20
192.51979607891349
 30
0.0
 11
-182.32587040940459
 21
196.99543934290909
 31
0.0
  0
LINE
  8
DETAIL
  6
CONTINUOUS
 62
     5
 10
-159.84968876859651
 20
156.54646719324359
 30
0.0
 11
-127.3650292979121
 21
156.54646719324359
 31
0.0
  0
LINE
  8
DETAIL
  6
CONTINUOUS
 62
     5
 10
-159.84968876859651
 20
176.79218806053629
 30
0.0
 11
-160.36441048556159
 21
178.62230972085649
 31
0.0
  0
LINE
  8
DETAIL
  6
CONTINUOUS
 62
     5
 10
-160.36441048556159
 20
178.62230972085649
 30
0.0
 11
-161.33666261760661
 21
180.2808574755218
 31
0.0
  0
LINE
  8
DETAIL
  6
CONTINUOUS
 62
     5
 10
-161.33666261760661
 20
180.2808574755218
 30
0.0
 11
-162.53767995719181
 21
181.48187481510689
 31
0.0
  0
LINE
  8
DETAIL
  6
CONTINUOUS
 62
     5
 10
-162.53767995719181
 20
181.48187481510689
 30
0.0
 11
-164.65375812693719
 21
182.11097913584189
 31
0.0
  0
LINE
  8
DETAIL
  6
CONTINUOUS
 62
     5
 10
-164.65375812693719
 20
182.11097913584189
 30
0.0
 11
-166.36949718348731
 21
182.11097913584189
 31
0.0
  0
LINE
  8
DETAIL
  6
CONTINUOUS
 62
     5
 10
-166.36949718348731
 20
182.11097913584189
 30
0.0
 11
-168.02804493815259
 21
181.48187481510689
 31
0.0
  0
LINE
  8
DETAIL
  6
CONTINUOUS
 62
     5
 10
-168.02804493815259
 20
181.48187481510689
 30
0.0
 11
-169.6294013909328
 21
180.2808574755218
 31
0.0
  0
LINE
  8
DETAIL
  6
CONTINUOUS
 62
     5
 10
-169.6294013909328
 20
180.2808574755218
 30
0.0
 11
-170.544462221093
 21
178.62230972085649
 31
0.0
  0
LINE
  8
DETAIL
  6
CONTINUOUS
 62
     5
 10
-170.544462221093
 20
178.62230972085649
 30
0.0
 11
-170.83041873051801
 21
176.79218806053629
 31
0.0
  0
LINE
  8
DETAIL
  6
CONTINUOUS
 62
     5
 10
-170.83041873051801
 20
176.79218806053629
 30
0.0
 11
-170.83041873051801
 21
156.54646719324359
 31
0.0
  0
LINE
  8
DETAIL
  6
CONTINUOUS
 62
     5
 10
-159.84968876859651
 20
176.79218806053629
 30
0.0
 11
-159.84968876859651
 21
156.54646719324359
 31
0.0
  0
LINE
  8
DETAIL
  6
CONTINUOUS
 62
     5
 10
-185.35700940931
 20
156.54646719324359
 30
0.0
 11
-170.83041873051801
 21
156.54646719324359
 31
0.0
  0
LINE
  8
DETAIL
  6
CONTINUOUS
 62
     5
 10
-185.35700940931
 20
196.99543934290909
 30
0.0
 11
-99.913204393108344
 21
196.99543934290909
 31
0.0
  0
LINE
  8
DETAIL
  6
CONTINUOUS
 62
     5
 10
-185.35700940931
 20
196.99543934290909
 30
0.0
 11
-185.35700940931
 21
156.54646719324359
 31
0.0
  0
LINE
  8
DETAIL
  6
CONTINUOUS
 62
     5
 10
-116.3842993359906
 20
194.5786829467738
 30
0.0
 11
-99.913204393108344
 21
194.5786829467738
 31
0.0
  0
LINE
  8
DETAIL
  6
CONTINUOUS
 62
     5
 10
-117.4137427699209
 20
195.4937437769338
 30
0.0
 11
-117.4137427699209
 21
194.97902205996871
 31
0.0
  0
LINE
  8
DETAIL
  6
CONTINUOUS
 62
     5
 10
-117.4137427699209
 20
194.97902205996871
 30
0.0
 11
-117.18497756238069
 21
194.8074481543137
 31
0.0
  0
LINE
  8
DETAIL
  6
CONTINUOUS
 62
     5
 10
-117.18497756238069
 20
194.8074481543137
 30
0.0
 11
-116.8990210529557
 21
194.5786829467738
 31
0.0
  0
LINE
  8
DETAIL
  6
CONTINUOUS
 62
     5
 10
-116.8990210529557
 20
194.5786829467738
 30
0.0
 11
-116.6130645435305
 21
194.5786829467738
 31
0.0
  0
LINE
  8
DETAIL
  6
CONTINUOUS
 62
     5
 10
-116.6130645435305
 20
194.5786829467738
 30
0.0
 11
-116.3842993359906
 21
194.5786829467738
 31
0.0
  0
LINE
  8
DETAIL
  6
CONTINUOUS
 62
     5
 10
-128.68042924126709
 20
195.4937437769338
 30
0.0
 11
-99.913204393108344
 21
195.4937437769338
 31
0.0
  0
LINE
  8
DETAIL
  6
CONTINUOUS
 62
     5
 10
-128.68042924126709
 20
192.1194569657184
 30
0.0
 11
-127.3650292979121
 21
192.1194569657184
 31
0.0
  0
LINE
  8
DETAIL
  6
CONTINUOUS
 62
     5
 10
-128.68042924126709
 20
195.4937437769338
 30
0.0
 11
-128.68042924126709
 21
192.1194569657184
 31
0.0
  0
LINE
  8
DETAIL
  6
CONTINUOUS
 62
     5
 10
-142.86387210874909
 20
199.1115175126545
 30
0.0
 11
-113.06720382666001
 21
199.11151751265419
 31
0.0
  0
LINE
  8
DETAIL
  6
CONTINUOUS
 62
     5
 10
-142.86387210874909
 20
199.1115175126545
 30
0.0
 11
-143.3785938257142
 21
198.76836970134451
 31
0.0
  0
LINE
  8
DETAIL
  6
CONTINUOUS
 62
     5
 10
-143.3785938257142
 20
198.76836970134451
 30
0.0
 11
-143.8933155426794
 21
198.48241319191919
 31
0.0
  0
LINE
  8
DETAIL
  6
CONTINUOUS
 62
     5
 10
-143.8933155426794
 20
198.48241319191919
 30
0.0
 11
-144.3508459577595
 21
198.08207407872419
 31
0.0
  0
LINE
  8
DETAIL
  6
CONTINUOUS
 62
     5
 10
-144.3508459577595
 20
198.08207407872419
 30
0.0
 11
-144.6368024671842
 21
197.51016105987421
 31
0.0
  0
LINE
  8
DETAIL
  6
CONTINUOUS
 62
     5
 10
-144.6368024671842
 20
197.51016105987421
 30
0.0
 11
-144.86556767472439
 21
196.99543934290909
 31
0.0
  0
LINE
  8
DETAIL
  6
CONTINUOUS
 62
     5
 10
-111.1798908644548
 20
196.99543934290909
 30
0.0
 11
-111.1798908644548
 21
197.51016105987421
 31
0.0
  0
LINE
  8
DETAIL
  6
CONTINUOUS
 62
     5
 10
-111.1798908644548
 20
197.51016105987421
 30
0.0
 11
-111.408656071995
 21
198.08207407872419
 31
0.0
  0
LINE
  8
DETAIL
  6
CONTINUOUS
 62
     5
 10
-111.408656071995
 20
198.08207407872419
 30
0.0
 11
-111.8661864870751
 21
198.48241319191919
 31
0.0
  0
LINE
  8
DETAIL
  6
CONTINUOUS
 62
     5
 10
-111.8661864870751
 20
198.48241319191919
 30
0.0
 11
-112.38090820404
 21
198.7683697013442
 31
0.0
  0
LINE
  8
DETAIL
  6
CONTINUOUS
 62
     5
 10
-112.38090820404
 20
198.7683697013442
 30
0.0
 11
-113.06720382666001
 21
199.11151751265419
 31
0.0
  0
LINE
  8
DETAIL
  6
CONTINUOUS
 62
     5
 10
-99.913204393108344
 20
194.5786829467738
 30
0.0
 11
-99.913204393108344
 21
196.99543934290909
 31
0.0
  0
LINE
  8
DETAIL
  6
CONTINUOUS
 62
     5
 10
-151.38537608961539
 20
-192.69136998456861
 30
0.0
 11
-151.38537608961539
 21
-197.16701324856419
 31
0.0
  0
LINE
  8
DETAIL
  6
CONTINUOUS
 62
     5
 10
-151.38537608961539
 20
-192.69136998456861
 30
0.0
 11
-154.3593237876357
 21
-197.16701324856419
 31
0.0
  0
LINE
  8
DETAIL
  6
CONTINUOUS
 62
     5
 10
-151.38537608961539
 20
-192.69136998456861
 30
0.0
 11
-148.6401935991353
 21
-197.16701324856419
 31
0.0
  0
LINE
  8
DETAIL
  6
CONTINUOUS
 62
     5
 10
-179.3519227113843
 20
-192.69136998456861
 30
0.0
 11
-179.3519227113843
 21
-197.16701324856419
 31
0.0
  0
LINE
  8
DETAIL
  6
CONTINUOUS
 62
     5
 10
-179.3519227113843
 20
-192.69136998456861
 30
0.0
 11
-176.54954891901889
 21
-197.16701324856419
 31
0.0
  0
LINE
  8
DETAIL
  6
CONTINUOUS
 62
     5
 10
-179.3519227113843
 20
-192.69136998456861
 30
0.0
 11
-182.32587040940459
 21
-197.16701324856419
 31
0.0
  0
LINE
  8
DETAIL
  6
CONTINUOUS
 62
     5
 10
-159.84968876859671
 20
-156.71804109889851
 30
0.0
 11
-127.3650292979121
 21
-156.71804109889851
 31
0.0
  0
LINE
  8
DETAIL
  6
CONTINUOUS
 62
     5
 10
-170.83041873051801
 20
-177.07814456996149
 30
0.0
 11
-170.544462221093
 21
-178.56511841897171
 31
0.0
  0
LINE
  8
DETAIL
  6
CONTINUOUS
 62
     5
 10
-170.544462221093
 20
-178.56511841897171
 30
0.0
 11
-169.85816659847271
 21
-180.39524007929211
 31
0.0
  0
LINE
  8
DETAIL
  6
CONTINUOUS
 62
     5
 10
-169.85816659847271
 20
-180.39524007929211
 30
0.0
 11
-168.65714925888781
 21
-181.36749221133709
 31
0.0
  0
LINE
  8
DETAIL
  6
CONTINUOUS
 62
     5
 10
-168.65714925888781
 20
-181.36749221133709
 30
0.0
 11
-167.1701754098776
 21
-182.39693564526709
 31
0.0
  0
LINE
  8
DETAIL
  6
CONTINUOUS
 62
     5
 10
-167.1701754098776
 20
-182.39693564526709
 30
0.0
 11
-165.3400537495572
 21
-182.68289215469241
 31
0.0
  0
LINE
  8
DETAIL
  6
CONTINUOUS
 62
     5
 10
-165.3400537495572
 20
-182.68289215469241
 30
0.0
 11
-163.8530799005471
 21
-182.39693564526709
 31
0.0
  0
LINE
  8
DETAIL
  6
CONTINUOUS
 62
     5
 10
-163.8530799005471
 20
-182.39693564526709
 30
0.0
 11
-162.36610605153689
 21
-181.36749221133709
 31
0.0
  0
LINE
  8
DETAIL
  6
CONTINUOUS
 62
     5
 10
-162.36610605153689
 20
-181.36749221133709
 30
0.0
 11
-161.16508871195171
 21
-180.39524007929211
 31
0.0
  0
LINE
  8
DETAIL
  6
CONTINUOUS
 62
     5
 10
-161.16508871195171
 20
-180.39524007929211
 30
0.0
 11
-160.36441048556159
 21
-178.56511841897171
 31
0.0
  0
LINE
  8
DETAIL
  6
CONTINUOUS
 62
     5
 10
-160.36441048556159
 20
-178.56511841897171
 30
0.0
 11
-159.84968876859671
 21
-177.07814456996149
 31
0.0
  0
LINE
  8
DETAIL
  6
CONTINUOUS
 62
     5
 10
-170.83041873051801
 20
-177.07814456996149
 30
0.0
 11
-170.83041873051801
 21
-156.71804109889851
 31
0.0
  0
LINE
  8
DETAIL
  6
CONTINUOUS
 62
     5
 10
-159.84968876859671
 20
-177.07814456996149
 30
0.0
 11
-159.84968876859671
 21
-156.71804109889851
 31
0.0
  0
LINE
  8
DETAIL
  6
CONTINUOUS
 62
     5
 10
-185.35700940931019
 20
-156.71804109889851
 30
0.0
 11
-170.83041873051801
 21
-156.71804109889851
 31
0.0
  0
LINE
  8
DETAIL
  6
CONTINUOUS
 62
     5
 10
-185.35700940931019
 20
-197.16701324856419
 30
0.0
 11
-99.913204393108572
 21
-197.16701324856419
 31
0.0
  0
LINE
  8
DETAIL
  6
CONTINUOUS
 62
     5
 10
-185.35700940931019
 20
-197.16701324856419
 30
0.0
 11
-185.35700940931019
 21
-156.71804109889851
 31
0.0
  0
LINE
  8
DETAIL
  6
CONTINUOUS
 62
     5
 10
-116.3842993359908
 20
-194.5786829467738
 30
0.0
 11
-99.913204393108572
 21
-194.5786829467738
 31
0.0
  0
LINE
  8
DETAIL
  6
CONTINUOUS
 62
     5
 10
-116.3842993359908
 20
-194.5786829467738
 30
0.0
 11
-116.6130645435308
 21
-194.8646394561988
 31
0.0
  0
LINE
  8
DETAIL
  6
CONTINUOUS
 62
     5
 10
-116.6130645435308
 20
-194.8646394561988
 30
0.0
 11
-116.8990210529557
 21
-194.8646394561988
 31
0.0
  0
LINE
  8
DETAIL
  6
CONTINUOUS
 62
     5
 10
-116.8990210529557
 20
-194.8646394561988
 30
0.0
 11
-117.18497756238069
 21
-195.20778726750891
 31
0.0
  0
LINE
  8
DETAIL
  6
CONTINUOUS
 62
     5
 10
-117.18497756238069
 20
-195.20778726750891
 30
0.0
 11
-117.4137427699209
 21
-195.3793611731638
 31
0.0
  0
LINE
  8
DETAIL
  6
CONTINUOUS
 62
     5
 10
-117.4137427699209
 20
-195.3793611731638
 30
0.0
 11
-117.4137427699209
 21
-195.66531768258889
 31
0.0
  0
LINE
  8
DETAIL
  6
CONTINUOUS
 62
     5
 10
-128.68042924126729
 20
-195.66531768258889
 30
0.0
 11
-99.913204393108572
 21
-195.66531768258889
 31
0.0
  0
LINE
  8
DETAIL
  6
CONTINUOUS
 62
     5
 10
-128.68042924126729
 20
-192.06226566383361
 30
0.0
 11
-127.3650292979121
 21
-192.06226566383361
 31
0.0
  0
LINE
  8
DETAIL
  6
CONTINUOUS
 62
     5
 10
-128.68042924126729
 20
-195.66531768258889
 30
0.0
 11
-128.68042924126729
 21
-192.06226566383361
 31
0.0
  0
LINE
  8
DETAIL
  6
CONTINUOUS
 62
     5
 10
-142.86387210874929
 20
-199.0543262107694
 30
0.0
 11
-113.0672038266603
 21
-199.0543262107694
 31
0.0
  0
LINE
  8
DETAIL
  6
CONTINUOUS
 62
     5
 10
-144.86556767472459
 20
-197.16701324856419
 30
0.0
 11
-144.63680246718451
 21
-197.85330887118431
 31
0.0
  0
LINE
  8
DETAIL
  6
CONTINUOUS
 62
     5
 10
-144.63680246718451
 20
-197.85330887118431
 30
0.0
 11
-144.3508459577595
 21
-198.3680305881494
 31
0.0
  0
LINE
  8
DETAIL
  6
CONTINUOUS
 62
     5
 10
-144.3508459577595
 20
-198.3680305881494
 30
0.0
 11
-143.8933155426794
 21
-198.88275230511451
 31
0.0
  0
LINE
  8
DETAIL
  6
CONTINUOUS
 62
     5
 10
-143.8933155426794
 20
-198.88275230511451
 30
0.0
 11
-143.37859382571449
 21
-199.0543262107694
 31
0.0
  0
LINE
  8
DETAIL
  6
CONTINUOUS
 62
     5
 10
-143.37859382571449
 20
-199.0543262107694
 30
0.0
 11
-142.86387210874929
 21
-199.0543262107694
 31
0.0
  0
LINE
  8
DETAIL
  6
CONTINUOUS
 62
     5
 10
-113.0672038266603
 20
-199.0543262107694
 30
0.0
 11
-112.38090820404
 21
-199.0543262107694
 31
0.0
  0
LINE
  8
DETAIL
  6
CONTINUOUS
 62
     5
 10
-112.38090820404
 20
-199.0543262107694
 30
0.0
 11
-111.8661864870751
 21
-198.88275230511451
 31
0.0
  0
LINE
  8
DETAIL
  6
CONTINUOUS
 62
     5
 10
-111.8661864870751
 20
-198.88275230511451
 30
0.0
 11
-111.408656071995
 21
-198.3680305881494
 31
0.0
  0
LINE
  8
DETAIL
  6
CONTINUOUS
 62
     5
 10
-111.408656071995
 20
-198.3680305881494
 30
0.0
 11
-111.1798908644548
 21
-197.85330887118431
 31
0.0
  0
LINE
  8
DETAIL
  6
CONTINUOUS
 62
     5
 10
-111.1798908644548
 20
-197.85330887118431
 30
0.0
 11
-111.1798908644548
 21
-197.16701324856419
 31
0.0
  0
LINE
  8
DETAIL
  6
CONTINUOUS
 62
     5
 10
-99.913204393108572
 20
-194.5786829467738
 30
0.0
 11
-99.913204393108572
 21
-197.16701324856419
 31
0.0
  0
LINE
  8
DETAIL
  6
CONTINUOUS
 62
     5
 10
151.6713325990404
 20
-192.69136998456861
 30
0.0
 11
151.6713325990404
 21
-197.16701324856419
 31
0.0
  0
LINE
  8
DETAIL
  6
CONTINUOUS
 62
     5
 10
151.6713325990404
 20
-192.69136998456861
 30
0.0
 11
154.702471598946
 21
-197.16701324856419
 31
0.0
  0
LINE
  8
DETAIL
  6
CONTINUOUS
 62
     5
 10
151.6713325990404
 20
-192.69136998456861
 30
0.0
 11
148.86895880667501
 21
-197.16701324856419
 31
0.0
  0
LINE
  8
DETAIL
  6
CONTINUOUS
 62
     5
 10
179.63787922080931
 20
-192.69136998456861
 30
0.0
 11
179.63787922080931
 21
-197.16701324856419
 31
0.0
  0
LINE
  8
DETAIL
  6
CONTINUOUS
 62
     5
 10
179.63787922080931
 20
-192.69136998456861
 30
0.0
 11
176.83550542844389
 21
-197.16701324856419
 31
0.0
  0
LINE
  8
DETAIL
  6
CONTINUOUS
 62
     5
 10
179.63787922080931
 20
-192.69136998456861
 30
0.0
 11
182.55463561694481
 21
-197.16701324856419
 31
0.0
  0
LINE
  8
DETAIL
  6
CONTINUOUS
 62
     5
 10
160.07845397613659
 20
-156.71804109889879
 30
0.0
 11
127.593794505452
 21
-156.71804109889851
 31
0.0
  0
LINE
  8
DETAIL
  6
CONTINUOUS
 62
     5
 10
160.07845397613659
 20
-177.07814456996149
 30
0.0
 11
160.36441048556159
 21
-178.56511841897171
 31
0.0
  0
LINE
  8
DETAIL
  6
CONTINUOUS
 62
     5
 10
160.36441048556159
 20
-178.56511841897171
 30
0.0
 11
161.05070610818191
 21
-180.39524007929211
 31
0.0
  0
LINE
  8
DETAIL
  6
CONTINUOUS
 62
     5
 10
161.05070610818191
 20
-180.39524007929211
 30
0.0
 11
162.36610605153689
 21
-181.36749221133709
 31
0.0
  0
LINE
  8
DETAIL
  6
CONTINUOUS
 62
     5
 10
162.36610605153689
 20
-181.36749221133709
 30
0.0
 11
163.8530799005471
 21
-182.39693564526709
 31
0.0
  0
LINE
  8
DETAIL
  6
CONTINUOUS
 62
     5
 10
163.8530799005471
 20
-182.39693564526709
 30
0.0
 11
165.6832015608675
 21
-182.68289215469241
 31
0.0
  0
LINE
  8
DETAIL
  6
CONTINUOUS
 62
     5
 10
165.6832015608675
 20
-182.68289215469241
 30
0.0
 11
167.3417493155325
 21
-182.39693564526709
 31
0.0
  0
LINE
  8
DETAIL
  6
CONTINUOUS
 62
     5
 10
167.3417493155325
 20
-182.39693564526709
 30
0.0
 11
168.88591446642789
 21
-181.36749221133709
 31
0.0
  0
LINE
  8
DETAIL
  6
CONTINUOUS
 62
     5
 10
168.88591446642789
 20
-181.36749221133709
 30
0.0
 11
170.0869318060131
 21
-180.39524007929211
 31
0.0
  0
LINE
  8
DETAIL
  6
CONTINUOUS
 62
     5
 10
170.0869318060131
 20
-180.39524007929211
 30
0.0
 11
170.88761003240299
 21
-178.56511841897171
 31
0.0
  0
LINE
  8
DETAIL
  6
CONTINUOUS
 62
     5
 10
170.88761003240299
 20
-178.56511841897171
 30
0.0
 11
171.05918393805811
 21
-177.07814456996149
 31
0.0
  0
LINE
  8
DETAIL
  6
CONTINUOUS
 62
     5
 10
171.05918393805811
 20
-177.07814456996149
 30
0.0
 11
171.05918393805811
 21
-156.71804109889879
 31
0.0
  0
LINE
  8
DETAIL
  6
CONTINUOUS
 62
     5
 10
160.07845397613659
 20
-177.07814456996149
 30
0.0
 11
160.07845397613659
 21
-156.71804109889879
 31
0.0
  0
LINE
  8
DETAIL
  6
CONTINUOUS
 62
     5
 10
185.6429659187352
 20
-156.71804109889879
 30
0.0
 11
171.05918393805811
 21
-156.71804109889879
 31
0.0
  0
LINE
  8
DETAIL
  6
CONTINUOUS
 62
     5
 10
185.6429659187352
 20
-197.16701324856419
 30
0.0
 11
100.14196960064869
 21
-197.16701324856419
 31
0.0
  0
LINE
  8
DETAIL
  6
CONTINUOUS
 62
     5
 10
185.6429659187352
 20
-197.16701324856419
 30
0.0
 11
185.6429659187352
 21
-156.71804109889879
 31
0.0
  0
LINE
  8
DETAIL
  6
CONTINUOUS
 62
     5
 10
116.72744714730059
 20
-194.5786829467738
 30
0.0
 11
100.14196960064869
 21
-194.5786829467738
 31
0.0
  0
LINE
  8
DETAIL
  6
CONTINUOUS
 62
     5
 10
117.585316675576
 20
-195.66531768258889
 30
0.0
 11
117.585316675576
 21
-195.3793611731638
 31
0.0
  0
LINE
  8
DETAIL
  6
CONTINUOUS
 62
     5
 10
117.585316675576
 20
-195.3793611731638
 30
0.0
 11
117.4137427699206
 21
-195.20778726750891
 31
0.0
  0
LINE
  8
DETAIL
  6
CONTINUOUS
 62
     5
 10
117.4137427699206
 20
-195.20778726750891
 30
0.0
 11
117.18497756238089
 21
-194.8646394561988
 31
0.0
  0
LINE
  8
DETAIL
  6
CONTINUOUS
 62
     5
 10
117.18497756238089
 20
-194.8646394561988
 30
0.0
 11
116.8990210529557
 21
-194.8646394561988
 31
0.0
  0
LINE
  8
DETAIL
  6
CONTINUOUS
 62
     5
 10
116.8990210529557
 20
-194.8646394561988
 30
0.0
 11
116.72744714730059
 21
-194.5786829467738
 31
0.0
  0
LINE
  8
DETAIL
  6
CONTINUOUS
 62
     5
 10
128.90919444880731
 20
-195.66531768258889
 30
0.0
 11
100.14196960064869
 21
-195.66531768258889
 31
0.0
  0
LINE
  8
DETAIL
  6
CONTINUOUS
 62
     5
 10
128.90919444880731
 20
-192.06226566383361
 30
0.0
 11
127.593794505452
 21
-192.06226566383361
 31
0.0
  0
LINE
  8
DETAIL
  6
CONTINUOUS
 62
     5
 10
128.90919444880731
 20
-195.66531768258889
 30
0.0
 11
128.90919444880731
 21
-192.06226566383361
 31
0.0
  0
LINE
  8
DETAIL
  6
CONTINUOUS
 62
     5
 10
142.86387210874929
 20
-199.0543262107694
 30
0.0
 11
113.41035163797051
 21
-199.0543262107694
 31
0.0
  0
LINE
  8
DETAIL
  6
CONTINUOUS
 62
     5
 10
142.86387210874929
 20
-199.0543262107694
 30
0.0
 11
143.6073590332544
 21
-199.0543262107694
 31
0.0
  0
LINE
  8
DETAIL
  6
CONTINUOUS
 62
     5
 10
143.6073590332544
 20
-199.0543262107694
 30
0.0
 11
144.17927205210461
 21
-198.88275230511451
 31
0.0
  0
LINE
  8
DETAIL
  6
CONTINUOUS
 62
     5
 10
144.17927205210461
 20
-198.88275230511451
 30
0.0
 11
144.69399376906949
 21
-198.3680305881494
 31
0.0
  0
LINE
  8
DETAIL
  6
CONTINUOUS
 62
     5
 10
144.69399376906949
 20
-198.3680305881494
 30
0.0
 11
144.86556767472459
 21
-197.85330887118431
 31
0.0
  0
LINE
  8
DETAIL
  6
CONTINUOUS
 62
     5
 10
144.86556767472459
 20
-197.85330887118431
 30
0.0
 11
144.86556767472459
 21
-197.16701324856419
 31
0.0
  0
LINE
  8
DETAIL
  6
CONTINUOUS
 62
     5
 10
111.4086560719952
 20
-197.16701324856419
 30
0.0
 11
111.4086560719952
 21
-197.85330887118431
 31
0.0
  0
LINE
  8
DETAIL
  6
CONTINUOUS
 62
     5
 10
111.4086560719952
 20
-197.85330887118431
 30
0.0
 11
111.6946125814202
 21
-198.3680305881494
 31
0.0
  0
LINE
  8
DETAIL
  6
CONTINUOUS
 62
     5
 10
111.6946125814202
 20
-198.3680305881494
 30
0.0
 11
112.2093342983853
 21
-198.88275230511451
 31
0.0
  0
LINE
  8
DETAIL
  6
CONTINUOUS
 62
     5
 10
112.2093342983853
 20
-198.88275230511451
 30
0.0
 11
112.6096734115804
 21
-199.0543262107694
 31
0.0
  0
LINE
  8
DETAIL
  6
CONTINUOUS
 62
     5
 10
112.6096734115804
 20
-199.0543262107694
 30
0.0
 11
113.41035163797051
 21
-199.0543262107694
 31
0.0
  0
LINE
  8
DETAIL
  6
CONTINUOUS
 62
     5
 10
100.14196960064869
 20
-194.5786829467738
 30
0.0
 11
100.14196960064869
 21
-197.16701324856419
 31
0.0
  0
LINE
  8
DETAIL
  6
CONTINUOUS
 62
     5
 10
68.457988356354235
 20
-264.52364515213839
 30
0.0
 11
0.0
 21
-264.52364515213839
 31
0.0
  0
LINE
  8
DETAIL
  6
CONTINUOUS
 62
     5
 10
89.961917865117357
 20
-194.5786829467738
 30
0.0
 11
0.0
 21
-194.5786829467738
 31
0.0
  0
LINE
  8
DETAIL
  6
CONTINUOUS
 62
     5
 10
69.430240488399249
 20
-254.51516732226199
 30
0.0
 11
0.0
 21
-254.51516732226199
 31
0.0
  0
LINE
  8
DETAIL
  6
CONTINUOUS
 62
     5
 10
0.0
 20
-204.37311728607531
 30
0.0
 11
79.953440035240874
 21
-204.37311728607531
 31
0.0
  0
LINE
  8
DETAIL
  6
CONTINUOUS
 62
     5
 10
79.953440035240874
 20
-204.08716077665031
 30
0.0
 11
70.974405639294673
 21
-254.51516732226199
 31
0.0
  0
LINE
  8
DETAIL
  6
CONTINUOUS
 62
     5
 10
81.95513560121617
 20
-195.3793611731638
 30
0.0
 11
81.440413884251029
 21
-195.3793611731638
 31
0.0
  0
LINE
  8
DETAIL
  6
CONTINUOUS
 62
     5
 10
81.440413884251029
 20
-195.3793611731638
 30
0.0
 11
80.925692167285888
 21
-195.66531768258889
 31
0.0
  0
LINE
  8
DETAIL
  6
CONTINUOUS
 62
     5
 10
80.925692167285888
 20
-195.66531768258889
 30
0.0
 11
80.468161752206015
 21
-196.06565679578401
 31
0.0
  0
LINE
  8
DETAIL
  6
CONTINUOUS
 62
     5
 10
80.468161752206015
 20
-196.06565679578401
 30
0.0
 11
80.125013940895769
 21
-196.1947611165192
 31
0.0
  0
LINE
  8
DETAIL
  6
CONTINUOUS
 62
     5
 10
80.125013940895769
 20
-196.1947611165192
 30
0.0
 11
79.953440035240874
 21
-196.88105673913921
 31
0.0
  0
LINE
  8
DETAIL
  6
CONTINUOUS
 62
     5
 10
79.953440035240874
 20
-204.37311728607531
 30
0.0
 11
79.953440035240874
 21
-204.08716077665031
 31
0.0
  0
LINE
  8
DETAIL
  6
CONTINUOUS
 62
     5
 10
79.953440035240874
 20
-204.65907379550029
 30
0.0
 11
79.953440035240874
 21
-204.37311728607531
 31
0.0
  0
LINE
  8
DETAIL
  6
CONTINUOUS
 62
     5
 10
89.961917865117357
 20
-195.3793611731638
 30
0.0
 11
0.0
 21
-195.3793611731638
 31
0.0
  0
LINE
  8
DETAIL
  6
CONTINUOUS
 62
     5
 10
68.457988356354235
 20
-264.52364515213839
 30
0.0
 11
69.258666582744354
 21
-264.52364515213839
 31
0.0
  0
LINE
  8
DETAIL
  6
CONTINUOUS
 62
     5
 10
69.258666582744354
 20
-264.52364515213839
 30
0.0
 11
69.944962205364391
 21
-264.12330603894338
 31
0.0
  0
LINE
  8
DETAIL
  6
CONTINUOUS
 62
     5
 10
69.944962205364391
 20
-264.12330603894338
 30
0.0
 11
70.459683922329532
 21
-263.49420171820822
 31
0.0
  0
LINE
  8
DETAIL
  6
CONTINUOUS
 62
     5
 10
70.459683922329532
 20
-263.49420171820822
 30
0.0
 11
70.974405639294673
 21
-262.80790609558812
 31
0.0
  0
LINE
  8
DETAIL
  6
CONTINUOUS
 62
     5
 10
70.974405639294673
 20
-262.80790609558812
 30
0.0
 11
70.974405639294673
 21
-262.007227869198
 31
0.0
  0
LINE
  8
DETAIL
  6
CONTINUOUS
 62
     5
 10
89.961917865117357
 20
-195.3793611731638
 30
0.0
 11
89.961917865117357
 21
-194.5786829467738
 31
0.0
  0
LINE
  8
DETAIL
  6
CONTINUOUS
 62
     5
 10
79.953440035240874
 20
-204.08716077665031
 30
0.0
 11
79.953440035240874
 21
-196.88105673913921
 31
0.0
  0
LINE
  8
DETAIL
  6
CONTINUOUS
 62
     5
 10
70.974405639294673
 20
-262.007227869198
 30
0.0
 11
70.974405639294673
 21
-254.51516732226199
 31
0.0
  0
LINE
  8
DETAIL
  6
CONTINUOUS
 62
     5
 10
-68.114840545044217
 20
-264.52364515213839
 30
0.0
 11
0.0
 21
-264.52364515213839
 31
0.0
  0
LINE
  8
DETAIL
  6
CONTINUOUS
 62
     5
 10
-89.904726563232089
 20
-194.5786829467738
 30
0.0
 11
0.0
 21
-194.5786829467738
 31
0.0
  0
LINE
  8
DETAIL
  6
CONTINUOUS
 62
     5
 10
-69.144283978974272
 20
-254.51516732226199
 30
0.0
 11
0.0
 21
-254.51516732226199
 31
0.0
  0
LINE
  8
DETAIL
  6
CONTINUOUS
 62
     5
 10
0.0
 20
-204.37311728607531
 30
0.0
 11
-79.896248733355833
 21
-204.37311728607531
 31
0.0
  0
LINE
  8
DETAIL
  6
CONTINUOUS
 62
     5
 10
-79.896248733355833
 20
-204.08716077665031
 30
0.0
 11
-70.917214337409405
 21
-254.51516732226199
 31
0.0
  0
LINE
  8
DETAIL
  6
CONTINUOUS
 62
     5
 10
-79.896248733355833
 20
-196.88105673913921
 30
0.0
 11
-79.896248733355833
 21
-196.1947611165192
 31
0.0
  0
LINE
  8
DETAIL
  6
CONTINUOUS
 62
     5
 10
-79.896248733355833
 20
-196.1947611165192
 30
0.0
 11
-80.125013940895769
 21
-196.06565679578401
 31
0.0
  0
LINE
  8
DETAIL
  6
CONTINUOUS
 62
     5
 10
-80.125013940895769
 20
-196.06565679578401
 30
0.0
 11
-80.639735657860683
 21
-195.66531768258889
 31
0.0
  0
LINE
  8
DETAIL
  6
CONTINUOUS
 62
     5
 10
-80.639735657860683
 20
-195.66531768258889
 30
0.0
 11
-81.211648676711093
 21
-195.3793611731638
 31
0.0
  0
LINE
  8
DETAIL
  6
CONTINUOUS
 62
     5
 10
-81.211648676711093
 20
-195.3793611731638
 30
0.0
 11
-81.897944299330902
 21
-195.3793611731638
 31
0.0
  0
LINE
  8
DETAIL
  6
CONTINUOUS
 62
     5
 10
-79.896248733355833
 20
-204.08716077665031
 30
0.0
 11
-79.896248733355833
 21
-204.37311728607531
 31
0.0
  0
LINE
  8
DETAIL
  6
CONTINUOUS
 62
     5
 10
-79.896248733355833
 20
-204.37311728607531
 30
0.0
 11
-79.896248733355833
 21
-204.65907379550029
 31
0.0
  0
LINE
  8
DETAIL
  6
CONTINUOUS
 62
     5
 10
-89.904726563232089
 20
-195.3793611731638
 30
0.0
 11
0.0
 21
-195.3793611731638
 31
0.0
  0
LINE
  8
DETAIL
  6
CONTINUOUS
 62
     5
 10
-70.917214337409405
 20
-262.007227869198
 30
0.0
 11
-70.631257827984427
 21
-262.80790609558812
 31
0.0
  0
LINE
  8
DETAIL
  6
CONTINUOUS
 62
     5
 10
-70.631257827984427
 20
-262.80790609558812
 30
0.0
 11
-70.402492620444491
 21
-263.49420171820822
 31
0.0
  0
LINE
  8
DETAIL
  6
CONTINUOUS
 62
     5
 10
-70.402492620444491
 20
-263.49420171820822
 30
0.0
 11
-69.716196997824454
 21
-264.12330603894338
 31
0.0
  0
LINE
  8
DETAIL
  6
CONTINUOUS
 62
     5
 10
-69.716196997824454
 20
-264.12330603894338
 30
0.0
 11
-68.915518771434108
 21
-264.52364515213839
 31
0.0
  0
LINE
  8
DETAIL
  6
CONTINUOUS
 62
     5
 10
-68.915518771434108
 20
-264.52364515213839
 30
0.0
 11
-68.114840545044217
 21
-264.52364515213839
 31
0.0
  0
LINE
  8
DETAIL
  6
CONTINUOUS
 62
     5
 10
-89.904726563232089
 20
-195.3793611731638
 30
0.0
 11
-89.904726563232089
 21
-194.5786829467738
 31
0.0
  0
LINE
  8
DETAIL
  6
CONTINUOUS
 62
     5
 10
-79.896248733355833
 20
-204.08716077665031
 30
0.0
 11
-79.896248733355833
 21
-196.88105673913921
 31
0.0
  0
LINE
  8
DETAIL
  6
CONTINUOUS
 62
     5
 10
-70.917214337409405
 20
-262.007227869198
 30
0.0
 11
-70.917214337409405
 21
-254.51516732226199
 31
0.0
  0
LINE
  8
DETAIL
  6
CONTINUOUS
 62
     5
 10
68.457988356354463
 20
264.52364515213799
 30
0.0
 11
0.0
 21
264.52364515213799
 31
0.0
  0
LINE
  8
DETAIL
  6
CONTINUOUS
 62
     5
 10
89.961917865117357
 20
194.5786829467738
 30
0.0
 11
0.0
 21
194.5786829467738
 31
0.0
  0
LINE
  8
DETAIL
  6
CONTINUOUS
 62
     5
 10
69.430240488399704
 20
254.51516732226199
 30
0.0
 11
0.0
 21
254.51516732226199
 31
0.0
  0
LINE
  8
DETAIL
  6
CONTINUOUS
 62
     5
 10
0.0
 20
204.08716077665011
 30
0.0
 11
79.953440035240874
 21
204.08716077665011
 31
0.0
  0
LINE
  8
DETAIL
  6
CONTINUOUS
 62
     5
 10
79.953440035240874
 20
203.8012042672249
 30
0.0
 11
70.974405639294673
 21
254.51516732226199
 31
0.0
  0
LINE
  8
DETAIL
  6
CONTINUOUS
 62
     5
 10
79.953440035240874
 20
196.59510022971401
 30
0.0
 11
80.125013940895997
 21
195.79442200332389
 31
0.0
  0
LINE
  8
DETAIL
  6
CONTINUOUS
 62
     5
 10
80.125013940895997
 20
195.79442200332389
 30
0.0
 11
80.468161752206015
 21
195.7797002863588
 31
0.0
  0
LINE
  8
DETAIL
  6
CONTINUOUS
 62
     5
 10
80.468161752206015
 20
195.7797002863588
 30
0.0
 11
80.925692167286343
 21
195.26497856939389
 31
0.0
  0
LINE
  8
DETAIL
  6
CONTINUOUS
 62
     5
 10
80.925692167286343
 20
195.26497856939389
 30
0.0
 11
81.440413884251029
 21
194.97902205996871
 31
0.0
  0
LINE
  8
DETAIL
  6
CONTINUOUS
 62
     5
 10
81.440413884251029
 20
194.97902205996871
 30
0.0
 11
81.95513560121617
 21
194.97902205996871
 31
0.0
  0
LINE
  8
DETAIL
  6
CONTINUOUS
 62
     5
 10
79.953440035240874
 20
203.8012042672249
 30
0.0
 11
79.953440035240874
 21
204.08716077665011
 31
0.0
  0
LINE
  8
DETAIL
  6
CONTINUOUS
 62
     5
 10
79.953440035240874
 20
204.08716077665011
 30
0.0
 11
79.953440035240874
 21
204.2587346823052
 31
0.0
  0
LINE
  8
DETAIL
  6
CONTINUOUS
 62
     5
 10
89.961917865117357
 20
194.97902205996871
 30
0.0
 11
0.0
 21
194.97902205996871
 31
0.0
  0
LINE
  8
DETAIL
  6
CONTINUOUS
 62
     5
 10
70.974405639294673
 20
261.7212713597728
 30
0.0
 11
70.974405639294673
 21
262.40756698239278
 31
0.0
  0
LINE
  8
DETAIL
  6
CONTINUOUS
 62
     5
 10
70.974405639294673
 20
262.40756698239278
 30
0.0
 11
70.459683922329532
 21
263.20824520878301
 31
0.0
  0
LINE
  8
DETAIL
  6
CONTINUOUS
 62
     5
 10
70.459683922329532
 20
263.20824520878301
 30
0.0
 11
69.944962205364391
 21
263.95173213328798
 31
0.0
  0
LINE
  8
DETAIL
  6
CONTINUOUS
 62
     5
 10
69.944962205364391
 20
263.95173213328798
 30
0.0
 11
69.258666582744354
 21
264.23768864271301
 31
0.0
  0
LINE
  8
DETAIL
  6
CONTINUOUS
 62
     5
 10
69.258666582744354
 20
264.23768864271301
 30
0.0
 11
68.457988356354463
 21
264.52364515213799
 31
0.0
  0
LINE
  8
DETAIL
  6
CONTINUOUS
 62
     5
 10
89.961917865117357
 20
194.97902205996871
 30
0.0
 11
89.961917865117357
 21
194.5786829467738
 31
0.0
  0
LINE
  8
DETAIL
  6
CONTINUOUS
 62
     5
 10
79.953440035240874
 20
203.8012042672249
 30
0.0
 11
79.953440035240874
 21
196.59510022971401
 31
0.0
  0
LINE
  8
DETAIL
  6
CONTINUOUS
 62
     5
 10
70.974405639294673
 20
261.7212713597728
 30
0.0
 11
70.974405639294673
 21
254.51516732226199
 31
0.0
  0
LINE
  8
DETAIL
  6
CONTINUOUS
 62
     5
 10
-68.11484054504399
 20
264.52364515213799
 30
0.0
 11
0.0
 21
264.52364515213799
 31
0.0
  0
LINE
  8
DETAIL
  6
CONTINUOUS
 62
     5
 10
-89.904726563232089
 20
194.5786829467738
 30
0.0
 11
0.0
 21
194.5786829467738
 31
0.0
  0
LINE
  8
DETAIL
  6
CONTINUOUS
 62
     5
 10
-69.144283978974272
 20
254.51516732226199
 30
0.0
 11
0.0
 21
254.51516732226199
 31
0.0
  0
LINE
  8
DETAIL
  6
CONTINUOUS
 62
     5
 10
0.0
 20
204.08716077665011
 30
0.0
 11
-79.896248733355833
 21
204.08716077665011
 31
0.0
  0
LINE
  8
DETAIL
  6
CONTINUOUS
 62
     5
 10
-79.896248733355833
 20
203.8012042672249
 30
0.0
 11
-70.917214337409405
 21
254.51516732226199
 31
0.0
  0
LINE
  8
DETAIL
  6
CONTINUOUS
 62
     5
 10
-81.897944299330675
 20
194.97902205996871
 30
0.0
 11
-81.211648676710865
 21
194.97902205996871
 31
0.0
  0
LINE
  8
DETAIL
  6
CONTINUOUS
 62
     5
 10
-81.211648676710865
 20
194.97902205996871
 30
0.0
 11
-80.639735657860683
 21
195.26497856939389
 31
0.0
  0
LINE
  8
DETAIL
  6
CONTINUOUS
 62
     5
 10
-80.639735657860683
 20
195.26497856939389
 30
0.0
 11
-80.125013940895769
 21
195.7797002863588
 31
0.0
  0
LINE
  8
DETAIL
  6
CONTINUOUS
 62
     5
 10
-80.125013940895769
 20
195.7797002863588
 30
0.0
 11
-79.896248733355833
 21
195.79442200332389
 31
0.0
  0
LINE
  8
DETAIL
  6
CONTINUOUS
 62
     5
 10
-79.896248733355833
 20
195.79442200332389
 30
0.0
 11
-79.896248733355833
 21
196.59510022971401
 31
0.0
  0
LINE
  8
DETAIL
  6
CONTINUOUS
 62
     5
 10
-79.896248733355833
 20
204.08716077665011
 30
0.0
 11
-79.896248733355833
 21
203.8012042672249
 31
0.0
  0
LINE
  8
DETAIL
  6
CONTINUOUS
 62
     5
 10
-79.896248733355833
 20
204.2587346823052
 30
0.0
 11
-79.896248733355833
 21
204.08716077665011
 31
0.0
  0
LINE
  8
DETAIL
  6
CONTINUOUS
 62
     5
 10
-89.904726563232089
 20
194.97902205996871
 30
0.0
 11
0.0
 21
194.97902205996871
 31
0.0
  0
LINE
  8
DETAIL
  6
CONTINUOUS
 62
     5
 10
-68.11484054504399
 20
264.52364515213799
 30
0.0
 11
-68.915518771434108
 21
264.23768864271301
 31
0.0
  0
LINE
  8
DETAIL
  6
CONTINUOUS
 62
     5
 10
-68.915518771434108
 20
264.23768864271301
 30
0.0
 11
-69.716196997824227
 21
263.95173213328798
 31
0.0
  0
LINE
  8
DETAIL
  6
CONTINUOUS
 62
     5
 10
-69.716196997824227
 20
263.95173213328798
 30
0.0
 11
-70.402492620444264
 21
263.20824520878301
 31
0.0
  0
LINE
  8
DETAIL
  6
CONTINUOUS
 62
     5
 10
-70.402492620444264
 20
263.20824520878301
 30
0.0
 11
-70.631257827984427
 21
262.40756698239278
 31
0.0
  0
LINE
  8
DETAIL
  6
CONTINUOUS
 62
     5
 10
-70.631257827984427
 20
262.40756698239278
 30
0.0
 11
-70.917214337409405
 21
261.7212713597728
 31
0.0
  0
LINE
  8
DETAIL
  6
CONTINUOUS
 62
     5
 10
-89.904726563232089
 20
194.97902205996871
 30
0.0
 11
-89.904726563232089
 21
194.5786829467738
 31
0.0
  0
LINE
  8
DETAIL
  6
CONTINUOUS
 62
     5
 10
-79.896248733355833
 20
203.8012042672249
 30
0.0
 11
-79.896248733355833
 21
196.59510022971401
 31
0.0
  0
LINE
  8
DETAIL
  6
CONTINUOUS
 62
     5
 10
-70.917214337409405
 20
261.7212713597728
 30
0.0
 11
-70.917214337409405
 21
254.51516732226199
 31
0.0
  0
LINE
  8
DETAIL
  6
CONTINUOUS
 62
     5
 10
-128.3944727318424
 20
-1.744334707492726
 30
0.0
 11
-139.6611592031891
 21
-1.744334707492726
 31
0.0
  0
LINE
  8
DETAIL
  6
CONTINUOUS
 62
     5
 10
-139.6611592031891
 20
-1.744334707492726
 30
0.0
 11
-142.86387210874929
 21
-2.3162477263429082
 31
0.0
  0
LINE
  8
DETAIL
  6
CONTINUOUS
 62
     5
 10
-142.86387210874929
 20
-2.3162477263429082
 30
0.0
 11
-145.55186329734471
 21
-3.860412877238105
 31
0.0
  0
LINE
  8
DETAIL
  6
CONTINUOUS
 62
     5
 10
-145.55186329734471
 20
-3.860412877238105
 30
0.0
 11
-147.8395153727449
 21
-6.0336823488685241
 31
0.0
  0
LINE
  8
DETAIL
  6
CONTINUOUS
 62
     5
 10
-147.8395153727449
 20
-6.0336823488685241
 30
0.0
 11
-149.0405327123301
 21
-8.836056141233712
 31
0.0
  0
LINE
  8
DETAIL
  6
CONTINUOUS
 62
     5
 10
-149.0405327123301
 20
-8.836056141233712
 30
0.0
 11
-149.6696370330653
 21
-11.752812537369209
 31
0.0
  0
LINE
  8
DETAIL
  6
CONTINUOUS
 62
     5
 10
-149.6696370330653
 20
-11.752812537369209
 30
0.0
 11
-149.6696370330653
 21
-123.16146860936421
 31
0.0
  0
LINE
  8
DETAIL
  6
CONTINUOUS
 62
     5
 10
-139.6611592031891
 20
-110.2362343833524
 30
0.0
 11
-128.3944727318424
 21
-110.2362343833524
 31
0.0
  0
LINE
  8
DETAIL
  6
CONTINUOUS
 62
     5
 10
-149.6696370330653
 20
-123.16146860936421
 30
0.0
 11
-149.0405327123301
 21
-126.42137281680969
 31
0.0
  0
LINE
  8
DETAIL
  6
CONTINUOUS
 62
     5
 10
-149.0405327123301
 20
-126.42137281680969
 30
0.0
 11
-147.8395153727449
 21
-129.10936400540501
 31
0.0
  0
LINE
  8
DETAIL
  6
CONTINUOUS
 62
     5
 10
-147.8395153727449
 20
-129.10936400540501
 30
0.0
 11
-145.55186329734471
 21
-131.45420738269041
 31
0.0
  0
LINE
  8
DETAIL
  6
CONTINUOUS
 62
     5
 10
-145.55186329734471
 20
-131.45420738269041
 30
0.0
 11
-142.86387210874929
 21
-132.7124160241606
 31
0.0
  0
LINE
  8
DETAIL
  6
CONTINUOUS
 62
     5
 10
-142.86387210874929
 20
-132.7124160241606
 30
0.0
 11
-139.6611592031891
 21
-133.11275513735561
 31
0.0
  0
LINE
  8
DETAIL
  6
CONTINUOUS
 62
     5
 10
-139.6611592031891
 20
-133.11275513735561
 30
0.0
 11
-127.3650292979121
 21
-133.11275513735561
 31
0.0
  0
LINE
  8
DETAIL
  6
CONTINUOUS
 62
     5
 10
-149.6696370330653
 20
-100.2849478553612
 30
0.0
 11
-149.0405327123301
 21
-103.1445129496115
 31
0.0
  0
LINE
  8
DETAIL
  6
CONTINUOUS
 62
     5
 10
-149.0405327123301
 20
-103.1445129496115
 30
0.0
 11
-147.8395153727449
 21
-105.9468867419769
 31
0.0
  0
LINE
  8
DETAIL
  6
CONTINUOUS
 62
     5
 10
-147.8395153727449
 20
-105.9468867419769
 30
0.0
 11
-145.55186329734471
 21
-108.1773475154923
 31
0.0
  0
LINE
  8
DETAIL
  6
CONTINUOUS
 62
     5
 10
-145.55186329734471
 20
-108.1773475154923
 30
0.0
 11
-142.86387210874929
 21
-109.77870396827259
 31
0.0
  0
LINE
  8
DETAIL
  6
CONTINUOUS
 62
     5
 10
-142.86387210874929
 20
-109.77870396827259
 30
0.0
 11
-139.6611592031891
 21
-110.2362343833524
 31
0.0
  0
LINE
  8
DETAIL
  6
CONTINUOUS
 62
     5
 10
-80.639735657860683
 20
-195.20778726750891
 30
0.0
 11
-89.904726563232089
 21
-195.20778726750891
 31
0.0
  0
LINE
  8
DETAIL
  6
CONTINUOUS
 62
     5
 10
-89.904726563232089
 20
-194.5786829467738
 30
0.0
 11
-89.904726563232089
 21
-195.20778726750891
 31
0.0
  0
LINE
  8
DETAIL
  6
CONTINUOUS
 62
     5
 10
-80.639735657860683
 20
-194.5786829467738
 30
0.0
 11
-80.639735657860683
 21
-195.20778726750891
 31
0.0
  0
LINE
  8
DETAIL
  6
CONTINUOUS
 62
     5
 10
-89.904726563232089
 20
-194.5786829467738
 30
0.0
 11
-80.639735657860683
 21
-194.5786829467738
 31
0.0
  0
LINE
  8
DETAIL
  6
CONTINUOUS
 62
     5
 10
-89.904726563232089
 20
-195.20778726750891
 30
0.0
 11
-88.703709223646911
 21
-196.06565679578401
 31
0.0
  0
LINE
  8
DETAIL
  6
CONTINUOUS
 62
     5
 10
-88.703709223646911
 20
-196.06565679578401
 30
0.0
 11
-87.216735374636755
 21
-196.3663350221743
 31
0.0
  0
LINE
  8
DETAIL
  6
CONTINUOUS
 62
     5
 10
-87.216735374636755
 20
-196.3663350221743
 30
0.0
 11
-85.443805016201622
 21
-196.59510022971429
 31
0.0
  0
LINE
  8
DETAIL
  6
CONTINUOUS
 62
     5
 10
-85.443805016201622
 20
-196.59510022971429
 30
0.0
 11
-83.728065959651303
 21
-196.3663350221743
 31
0.0
  0
LINE
  8
DETAIL
  6
CONTINUOUS
 62
     5
 10
-83.728065959651303
 20
-196.3663350221743
 30
0.0
 11
-81.897944299330902
 21
-196.06565679578401
 31
0.0
  0
LINE
  8
DETAIL
  6
CONTINUOUS
 62
     5
 10
-81.897944299330902
 20
-196.06565679578401
 30
0.0
 11
-80.639735657860683
 21
-195.20778726750891
 31
0.0
  0
LINE
  8
DETAIL
  6
CONTINUOUS
 62
     5
 10
112.2093342983853
 20
198.48241319191919
 30
0.0
 11
109.9216822229848
 21
199.11151751265419
 31
0.0
  0
LINE
  8
DETAIL
  6
CONTINUOUS
 62
     5
 10
109.9216822229848
 20
199.11151751265419
 30
0.0
 11
107.6340301475848
 21
198.7683697013442
 31
0.0
  0
LINE
  8
DETAIL
  6
CONTINUOUS
 62
     5
 10
107.6340301475848
 20
198.7683697013442
 30
0.0
 11
105.74671718537959
 21
198.3108392862641
 31
0.0
  0
LINE
  8
DETAIL
  6
CONTINUOUS
 62
     5
 10
105.74671718537959
 20
198.3108392862641
 30
0.0
 11
103.91659552505919
 21
196.99543934290909
 31
0.0
  0
LINE
  8
DETAIL
  6
CONTINUOUS
 62
     5
 10
-103.687830317519
 20
196.99543934290909
 30
0.0
 11
-105.40356937406909
 21
198.3108392862641
 31
0.0
  0
LINE
  8
DETAIL
  6
CONTINUOUS
 62
     5
 10
-105.40356937406909
 20
198.3108392862641
 30
0.0
 11
-107.5768388456995
 21
198.7683697013442
 31
0.0
  0
LINE
  8
DETAIL
  6
CONTINUOUS
 62
     5
 10
-107.5768388456995
 20
198.7683697013442
 30
0.0
 11
-109.69291701544471
 21
199.11151751265419
 31
0.0
  0
LINE
  8
DETAIL
  6
CONTINUOUS
 62
     5
 10
-109.69291701544471
 20
199.11151751265419
 30
0.0
 11
-111.8661864870751
 21
198.48241319191919
 31
0.0
  0
LINE
  8
DETAIL
  6
CONTINUOUS
 62
     5
 10
-111.8661864870751
 20
-198.88275230511451
 30
0.0
 11
-109.69291701544471
 21
-199.39747402207959
 31
0.0
  0
LINE
  8
DETAIL
  6
CONTINUOUS
 62
     5
 10
-109.69291701544471
 20
-199.39747402207959
 30
0.0
 11
-107.5768388456995
 21
-199.0543262107694
 31
0.0
  0
LINE
  8
DETAIL
  6
CONTINUOUS
 62
     5
 10
-107.5768388456995
 20
-199.0543262107694
 30
0.0
 11
-105.40356937406909
 21
-198.3680305881494
 31
0.0
  0
LINE
  8
DETAIL
  6
CONTINUOUS
 62
     5
 10
-105.40356937406909
 20
-198.3680305881494
 30
0.0
 11
-103.687830317519
 21
-197.16701324856419
 31
0.0
  0
LINE
  8
DETAIL
  6
CONTINUOUS
 62
     5
 10
103.91659552505919
 20
-197.16701324856419
 30
0.0
 11
105.7467171853793
 21
-198.3680305881494
 31
0.0
  0
LINE
  8
DETAIL
  6
CONTINUOUS
 62
     5
 10
105.7467171853793
 20
-198.3680305881494
 30
0.0
 11
107.6340301475846
 21
-199.0543262107694
 31
0.0
  0
LINE
  8
DETAIL
  6
CONTINUOUS
 62
     5
 10
107.6340301475846
 20
-199.0543262107694
 30
0.0
 11
109.9216822229848
 21
-199.39747402207959
 31
0.0
  0
LINE
  8
DETAIL
  6
CONTINUOUS
 62
     5
 10
109.9216822229848
 20
-199.39747402207959
 30
0.0
 11
112.2093342983853
 21
-198.88275230511451
 31
0.0
  0
LINE
  8
OUTLINE
  6
CONTINUOUS
 62
     3
 10
-126.3927771658673
 20
-124.4196772508344
 30
0.0
 11
-126.3927771658673
 21
-126.2497989111548
 31
0.0
  0
LINE
  8
OUTLINE
  6
CONTINUOUS
 62
     3
 10
-123.36163816596149
 20
-193.2060917015335
 30
0.0
 11
-116.3842993359906
 21
-193.2060917015335
 31
0.0
  0
LINE
  8
OUTLINE
  6
CONTINUOUS
 62
     3
 10
126.67873367529231
 20
194.5786829467738
 30
0.0
 11
126.67873367529231
 21
192.80575258833821
 31
0.0
  0
LINE
  8
OUTLINE
  6
CONTINUOUS
 62
     3
 10
-126.3927771658671
 20
194.5786829467738
 30
0.0
 11
-126.3927771658671
 21
192.51979607891349
 31
0.0
  0
LINE
  8
OUTLINE
  6
CONTINUOUS
 62
     3
 10
-126.3927771658671
 20
194.5786829467738
 30
0.0
 11
126.67873367529231
 21
194.5786829467738
 31
0.0
  0
LINE
  8
OUTLINE
  6
CONTINUOUS
 62
     3
 10
-123.87635988292659
 20
-192.69136998456861
 30
0.0
 11
-123.36163816596149
 21
-193.2060917015335
 31
0.0
  0
LINE
  8
OUTLINE
  6
CONTINUOUS
 62
     3
 10
123.93355118481171
 20
-193.2060917015335
 30
0.0
 11
123.5904033735019
 21
-193.2060917015335
 31
0.0
  0
LINE
  8
OUTLINE
  6
CONTINUOUS
 62
     3
 10
-126.3927771658671
 20
128.6371118733598
 30
0.0
 11
-126.3927771658671
 21
126.52103370361441
 31
0.0
  0
LINE
  8
OUTLINE
  6
CONTINUOUS
 62
     3
 10
126.67873367529231
 20
-193.89238732415379
 30
0.0
 11
126.67873367529231
 21
-194.5786829467738
 31
0.0
  0
LINE
  8
OUTLINE
  6
CONTINUOUS
 62
     3
 10
126.67873367529231
 20
-193.3776656071889
 30
0.0
 11
126.67873367529231
 21
-193.89238732415379
 31
0.0
  0
LINE
  8
OUTLINE
  6
CONTINUOUS
 62
     3
 10
59.764910469833012
 20
-194.5786829467738
 30
0.0
 11
62.967623375393487
 21
-194.5786829467738
 31
0.0
  0
LINE
  8
OUTLINE
  6
CONTINUOUS
 62
     3
 10
69.944962205364391
 20
-194.5786829467738
 30
0.0
 11
73.433631620349843
 21
-194.5786829467738
 31
0.0
  0
LINE
  8
OUTLINE
  6
CONTINUOUS
 62
     3
 10
126.67873367529231
 20
-194.5786829467738
 30
0.0
 11
-126.3927771658673
 21
-194.5786829467738
 31
0.0
  0
LINE
  8
OUTLINE
  6
CONTINUOUS
 62
     3
 10
-70.116536111019286
 20
-194.5786829467738
 30
0.0
 11
-66.913823205458812
 21
-194.5786829467738
 31
0.0
  0
LINE
  8
OUTLINE
  6
CONTINUOUS
 62
     3
 10
-59.936484375487908
 20
-194.5786829467738
 30
0.0
 11
-56.44781496050291
 21
-194.5786829467738
 31
0.0
  0
LINE
  8
OUTLINE
  6
CONTINUOUS
 62
     3
 10
-116.3842993359906
 20
-179.59456185290171
 30
0.0
 11
-116.3842993359906
 21
-194.5786829467738
 31
0.0
  0
LINE
  8
OUTLINE
  6
CONTINUOUS
 62
     3
 10
84.242787676616445
 20
-194.5786829467738
 30
0.0
 11
87.445500582176919
 21
-194.5786829467738
 31
0.0
  0
LINE
  8
OUTLINE
  6
CONTINUOUS
 62
     3
 10
94.422839412147823
 20
-194.5786829467738
 30
0.0
 11
97.911508827133275
 21
-194.5786829467738
 31
0.0
  0
LINE
  8
OUTLINE
  6
CONTINUOUS
 62
     3
 10
126.67873367529231
 20
-193.2060917015335
 30
0.0
 11
126.67873367529231
 21
-193.3776656071889
 31
0.0
  0
LINE
  8
OUTLINE
  6
CONTINUOUS
 62
     3
 10
126.67873367529231
 20
194.5786829467738
 30
0.0
 11
118.9007166189315
 21
194.5786829467738
 31
0.0
  0
LINE
  8
OUTLINE
  6
CONTINUOUS
 62
     3
 10
127.59379450545249
 20
192.80575258833821
 30
0.0
 11
123.93355118481171
 21
192.80575258833821
 31
0.0
  0
LINE
  8
OUTLINE
  6
CONTINUOUS
 62
     3
 10
127.593794505452
 20
-193.2060917015335
 30
0.0
 11
123.93355118481171
 21
-193.2060917015335
 31
0.0
  0
LINE
  8
OUTLINE
  6
CONTINUOUS
 62
     3
 10
127.59379450545249
 20
192.80575258833821
 30
0.0
 11
127.593794505452
 21
-193.2060917015335
 31
0.0
  0
LINE
  8
OUTLINE
  6
CONTINUOUS
 62
     3
 10
126.67873367529231
 20
-194.5786829467738
 30
0.0
 11
118.900716618931
 21
-194.5786829467738
 31
0.0
  0
LINE
  8
OUTLINE
  6
CONTINUOUS
 62
     3
 10
126.3927771658671
 20
-194.5786829467738
 30
0.0
 11
126.67873367529231
 21
-194.5786829467738
 31
0.0
  0
LINE
  8
OUTLINE
  6
CONTINUOUS
 62
     3
 10
-123.87635988292659
 20
192.51979607891349
 30
0.0
 11
-127.3650292979121
 21
192.51979607891349
 31
0.0
  0
LINE
  8
OUTLINE
  6
CONTINUOUS
 62
     3
 10
-123.87635988292659
 20
128.6371118733598
 30
0.0
 11
-123.7047859772715
 21
128.6371118733598
 31
0.0
  0
LINE
  8
OUTLINE
  6
CONTINUOUS
 62
     3
 10
-127.3650292979121
 20
128.6371118733598
 30
0.0
 11
-123.87635988292659
 21
128.6371118733598
 31
0.0
  0
LINE
  8
OUTLINE
  6
CONTINUOUS
 62
     3
 10
-118.9007166189308
 20
194.5786829467738
 30
0.0
 11
-126.5643510715222
 21
194.5786829467738
 31
0.0
  0
LINE
  8
OUTLINE
  6
CONTINUOUS
 62
     3
 10
-126.3927771658671
 20
194.29272643734859
 30
0.0
 11
-126.3927771658671
 21
194.5786829467738
 31
0.0
  0
LINE
  8
OUTLINE
  6
CONTINUOUS
 62
     3
 10
-127.3650292979121
 20
128.6371118733598
 30
0.0
 11
-127.3650292979121
 21
192.51979607891349
 31
0.0
  0
LINE
  8
OUTLINE
  6
CONTINUOUS
 62
     3
 10
-126.3927771658673
 20
-194.5786829467738
 30
0.0
 11
-118.3859949019661
 21
-194.5786829467738
 31
0.0
  0
LINE
  8
OUTLINE
  6
CONTINUOUS
 62
     3
 10
-127.3650292979123
 20
-126.2497989111548
 30
0.0
 11
-123.704785977272
 21
-126.2497989111548
 31
0.0
  0
LINE
  8
OUTLINE
  6
CONTINUOUS
 62
     3
 10
-123.704785977272
 20
-192.69136998456861
 30
0.0
 11
-122.1606208263763
 21
-192.4054134751436
 31
0.0
  0
LINE
  8
OUTLINE
  6
CONTINUOUS
 62
     3
 10
-122.1606208263763
 20
-192.4054134751436
 30
0.0
 11
-120.55926437359631
 21
-191.89069175817849
 31
0.0
  0
LINE
  8
OUTLINE
  6
CONTINUOUS
 62
     3
 10
-127.3650292979123
 20
-192.69136998456861
 30
0.0
 11
-123.704785977272
 21
-192.69136998456861
 31
0.0
  0
LINE
  8
OUTLINE
  6
CONTINUOUS
 62
     3
 10
-127.3650292979123
 20
-126.2497989111548
 30
0.0
 11
-127.3650292979123
 21
-192.69136998456861
 31
0.0
  0
LINE
  8
OUTLINE
  6
CONTINUOUS
 62
     3
 10
-124.391081599892
 20
-124.4196772508344
 30
0.0
 11
-122.90410775088139
 21
-124.13372074140941
 31
0.0
  0
LINE
  8
OUTLINE
  6
CONTINUOUS
 62
     3
 10
-128.3944727318426
 20
-124.4196772508344
 30
0.0
 11
-128.39447273184189
 21
126.52103370361441
 31
0.0
  0
LINE
  8
OUTLINE
  6
CONTINUOUS
 62
     3
 10
-124.391081599892
 20
-124.4196772508344
 30
0.0
 11
-128.3944727318426
 21
-124.4196772508344
 31
0.0
  0
LINE
  8
OUTLINE
  6
CONTINUOUS
 62
     3
 10
-128.39447273184189
 20
126.52103370361441
 30
0.0
 11
-124.39108159989181
 21
126.52103370361441
 31
0.0
  0
LINE
  8
OUTLINE
  6
CONTINUOUS
 62
     3
 10
116.72744714730079
 20
194.5786829467738
 30
0.0
 11
100.14196960064869
 21
194.5786829467738
 31
0.0
  0
LINE
  8
OUTLINE
  6
CONTINUOUS
 62
     3
 10
116.72744714730079
 20
194.5786829467738
 30
0.0
 11
116.8990210529557
 21
194.5786829467738
 31
0.0
  0
LINE
  8
OUTLINE
  6
CONTINUOUS
 62
     3
 10
116.8990210529557
 20
194.5786829467738
 30
0.0
 11
117.18497756238121
 21
194.5786829467738
 31
0.0
  0
LINE
  8
OUTLINE
  6
CONTINUOUS
 62
     3
 10
-116.3842993359906
 20
194.5786829467738
 30
0.0
 11
-99.913204393108344
 21
194.5786829467738
 31
0.0
  0
LINE
  8
OUTLINE
  6
CONTINUOUS
 62
     3
 10
-117.18497756238069
 20
194.8074481543137
 30
0.0
 11
-116.8990210529557
 21
194.5786829467738
 31
0.0
  0
LINE
  8
OUTLINE
  6
CONTINUOUS
 62
     3
 10
-116.8990210529557
 20
194.5786829467738
 30
0.0
 11
-116.6130645435305
 21
194.5786829467738
 31
0.0
  0
LINE
  8
OUTLINE
  6
CONTINUOUS
 62
     3
 10
-116.6130645435305
 20
194.5786829467738
 30
0.0
 11
-116.3842993359906
 21
194.5786829467738
 31
0.0
  0
LINE
  8
OUTLINE
  6
CONTINUOUS
 62
     3
 10
-116.3842993359906
 20
-194.5786829467738
 30
0.0
 11
-99.913204393108344
 21
-194.5786829467738
 31
0.0
  0
LINE
  8
OUTLINE
  6
CONTINUOUS
 62
     3
 10
116.72744714730059
 20
-194.5786829467738
 30
0.0
 11
100.14196960064869
 21
-194.5786829467738
 31
0.0
  0
LINE
  8
OUTLINE
  6
CONTINUOUS
 62
     3
 10
68.457988356354235
 20
-264.52364515213839
 30
0.0
 11
0.0
 21
-264.52364515213839
 31
0.0
  0
LINE
  8
OUTLINE
  6
CONTINUOUS
 62
     3
 10
89.961917865117357
 20
-194.5786829467738
 30
0.0
 11
0.0
 21
-194.5786829467738
 31
0.0
  0
LINE
  8
OUTLINE
  6
CONTINUOUS
 62
     3
 10
79.953440035240874
 20
-204.08716077665031
 30
0.0
 11
70.974405639294673
 21
-254.51516732226199
 31
0.0
  0
LINE
  8
OUTLINE
  6
CONTINUOUS
 62
     3
 10
81.95513560121617
 20
-195.3793611731638
 30
0.0
 11
81.440413884251029
 21
-195.3793611731638
 31
0.0
  0
LINE
  8
OUTLINE
  6
CONTINUOUS
 62
     3
 10
81.440413884251029
 20
-195.3793611731638
 30
0.0
 11
80.925692167285888
 21
-195.66531768258889
 31
0.0
  0
LINE
  8
OUTLINE
  6
CONTINUOUS
 62
     3
 10
80.925692167285888
 20
-195.66531768258889
 30
0.0
 11
80.468161752206015
 21
-196.06565679578401
 31
0.0
  0
LINE
  8
OUTLINE
  6
CONTINUOUS
 62
     3
 10
80.468161752206015
 20
-196.06565679578401
 30
0.0
 11
80.125013940895769
 21
-196.1947611165192
 31
0.0
  0
LINE
  8
OUTLINE
  6
CONTINUOUS
 62
     3
 10
80.125013940895769
 20
-196.1947611165192
 30
0.0
 11
79.953440035240874
 21
-196.88105673913921
 31
0.0
  0
LINE
  8
OUTLINE
  6
CONTINUOUS
 62
     3
 10
79.953440035240874
 20
-204.37311728607531
 30
0.0
 11
79.953440035240874
 21
-204.08716077665031
 31
0.0
  0
LINE
  8
OUTLINE
  6
CONTINUOUS
 62
     3
 10
79.953440035240874
 20
-204.65907379550029
 30
0.0
 11
79.953440035240874
 21
-204.37311728607531
 31
0.0
  0
LINE
  8
OUTLINE
  6
CONTINUOUS
 62
     3
 10
89.961917865117357
 20
-195.3793611731638
 30
0.0
 11
0.0
 21
-195.3793611731638
 31
0.0
  0
LINE
  8
OUTLINE
  6
CONTINUOUS
 62
     3
 10
68.457988356354235
 20
-264.52364515213839
 30
0.0
 11
69.258666582744354
 21
-264.52364515213839
 31
0.0
  0
LINE
  8
OUTLINE
  6
CONTINUOUS
 62
     3
 10
69.258666582744354
 20
-264.52364515213839
 30
0.0
 11
69.944962205364391
 21
-264.12330603894338
 31
0.0
  0
LINE
  8
OUTLINE
  6
CONTINUOUS
 62
     3
 10
69.944962205364391
 20
-264.12330603894338
 30
0.0
 11
70.459683922329532
 21
-263.49420171820822
 31
0.0
  0
LINE
  8
OUTLINE
  6
CONTINUOUS
 62
     3
 10
70.459683922329532
 20
-263.49420171820822
 30
0.0
 11
70.974405639294673
 21
-262.80790609558812
 31
0.0
  0
LINE
  8
OUTLINE
  6
CONTINUOUS
 62
     3
 10
70.974405639294673
 20
-262.80790609558812
 30
0.0
 11
70.974405639294673
 21
-262.007227869198
 31
0.0
  0
LINE
  8
OUTLINE
  6
CONTINUOUS
 62
     3
 10
89.961917865117357
 20
-195.3793611731638
 30
0.0
 11
89.961917865117357
 21
-194.5786829467738
 31
0.0
  0
LINE
  8
OUTLINE
  6
CONTINUOUS
 62
     3
 10
79.953440035240874
 20
-204.08716077665031
 30
0.0
 11
79.953440035240874
 21
-196.88105673913921
 31
0.0
  0
LINE
  8
OUTLINE
  6
CONTINUOUS
 62
     3
 10
70.974405639294673
 20
-262.007227869198
 30
0.0
 11
70.974405639294673
 21
-254.51516732226199
 31
0.0
  0
LINE
  8
OUTLINE
  6
CONTINUOUS
 62
     3
 10
-68.114840545044444
 20
-264.52364515213839
 30
0.0
 11
0.0
 21
-264.52364515213839
 31
0.0
  0
LINE
  8
OUTLINE
  6
CONTINUOUS
 62
     3
 10
-89.904726563232089
 20
-194.5786829467738
 30
0.0
 11
0.0
 21
-194.5786829467738
 31
0.0
  0
LINE
  8
OUTLINE
  6
CONTINUOUS
 62
     3
 10
-79.89624873335606
 20
-204.08716077665031
 30
0.0
 11
-70.917214337409405
 21
-254.51516732226199
 31
0.0
  0
LINE
  8
OUTLINE
  6
CONTINUOUS
 62
     3
 10
-79.89624873335606
 20
-196.88105673913921
 30
0.0
 11
-79.89624873335606
 21
-196.1947611165192
 31
0.0
  0
LINE
  8
OUTLINE
  6
CONTINUOUS
 62
     3
 10
-79.89624873335606
 20
-196.1947611165192
 30
0.0
 11
-80.125013940895769
 21
-196.06565679578401
 31
0.0
  0
LINE
  8
OUTLINE
  6
CONTINUOUS
 62
     3
 10
-80.125013940895769
 20
-196.06565679578401
 30
0.0
 11
-80.639735657860683
 21
-195.66531768258889
 31
0.0
  0
LINE
  8
OUTLINE
  6
CONTINUOUS
 62
     3
 10
-80.639735657860683
 20
-195.66531768258889
 30
0.0
 11
-81.211648676711093
 21
-195.3793611731638
 31
0.0
  0
LINE
  8
OUTLINE
  6
CONTINUOUS
 62
     3
 10
-81.211648676711093
 20
-195.3793611731638
 30
0.0
 11
-81.897944299330902
 21
-195.3793611731638
 31
0.0
  0
LINE
  8
OUTLINE
  6
CONTINUOUS
 62
     3
 10
-79.89624873335606
 20
-204.08716077665031
 30
0.0
 11
-79.89624873335606
 21
-204.37311728607531
 31
0.0
  0
LINE
  8
OUTLINE
  6
CONTINUOUS
 62
     3
 10
-79.89624873335606
 20
-204.37311728607531
 30
0.0
 11
-79.89624873335606
 21
-204.65907379550029
 31
0.0
  0
LINE
  8
OUTLINE
  6
CONTINUOUS
 62
     3
 10
-89.904726563232089
 20
-195.3793611731638
 30
0.0
 11
0.0
 21
-195.3793611731638
 31
0.0
  0
LINE
  8
OUTLINE
  6
CONTINUOUS
 62
     3
 10
-70.917214337409405
 20
-262.007227869198
 30
0.0
 11
-70.631257827984427
 21
-262.80790609558812
 31
0.0
  0
LINE
  8
OUTLINE
  6
CONTINUOUS
 62
     3
 10
-70.631257827984427
 20
-262.80790609558812
 30
0.0
 11
-70.402492620444718
 21
-263.49420171820822
 31
0.0
  0
LINE
  8
OUTLINE
  6
CONTINUOUS
 62
     3
 10
-70.402492620444718
 20
-263.49420171820822
 30
0.0
 11
-69.716196997824682
 21
-264.12330603894338
 31
0.0
  0
LINE
  8
OUTLINE
  6
CONTINUOUS
 62
     3
 10
-69.716196997824682
 20
-264.12330603894338
 30
0.0
 11
-68.915518771434108
 21
-264.52364515213839
 31
0.0
  0
LINE
  8
OUTLINE
  6
CONTINUOUS
 62
     3
 10
-68.915518771434108
 20
-264.52364515213839
 30
0.0
 11
-68.114840545044444
 21
-264.52364515213839
 31
0.0
  0
LINE
  8
OUTLINE
  6
CONTINUOUS
 62
     3
 10
-89.904726563232089
 20
-195.3793611731638
 30
0.0
 11
-89.904726563232089
 21
-194.5786829467738
 31
0.0
  0
LINE
  8
OUTLINE
  6
CONTINUOUS
 62
     3
 10
-79.89624873335606
 20
-204.08716077665031
 30
0.0
 11
-79.89624873335606
 21
-196.88105673913921
 31
0.0
  0
LINE
  8
OUTLINE
  6
CONTINUOUS
 62
     3
 10
-70.917214337409405
 20
-262.007227869198
 30
0.0
 11
-70.917214337409405
 21
-254.51516732226199
 31
0.0
  0
LINE
  8
OUTLINE
  6
CONTINUOUS
 62
     3
 10
68.457988356354235
 20
264.52364515213799
 30
0.0
 11
0.0
 21
264.52364515213799
 31
0.0
  0
LINE
  8
OUTLINE
  6
CONTINUOUS
 62
     3
 10
89.961917865117357
 20
194.5786829467738
 30
0.0
 11
0.0
 21
194.5786829467738
 31
0.0
  0
LINE
  8
OUTLINE
  6
CONTINUOUS
 62
     3
 10
79.953440035240874
 20
203.8012042672249
 30
0.0
 11
70.974405639294673
 21
254.51516732226199
 31
0.0
  0
LINE
  8
OUTLINE
  6
CONTINUOUS
 62
     3
 10
79.953440035240874
 20
196.59510022971401
 30
0.0
 11
80.125013940895769
 21
195.79442200332389
 31
0.0
  0
LINE
  8
OUTLINE
  6
CONTINUOUS
 62
     3
 10
80.125013940895769
 20
195.79442200332389
 30
0.0
 11
80.468161752206015
 21
195.7797002863588
 31
0.0
  0
LINE
  8
OUTLINE
  6
CONTINUOUS
 62
     3
 10
80.468161752206015
 20
195.7797002863588
 30
0.0
 11
80.925692167286343
 21
195.26497856939389
 31
0.0
  0
LINE
  8
OUTLINE
  6
CONTINUOUS
 62
     3
 10
80.925692167286343
 20
195.26497856939389
 30
0.0
 11
81.440413884251029
 21
194.97902205996871
 31
0.0
  0
LINE
  8
OUTLINE
  6
CONTINUOUS
 62
     3
 10
81.440413884251029
 20
194.97902205996871
 30
0.0
 11
81.95513560121617
 21
194.97902205996871
 31
0.0
  0
LINE
  8
OUTLINE
  6
CONTINUOUS
 62
     3
 10
79.953440035240874
 20
203.8012042672249
 30
0.0
 11
79.953440035240874
 21
204.08716077665011
 31
0.0
  0
LINE
  8
OUTLINE
  6
CONTINUOUS
 62
     3
 10
79.953440035240874
 20
204.08716077665011
 30
0.0
 11
79.953440035240874
 21
204.2587346823052
 31
0.0
  0
LINE
  8
OUTLINE
  6
CONTINUOUS
 62
     3
 10
89.961917865117357
 20
194.97902205996871
 30
0.0
 11
0.0
 21
194.97902205996871
 31
0.0
  0
LINE
  8
OUTLINE
  6
CONTINUOUS
 62
     3
 10
70.974405639294673
 20
261.7212713597728
 30
0.0
 11
70.974405639294673
 21
262.40756698239278
 31
0.0
  0
LINE
  8
OUTLINE
  6
CONTINUOUS
 62
     3
 10
70.974405639294673
 20
262.40756698239278
 30
0.0
 11
70.459683922329532
 21
263.20824520878301
 31
0.0
  0
LINE
  8
OUTLINE
  6
CONTINUOUS
 62
     3
 10
70.459683922329532
 20
263.20824520878301
 30
0.0
 11
69.944962205364391
 21
263.95173213328798
 31
0.0
  0
LINE
  8
OUTLINE
  6
CONTINUOUS
 62
     3
 10
69.944962205364391
 20
263.95173213328798
 30
0.0
 11
69.258666582744354
 21
264.23768864271301
 31
0.0
  0
LINE
  8
OUTLINE
  6
CONTINUOUS
 62
     3
 10
69.258666582744354
 20
264.23768864271301
 30
0.0
 11
68.457988356354235
 21
264.52364515213799
 31
0.0
  0
LINE
  8
OUTLINE
  6
CONTINUOUS
 62
     3
 10
89.961917865117357
 20
194.97902205996871
 30
0.0
 11
89.961917865117357
 21
194.5786829467738
 31
0.0
  0
LINE
  8
OUTLINE
  6
CONTINUOUS
 62
     3
 10
79.953440035240874
 20
203.8012042672249
 30
0.0
 11
79.953440035240874
 21
196.59510022971401
 31
0.0
  0
LINE
  8
OUTLINE
  6
CONTINUOUS
 62
     3
 10
70.974405639294673
 20
261.7212713597728
 30
0.0
 11
70.974405639294673
 21
254.51516732226199
 31
0.0
  0
LINE
  8
OUTLINE
  6
CONTINUOUS
 62
     3
 10
-68.11484054504399
 20
264.52364515213799
 30
0.0
 11
0.0
 21
264.52364515213799
 31
0.0
  0
LINE
  8
OUTLINE
  6
CONTINUOUS
 62
     3
 10
-89.904726563231861
 20
194.5786829467738
 30
0.0
 11
0.0
 21
194.5786829467738
 31
0.0
  0
LINE
  8
OUTLINE
  6
CONTINUOUS
 62
     3
 10
-79.896248733355833
 20
203.8012042672249
 30
0.0
 11
-70.917214337409405
 21
254.51516732226199
 31
0.0
  0
LINE
  8
OUTLINE
  6
CONTINUOUS
 62
     3
 10
-81.897944299330675
 20
194.97902205996871
 30
0.0
 11
-81.211648676710865
 21
194.97902205996871
 31
0.0
  0
LINE
  8
OUTLINE
  6
CONTINUOUS
 62
     3
 10
-81.211648676710865
 20
194.97902205996871
 30
0.0
 11
-80.639735657860683
 21
195.26497856939389
 31
0.0
  0
LINE
  8
OUTLINE
  6
CONTINUOUS
 62
     3
 10
-80.639735657860683
 20
195.26497856939389
 30
0.0
 11
-80.125013940895769
 21
195.7797002863588
 31
0.0
  0
LINE
  8
OUTLINE
  6
CONTINUOUS
 62
     3
 10
-80.125013940895769
 20
195.7797002863588
 30
0.0
 11
-79.896248733355833
 21
195.79442200332389
 31
0.0
  0
LINE
  8
OUTLINE
  6
CONTINUOUS
 62
     3
 10
-79.896248733355833
 20
195.79442200332389
 30
0.0
 11
-79.896248733355833
 21
196.59510022971401
 31
0.0
  0
LINE
  8
OUTLINE
  6
CONTINUOUS
 62
     3
 10
-79.896248733355833
 20
204.08716077665011
 30
0.0
 11
-79.896248733355833
 21
203.8012042672249
 31
0.0
  0
LINE
  8
OUTLINE
  6
CONTINUOUS
 62
     3
 10
-79.896248733355833
 20
204.2587346823052
 30
0.0
 11
-79.896248733355833
 21
204.08716077665011
 31
0.0
  0
LINE
  8
OUTLINE
  6
CONTINUOUS
 62
     3
 10
-89.904726563231861
 20
194.97902205996871
 30
0.0
 11
0.0
 21
194.97902205996871
 31
0.0
  0
LINE
  8
OUTLINE
  6
CONTINUOUS
 62
     3
 10
-68.11484054504399
 20
264.52364515213799
 30
0.0
 11
-68.915518771434108
 21
264.23768864271301
 31
0.0
  0
LINE
  8
OUTLINE
  6
CONTINUOUS
 62
     3
 10
-68.915518771434108
 20
264.23768864271301
 30
0.0
 11
-69.716196997824227
 21
263.95173213328798
 31
0.0
  0
LINE
  8
OUTLINE
  6
CONTINUOUS
 62
     3
 10
-69.716196997824227
 20
263.95173213328798
 30
0.0
 11
-70.402492620444264
 21
263.20824520878301
 31
0.0
  0
LINE
  8
OUTLINE
  6
CONTINUOUS
 62
     3
 10
-70.402492620444264
 20
263.20824520878301
 30
0.0
 11
-70.631257827984427
 21
262.40756698239278
 31
0.0
  0
LINE
  8
OUTLINE
  6
CONTINUOUS
 62
     3
 10
-70.631257827984427
 20
262.40756698239278
 30
0.0
 11
-70.917214337409405
 21
261.7212713597728
 31
0.0
  0
LINE
  8
OUTLINE
  6
CONTINUOUS
 62
     3
 10
-89.904726563231861
 20
194.97902205996871
 30
0.0
 11
-89.904726563231861
 21
194.5786829467738
 31
0.0
  0
LINE
  8
OUTLINE
  6
CONTINUOUS
 62
     3
 10
-79.896248733355833
 20
203.8012042672249
 30
0.0
 11
-79.896248733355833
 21
196.59510022971401
 31
0.0
  0
LINE
  8
OUTLINE
  6
CONTINUOUS
 62
     3
 10
-70.917214337409405
 20
261.7212713597728
 30
0.0
 11
-70.917214337409405
 21
254.51516732226199
 31
0.0
  0
LINE
  8
OUTLINE
  6
CONTINUOUS
 62
     3
 10
-89.904726563232089
 20
-194.5786829467738
 30
0.0
 11
-89.904726563232089
 21
-195.20778726750891
 31
0.0
  0
LINE
  8
OUTLINE
  6
CONTINUOUS
 62
     3
 10
-89.904726563232089
 20
-194.5786829467738
 30
0.0
 11
-80.639735657860683
 21
-194.5786829467738
 31
0.0
  0
ENDSEC
  0
EOF
