  0
SECTION
  2
HEADER
  9
$ACADVER
  1
AC1009
  9
$DWGCODEPAGE
  3
dos932
  9
$INSBASE
 10
0.0
 20
0.0
 30
0.0
  9
$EXTMIN
 10
-324.48118426194742
 20
-292.23631624159862
 30
-0.0030516297567118
  9
$EXTMAX
 10
877.36817545649501
 20
557.55616032699618
 30
0.0007631257219032
  9
$LIMMIN
 10
-2970.0
 20
-2100.0
  9
$LIMMAX
 10
2970.0
 20
2100.0
  9
$ORTHOMODE
 70
     1
  9
$REGENMODE
 70
     1
  9
$FILLMODE
 70
     1
  9
$QTEXTMODE
 70
     0
  9
$MIRRTEXT
 70
     0
  9
$LTSCALE
 40
20.0
  9
$ATTMODE
 70
     1
  9
$TEXTSIZE
 40
64.0
  9
$TRACEWID
 40
0.05
  9
$TEXTSTYLE
  7
STANDARD
  9
$CLAYER
  8
SIZE
  9
$CELTYPE
  6
CONTINUOUS
  9
$CECOLOR
 62
     7
  9
$DIMSCALE
 40
1.0
  9
$DIMASZ
 40
12.0
  9
$DIMEXO
 40
20.0
  9
$DIMDLI
 40
200.0
  9
$DIMRND
 40
0.0
  9
$DIMDLE
 40
0.0
  9
$DIMEXE
 40
20.0
  9
$DIMTP
 40
0.0
  9
$DIMTM
 40
0.0
  9
$DIMTXT
 40
64.0
  9
$DIMCEN
 40
0.09
  9
$DIMTSZ
 40
0.0
  9
$DIMTOL
 70
     0
  9
$DIMLIM
 70
     0
  9
$DIMTIH
 70
     0
  9
$DIMTOH
 70
     0
  9
$DIMSE1
 70
     0
  9
$DIMSE2
 70
     0
  9
$DIMTAD
 70
     1
  9
$DIMZIN
 70
     8
  9
$DIMBLK
  1

  9
$DIMASO
 70
     1
  9
$DIMSHO
 70
     0
  9
$DIMPOST
  1

  9
$DIMAPOST
  1

  9
$DIMALT
 70
     0
  9
$DIMALTD
 70
     2
  9
$DIMALTF
 40
25.399999999999999
  9
$DIMLFAC
 40
1.0
  9
$DIMTOFL
 70
     1
  9
$DIMTVP
 40
0.0
  9
$DIMTIX
 70
     1
  9
$DIMSOXD
 70
     0
  9
$DIMSAH
 70
     0
  9
$DIMBLK1
  1

  9
$DIMBLK2
  1

  9
$DIMSTYLE
  2
STANDARD
  9
$DIMCLRD
 70
     7
  9
$DIMCLRE
 70
     7
  9
$DIMCLRT
 70
     7
  9
$DIMTFAC
 40
1.0
  9
$DIMGAP
 40
25.0
  9
$LUNITS
 70
     2
  9
$LUPREC
 70
     4
  9
$SKETCHINC
 40
0.1
  9
$FILLETRAD
 40
3.0
  9
$AUNITS
 70
     1
  9
$AUPREC
 70
     3
  9
$MENU
  1
ACAD
  9
$ELEVATION
 40
0.0
  9
$PELEVATION
 40
0.0
  9
$THICKNESS
 40
0.0
  9
$LIMCHECK
 70
     0
  9
$CHAMFERA
 40
0.0
  9
$CHAMFERB
 40
0.0
  9
$SKPOLY
 70
     0
  9
$TDCREATE
 40
2453019.62301037
  9
$TDUPDATE
 40
2459268.670383993
  9
$TDINDWG
 40
1.7861039468
  9
$TDUSRTIMER
 40
1.7861039468
  9
$USRTIMER
 70
     1
  9
$ANGBASE
 50
0.0
  9
$ANGDIR
 70
     0
  9
$PDMODE
 70
     3
  9
$PDSIZE
 40
-2.0
  9
$PLINEWID
 40
0.0
  9
$SPLFRAME
 70
     0
  9
$SPLINETYPE
 70
     6
  9
$SPLINESEGS
 70
     8
  9
$SURFTAB1
 70
     6
  9
$SURFTAB2
 70
     6
  9
$SURFTYPE
 70
     6
  9
$SURFU
 70
     6
  9
$SURFV
 70
     6
  9
$UCSNAME
  2

  9
$UCSORG
 10
0.0
 20
0.0
 30
0.0
  9
$UCSXDIR
 10
1.0
 20
0.0
 30
0.0
  9
$UCSYDIR
 10
0.0
 20
1.0
 30
0.0
  9
$PUCSNAME
  2

  9
$PUCSORG
 10
0.0
 20
0.0
 30
0.0
  9
$PUCSXDIR
 10
1.0
 20
0.0
 30
0.0
  9
$PUCSYDIR
 10
0.0
 20
1.0
 30
0.0
  9
$USERI1
 70
     0
  9
$USERI2
 70
     0
  9
$USERI3
 70
     0
  9
$USERI4
 70
     0
  9
$USERI5
 70
     0
  9
$USERR1
 40
20.0
  9
$USERR2
 40
0.0
  9
$USERR3
 40
0.0
  9
$USERR4
 40
0.0
  9
$USERR5
 40
0.0
  9
$WORLDVIEW
 70
     1
  9
$SHADEDGE
 70
     3
  9
$SHADEDIF
 70
    70
  9
$TILEMODE
 70
     1
  9
$MAXACTVP
 70
    48
  9
$PINSBASE
 10
0.0
 20
0.0
 30
0.0
  9
$PLIMCHECK
 70
     0
  9
$PEXTMIN
 10
-100000000000000000000.0
 20
-100000000000000000000.0
 30
-100000000000000000000.0
  9
$PEXTMAX
 10
100000000000000000000.0
 20
100000000000000000000.0
 30
100000000000000000000.0
  9
$PLIMMIN
 10
0.0
 20
0.0
  9
$PLIMMAX
 10
12.0
 20
9.0
  9
$UNITMODE
 70
     0
  9
$VISRETAIN
 70
     0
  9
$PLINEGEN
 70
     0
  9
$PSLTSCALE
 70
     0
  9
$TREEDEPTH
 70
  3020
  9
$ATTDIA
 70
     0
  9
$ATTREQ
 70
     1
  9
$BLIPMODE
 70
     1
  9
$COORDS
 70
     1
  9
$DRAGMODE
 70
     2
  9
$OSMODE
 70
     0
  9
$HANDLING
 70
     0
  9
$HANDSEED
  5
104FF
  0
ENDSEC
  0
SECTION
  2
TABLES
  0
TABLE
  2
LTYPE
 70
     2
  0
LTYPE
  2
CONTINUOUS
 70
     0
  3
実線
 72
    65
 73
     0
 40
0.0
  0
LTYPE
  2
DASHDOT
 70
     0
  3
____ _ ____ _ ____ _ ____ _ ____ _ ____ _ ____
 72
    65
 73
     4
 40
5.5
 49
4.0
 49
-0.6
 49
0.3
 49
-0.6
  0
ENDTAB
  0
TABLE
  2
LAYER
 70
    12
  0
LAYER
  2
0
 70
     0
 62
     7
  6
CONTINUOUS
  0
LAYER
  2
BASIS
 70
     0
 62
     6
  6
DASHDOT
  0
LAYER
  2
OUTLINE
 70
     0
 62
     3
  6
CONTINUOUS
  0
LAYER
  2
DETAIL
 70
     0
 62
     5
  6
CONTINUOUS
  0
LAYER
  2
SIZE
 70
     0
 62
    30
  6
CONTINUOUS
  0
LAYER
  2
ARRANGE
 70
     0
 62
     1
  6
CONTINUOUS
  0
LAYER
  2
DEFPOINTS
 70
     0
 62
     7
  6
CONTINUOUS
  0
LAYER
  2
ETC
 70
     0
 62
    61
  6
CONTINUOUS
  0
LAYER
  2
FIX
 70
     0
 62
    11
  6
CONTINUOUS
  0
LAYER
  2
NOTE
 70
     0
 62
     4
  6
CONTINUOUS
  0
LAYER
  2
SERVICESPACE
 70
    64
 62
     2
  6
DASHDOT
  0
LAYER
  2
SYMBOLLINE
 70
    64
 62
    15
  6
CONTINUOUS
  0
ENDTAB
  0
TABLE
  2
STYLE
 70
     1
  0
STYLE
  2
STANDARD
 70
     0
 40
64.0
 41
0.9
 50
0.0
 71
     0
 42
64.0
  3
SIMPLEX.shx
  4
BIGFONT.shx
  0
ENDTAB
  0
TABLE
  2
APPID
 70
    19
  0
APPID
  2
ACAD
 70
     0
  0
APPID
  2
AUTOCAD_POSTSCRIPT_FIGURE
 70
     0
  0
APPID
  2
ACAD_EXEMPT_FROM_CAD_STANDARDS
 70
     0
  0
APPID
  2
ACAD_PSEXT
 70
     0
  0
APPID
  2
ACAUTHENVIRON
 70
     0
  0
APPID
  2
GENIUS_GENOENT_13
 70
     0
  0
APPID
  2
GENIUS_GENCFG_13
 70
     0
  0
APPID
  2
GENIUS_GENCFG0_13
 70
     0
  0
APPID
  2
GENIUS_GENCFG1_13
 70
     0
  0
APPID
  2
GENIUS_GENCFG2_13
 70
     0
  0
APPID
  2
GENIUS_GENCFG3_13
 70
     0
  0
APPID
  2
GENIUS_GENCFG4_13
 70
     0
  0
APPID
  2
GENIUS_GEVCFG0_13
 70
     0
  0
APPID
  2
CONTENTBLOCKICON
 70
     0
  0
APPID
  2
CONTENTBLOCKDESCRIPTION
 70
     0
  0
APPID
  2
ACAD_NAV_VCDISPLAY
 70
     0
  0
APPID
  2
ACAD_MLEADERVER
 70
     0
  0
APPID
  2
ACDBDYNAMICBLOCKTRUENAME
 70
     0
  0
APPID
  2
ACDBDYNAMICBLOCKGUID
 70
     0
  0
ENDTAB
  0
TABLE
  2
DIMSTYLE
 70
     1
  0
DIMSTYLE
  2
STANDARD
 70
     0
  3

  4

  5
_ORIGIN
  6

  7

 40
1.0
 41
12.0
 42
20.0
 43
200.0
 44
20.0
 45
0.0
 46
0.0
 47
0.0
 48
0.0
140
64.0
141
0.09
142
0.0
143
25.399999999999999
144
1.0
145
0.0
146
1.0
147
25.0
 71
     0
 72
     0
 73
     0
 74
     0
 75
     0
 76
     0
 77
     1
 78
     8
170
     0
171
     2
172
     1
173
     0
174
     1
175
     0
176
     7
177
     7
178
     7
  0
ENDTAB
  0
TABLE
  2
VIEW
 70
     1
  0
VIEW
  2
ALL
 70
     0
 40
4282.6198079999986
 10
0.0
 20
41.309904000000003
 41
5940.0
 11
0.0
 21
0.0
 31
1.0
 12
0.0
 22
0.0
 32
0.0
 42
50.0
 43
0.0
 44
0.0
 50
0.0
 71
     0
  0
ENDTAB
  0
TABLE
  2
UCS
 70
     0
  0
ENDTAB
  0
TABLE
  2
VPORT
 70
     1
  0
VPORT
  2
*ACTIVE
 70
     0
 10
0.0
 20
0.0
 11
1.0
 21
1.0
 12
276.44349559727368
 22
132.6599220426987
 13
0.0
 23
0.0
 14
1.0
 24
1.0
 15
0.0
 25
0.0
 16
0.0
 26
0.0
 36
1.0
 17
0.0
 27
0.0
 37
0.0
 40
766.67194638097192
 41
1.8851435705368289
 42
50.0
 43
0.0
 44
0.0
 50
0.0
 51
0.0
 71
     0
 72
  1000
 73
     1
 74
     3
 75
     0
 76
     0
 77
     0
 78
     0
  0
ENDTAB
  0
ENDSEC
  0
SECTION
  2
BLOCKS
  0
BLOCK
  8
0
  2
_ORIGIN
 70
     0
 10
0.0
 20
0.0
 30
0.0
  3
_ORIGIN
  1
_ORIGIN
  0
CIRCLE
  8
SIZE
  6
CONTINUOUS
 62
    30
 10
0.0
 20
0.0
 30
0.0
 40
0.5
  0
LINE
  8
SIZE
  6
CONTINUOUS
 62
    30
 10
0.0
 20
0.0
 30
0.0
 11
-1.0
 21
0.0
 31
0.0
  0
ENDBLK
  8
0
  0
ENDSEC
  0
SECTION
  2
ENTITIES
  0
TEXT
  8
ETC
  6
CONTINUOUS
 62
    61
 10
257.37294259826098
 20
493.34811921301463
 30
0.0
 40
64.0
  1
BFS-40SKA2_3
 41
0.9
  0
TEXT
  8
ETC
  6
CONTINUOUS
 62
    61
 10
253.18694859826061
 20
375.39280919818339
 30
0.0
 40
64.0
  1
産業扇
 41
0.9
  0
CIRCLE
  8
ARRANGE
  6
CONTINUOUS
 62
     1
 10
0.0
 20
0.0
 30
0.0
 40
40.0
  0
POINT
  8
ARRANGE
  6
CONTINUOUS
 62
     1
 10
0.0
 20
0.0
 30
0.0
  0
LINE
  8
BASIS
  6
DASHDOT
 62
     6
 10
0.0
 20
-292.0938090457737
 30
0.0
 11
0.0
 21
58.876465187705428
 31
0.0
  0
LINE
  8
BASIS
  6
DASHDOT
 62
     6
 10
188.18418705763591
 20
-128.16570752430241
 30
0.0
 11
-188.18418705763591
 21
-128.16570752430241
 31
0.0
  0
TEXT
  8
ETC
  6
CONTINUOUS
 62
    61
 10
303.88834684681672
 20
267.2440363119581
 30
0.0
 40
40.0
  1
BFS-40SKA2
 41
0.9
  0
LINE
  8
SIZE
  6
CONTINUOUS
 62
    30
 10
-127.8944727318424
 20
16.511330585014321
 30
0.0
 11
-127.8944727318424
 21
180.84382042492641
 31
0.0
  0
LINE
  8
SIZE
  6
CONTINUOUS
 62
    30
 10
127.09379450545229
 20
17.483582717059559
 30
0.0
 11
127.09379450545229
 21
180.84382042492641
 31
0.0
  0
LINE
  8
SIZE
  6
CONTINUOUS
 62
    30
 10
-115.8944727318424
 20
160.84382042492641
 30
0.0
 11
115.09379450545229
 21
160.84382042492641
 31
0.0
  0
CIRCLE
  8
SIZE
  6
CONTINUOUS
 62
    30
 10
-127.8944727318424
 20
160.84382042492641
 30
0.0
 40
6.0
  0
LINE
  8
SIZE
  6
CONTINUOUS
 62
    30
 10
-127.8944727318424
 20
160.84382042492641
 30
0.0
 11
-115.8944727318424
 21
160.84382042492641
 31
0.0
  0
CIRCLE
  8
SIZE
  6
CONTINUOUS
 62
    30
 10
127.09379450545229
 20
160.84382042492641
 30
0.0
 40
6.0
  0
LINE
  8
SIZE
  6
CONTINUOUS
 62
    30
 10
127.09379450545229
 20
160.84382042492641
 30
0.0
 11
115.09379450545229
 21
160.84382042492641
 31
0.0
  0
TEXT
  8
SIZE
  6
CONTINUOUS
 62
    30
 10
-74.132137631092888
 20
185.84382042492641
 30
0.0
 40
64.0
  1
255
 41
0.9
 72
     1
 11
-0.0749947739500385
 21
185.84382042492641
 31
0.0
  0
POINT
  8
DEFPOINTS
  6
CONTINUOUS
 62
    30
 10
-127.8944727318424
 20
-3.488669414985679
 30
0.0
  0
POINT
  8
DEFPOINTS
  6
CONTINUOUS
 62
    30
 10
127.09379450545229
 20
-2.5164172829404379
 30
0.0
  0
POINT
  8
DEFPOINTS
  6
CONTINUOUS
 62
    30
 10
127.09379450545229
 20
160.84382042492641
 30
0.0
  0
CIRCLE
  8
FIX
  6
CONTINUOUS
 62
    11
 10
165.5
 20
-117.69969927934589
 30
0.0
 40
5.0
  0
LINE
  8
NOTE
  6
CONTINUOUS
 62
     4
 10
165.5
 20
-141.12308094586291
 30
0.0
 11
165.5
 21
-94.47631761282878
 31
0.0
  0
LINE
  8
NOTE
  6
CONTINUOUS
 62
     4
 10
193.87302281108381
 20
-117.69969927934589
 30
0.0
 11
136.62697718891619
 21
-117.69969927934589
 31
0.0
  0
CIRCLE
  8
FIX
  6
CONTINUOUS
 62
    11
 10
-165.5
 20
-117.6664391713023
 30
0.0
 40
5.0
  0
LINE
  8
NOTE
  6
CONTINUOUS
 62
     4
 10
-165.5
 20
-141.08982083781939
 30
0.0
 11
-165.5
 21
-94.443057504785202
 31
0.0
  0
LINE
  8
NOTE
  6
CONTINUOUS
 62
     4
 10
-137.12697718891619
 20
-117.6664391713023
 30
0.0
 11
-193.87302281108381
 21
-117.6664391713023
 31
0.0
  0
LINE
  8
SIZE
  6
CONTINUOUS
 62
    30
 10
-165.5
 20
-74.443057504785202
 30
0.0
 11
-165.5
 21
333.29969586878508
 31
0.0
  0
LINE
  8
SIZE
  6
CONTINUOUS
 62
    30
 10
165.5
 20
-74.47631761282878
 30
0.0
 11
165.5
 21
333.29969586878508
 31
0.0
  0
LINE
  8
SIZE
  6
CONTINUOUS
 62
    30
 10
-153.5
 20
313.29969586878508
 30
0.0
 11
153.5
 21
313.29969586878508
 31
0.0
  0
CIRCLE
  8
SIZE
  6
CONTINUOUS
 62
    30
 10
-165.5
 20
313.29969586878508
 30
0.0
 40
6.0
  0
LINE
  8
SIZE
  6
CONTINUOUS
 62
    30
 10
-165.5
 20
313.29969586878508
 30
0.0
 11
-153.5
 21
313.29969586878508
 31
0.0
  0
CIRCLE
  8
SIZE
  6
CONTINUOUS
 62
    30
 10
165.5
 20
313.29969586878508
 30
0.0
 40
6.0
  0
LINE
  8
SIZE
  6
CONTINUOUS
 62
    30
 10
165.5
 20
313.29969586878508
 30
0.0
 11
153.5
 21
313.29969586878508
 31
0.0
  0
TEXT
  8
SIZE
  6
CONTINUOUS
 62
    30
 10
-61.714285714285687
 20
338.29969586878508
 30
0.0
 40
64.0
  1
331
 41
0.9
 72
     1
 11
0.0000000000000284
 21
338.29969586878508
 31
0.0
  0
POINT
  8
DEFPOINTS
  6
CONTINUOUS
 62
    30
 10
-165.5
 20
-94.443057504785202
 30
0.0
  0
POINT
  8
DEFPOINTS
  6
CONTINUOUS
 62
    30
 10
165.5
 20
-94.47631761282878
 30
0.0
  0
POINT
  8
DEFPOINTS
  6
CONTINUOUS
 62
    30
 10
165.5
 20
313.29969586878508
 30
0.0
  0
LINE
  8
SIZE
  6
CONTINUOUS
 62
    30
 10
185.5857746168501
 20
-97.69969927934585
 30
0.0
 11
185.5857746168501
 21
472.43418704196438
 31
0.0
  0
LINE
  8
SIZE
  6
CONTINUOUS
 62
    30
 10
-185.528583314965
 20
-97.69969927934585
 30
0.0
 11
-185.52858331496489
 21
472.43418704196438
 31
0.0
  0
LINE
  8
SIZE
  6
CONTINUOUS
 62
    30
 10
173.58577461685019
 20
452.43418704196438
 30
0.0
 11
-173.52858331496489
 21
452.43418704196438
 31
0.0
  0
CIRCLE
  8
SIZE
  6
CONTINUOUS
 62
    30
 10
185.5857746168501
 20
452.43418704196438
 30
0.0
 40
6.0
  0
LINE
  8
SIZE
  6
CONTINUOUS
 62
    30
 10
185.5857746168501
 20
452.43418704196438
 30
0.0
 11
173.58577461685019
 21
452.43418704196438
 31
0.0
  0
CIRCLE
  8
SIZE
  6
CONTINUOUS
 62
    30
 10
-185.52858331496489
 20
452.43418704196438
 30
0.0
 40
6.0
  0
LINE
  8
SIZE
  6
CONTINUOUS
 62
    30
 10
-185.52858331496489
 20
452.43418704196438
 30
0.0
 11
-173.52858331496489
 21
452.43418704196438
 31
0.0
  0
TEXT
  8
SIZE
  6
CONTINUOUS
 62
    30
 10
-61.739283972269
 20
477.43418704196438
 30
0.0
 40
64.0
  1
371
 41
0.9
 72
     1
 11
-0.0249982579832988
 21
477.43418704196438
 31
0.0
  0
POINT
  8
DEFPOINTS
  6
CONTINUOUS
 62
    30
 10
185.5857746168501
 20
-117.69969927934589
 30
0.0
  0
POINT
  8
DEFPOINTS
  6
CONTINUOUS
 62
    30
 10
-185.528583314965
 20
-117.69969927934589
 30
0.0
  0
POINT
  8
DEFPOINTS
  6
CONTINUOUS
 62
    30
 10
-185.52858331496489
 20
452.43418704196438
 30
0.0
  0
LINE
  8
SIZE
  6
CONTINUOUS
 62
    30
 10
-136.1702558454156
 20
0.0
 30
0.0
 11
-255.1757916487895
 21
0.0000000000000568
 31
0.0
  0
LINE
  8
SIZE
  6
CONTINUOUS
 62
    30
 10
-146.17873367529211
 20
-255.47354552032971
 30
0.0
 11
-255.1757916487895
 21
-255.47354552032971
 31
0.0
  0
LINE
  8
SIZE
  6
CONTINUOUS
 62
    30
 10
-235.1757916487895
 20
-11.99999999999997
 30
0.0
 11
-235.1757916487895
 21
-243.47354552032971
 31
0.0
  0
CIRCLE
  8
SIZE
  6
CONTINUOUS
 62
    30
 10
-235.1757916487895
 20
0.0000000000000568
 30
0.0
 40
6.0
  0
LINE
  8
SIZE
  6
CONTINUOUS
 62
    30
 10
-235.1757916487895
 20
0.0000000000000568
 30
0.0
 11
-235.1757916487895
 21
-11.99999999999997
 31
0.0
  0
CIRCLE
  8
SIZE
  6
CONTINUOUS
 62
    30
 10
-235.1757916487895
 20
-255.47354552032971
 30
0.0
 40
6.0
  0
LINE
  8
SIZE
  6
CONTINUOUS
 62
    30
 10
-235.1757916487895
 20
-255.47354552032971
 30
0.0
 11
-235.1757916487895
 21
-243.47354552032971
 31
0.0
  0
TEXT
  8
SIZE
  6
CONTINUOUS
 62
    30
 10
-260.17579164878958
 20
-201.79391561730779
 30
0.0
 40
64.0
  1
255
 50
90.0
 41
0.9
 72
     1
 11
-260.17579164878958
 21
-127.7367727601649
 31
0.0
  0
POINT
  8
DEFPOINTS
  6
CONTINUOUS
 62
    30
 10
-116.1702558454156
 20
0.0
 30
0.0
  0
POINT
  8
DEFPOINTS
  6
CONTINUOUS
 62
    30
 10
-126.17873367529209
 20
-255.47354552032971
 30
0.0
  0
POINT
  8
DEFPOINTS
  6
CONTINUOUS
 62
    30
 10
-235.1757916487895
 20
-255.47354552032971
 30
0.0
  0
TEXT
  8
NOTE
  6
CONTINUOUS
 62
     4
 10
250.06828482906579
 20
101.3366738578397
 30
0.0
 40
64.0
  1
AH
 41
0.9
  0
LINE
  8
NOTE
  6
CONTINUOUS
 62
     4
 10
168.8393575816946
 20
-112.4620098811877
 30
0.0
 11
165.5
 21
-117.69969927934589
 31
0.0
  0
LINE
  8
NOTE
  6
CONTINUOUS
 62
     4
 10
165.5
 20
-117.69969927934589
 30
0.0
 11
165.77311444742159
 21
-111.494048000986
 31
0.0
  0
LINE
  8
NOTE
  6
CONTINUOUS
 62
     4
 10
165.5
 20
-117.69969927934589
 30
0.0
 11
169.11247202911611
 21
-106.2563586028278
 31
0.0
  0
LINE
  8
NOTE
  6
CONTINUOUS
 62
     4
 10
169.11247202911611
 20
-106.2563586028277
 30
0.0
 11
229.34091400399939
 21
84.531161516221346
 31
0.0
  0
LINE
  8
NOTE
  6
CONTINUOUS
 62
     4
 10
229.34091400399939
 20
84.531161516221346
 30
0.0
 11
365.08377114685652
 21
84.531161516221346
 31
0.0
  0
TEXT
  8
NOTE
  6
CONTINUOUS
 62
     4
 10
-50.042905919323793
 20
-161.3654739392841
 30
0.0
 40
64.0
  1
RA
 41
0.9
 72
     1
 11
0.6999512235333611
 21
-161.3654739392841
 31
0.0
  0
LINE
  8
SIZE
  6
CONTINUOUS
 62
    30
 10
465.26481710843018
 20
-13.360929407382709
 30
0.0
 11
89.320965559933711
 21
-106.1256278638036
 31
0.0
  0
LINE
  8
SIZE
  6
CONTINUOUS
 62
    30
 10
-89.320965559933697
 20
-150.2057871848013
 30
0.0
 11
-100.9715262851425
 21
-153.08058018399669
 31
0.0
  0
TEXT
  8
SIZE
  6
CONTINUOUS
 62
    30
 10
237.410153616381
 20
-43.834569244544163
 30
0.0
 40
64.0
  1
φ160
 50
13.86093166967669
 41
0.9
 72
     1
 11
343.13067036856091
 21
-17.747876200415821
 31
0.0
  0
LINE
  8
SIZE
  6
CONTINUOUS
 62
    30
 10
-77.670404834724948
 20
-147.33099418560579
 30
0.0
 11
77.670404834724934
 21
-109.00042086299911
 31
0.0
  0
CIRCLE
  8
SIZE
  6
CONTINUOUS
 62
    30
 10
-77.670404834724948
 20
-147.33099418560579
 30
0.0
 40
6.0
  0
LINE
  8
SIZE
  6
CONTINUOUS
 62
    30
 10
-77.670404834724948
 20
-147.33099418560579
 30
0.0
 11
-89.320965559933697
 21
-150.2057871848013
 31
0.0
  0
CIRCLE
  8
SIZE
  6
CONTINUOUS
 62
    30
 10
77.670404834724934
 20
-109.00042086299911
 30
0.0
 40
6.0
  0
LINE
  8
SIZE
  6
CONTINUOUS
 62
    30
 10
77.670404834724934
 20
-109.00042086299911
 30
0.0
 11
89.320965559933711
 21
-106.1256278638036
 31
0.0
  0
POINT
  8
DEFPOINTS
  6
CONTINUOUS
 62
    30
 10
77.670404834724934
 20
-109.00042086299911
 30
0.0
  0
POINT
  8
DEFPOINTS
  6
CONTINUOUS
 62
    30
 10
-77.670404834724948
 20
-147.33099418560579
 30
0.0
  0
LINE
  8
SIZE
  6
CONTINUOUS
 62
    30
 10
428.80484133754521
 20
-276.95633114735119
 30
0.0
 11
78.4135757324417
 21
-155.37436682336809
 31
0.0
  0
LINE
  8
SIZE
  6
CONTINUOUS
 62
    30
 10
-78.4135757324417
 20
-100.9570482252368
 30
0.0
 11
-89.750478247975451
 21
-97.023266157901986
 31
0.0
  0
TEXT
  8
SIZE
  6
CONTINUOUS
 62
    30
 10
221.10780707367849
 20
-178.42546107104371
 30
0.0
 40
64.0
  1
φ142
 50
340.86378112407982
 41
0.9
 72
     1
 11
323.98209961463601
 21
-214.1217234877731
 31
0.0
  0
LINE
  8
SIZE
  6
CONTINUOUS
 62
    30
 10
-67.076673216907963
 20
-104.89083029257159
 30
0.0
 11
67.076673216907977
 21
-151.4405847560333
 31
0.0
  0
CIRCLE
  8
SIZE
  6
CONTINUOUS
 62
    30
 10
-67.076673216907963
 20
-104.89083029257159
 30
0.0
 40
6.0
  0
LINE
  8
SIZE
  6
CONTINUOUS
 62
    30
 10
-67.076673216907963
 20
-104.89083029257159
 30
0.0
 11
-78.4135757324417
 21
-100.9570482252368
 31
0.0
  0
CIRCLE
  8
SIZE
  6
CONTINUOUS
 62
    30
 10
67.076673216907977
 20
-151.4405847560333
 30
0.0
 40
6.0
  0
LINE
  8
SIZE
  6
CONTINUOUS
 62
    30
 10
67.076673216907977
 20
-151.4405847560333
 30
0.0
 11
78.4135757324417
 21
-155.37436682336809
 31
0.0
  0
POINT
  8
DEFPOINTS
  6
CONTINUOUS
 62
    30
 10
67.076673216907977
 20
-151.4405847560333
 30
0.0
  0
POINT
  8
DEFPOINTS
  6
CONTINUOUS
 62
    30
 10
-67.076673216907963
 20
-104.89083029257159
 30
0.0
  0
LINE
  8
DETAIL
  6
CONTINUOUS
 62
     5
 10
-126.23592497717711
 20
-2.1732694716304199
 30
0.0
 11
-126.23592497717711
 21
-2.5164172829404379
 31
0.0
  0
LINE
  8
DETAIL
  6
CONTINUOUS
 62
     5
 10
126.17873367529209
 20
-2.1732694716304199
 30
0.0
 11
126.17873367529209
 21
-2.8023737923654148
 31
0.0
  0
LINE
  8
DETAIL
  6
CONTINUOUS
 62
     5
 10
116.1702558454157
 20
-256.27422374671988
 30
0.0
 11
-116.22744714730079
 21
-256.27422374671988
 31
0.0
  0
LINE
  8
DETAIL
  6
CONTINUOUS
 62
     5
 10
-126.23592497717711
 20
-0.8006782263901187
 30
0.0
 11
-116.22744714730079
 21
-0.8006782263901187
 31
0.0
  0
LINE
  8
DETAIL
  6
CONTINUOUS
 62
     5
 10
116.1702558454157
 20
-0.8006782263901187
 30
0.0
 11
126.17873367529209
 21
-0.8006782263901187
 31
0.0
  0
LINE
  8
DETAIL
  6
CONTINUOUS
 62
     5
 10
-116.22744714730079
 20
-255.47354552032971
 30
0.0
 11
-116.22744714730079
 21
-256.27422374671988
 31
0.0
  0
LINE
  8
DETAIL
  6
CONTINUOUS
 62
     5
 10
116.1702558454157
 20
-255.47354552032971
 30
0.0
 11
116.1702558454157
 21
-256.27422374671988
 31
0.0
  0
LINE
  8
DETAIL
  6
CONTINUOUS
 62
     5
 10
-126.23592497717711
 20
-1.4869738490101549
 30
0.0
 11
-123.4335511848118
 21
-1.4869738490101549
 31
0.0
  0
LINE
  8
DETAIL
  6
CONTINUOUS
 62
     5
 10
126.17873367529209
 20
-0.8006782263901187
 30
0.0
 11
126.17873367529209
 21
-1.4869738490101549
 31
0.0
  0
LINE
  8
DETAIL
  6
CONTINUOUS
 62
     5
 10
-126.23592497717711
 20
-0.8006782263901187
 30
0.0
 11
-126.23592497717711
 21
-1.4869738490101549
 31
0.0
  0
LINE
  8
DETAIL
  6
CONTINUOUS
 62
     5
 10
-123.2047859772717
 20
-1.201017339585178
 30
0.0
 11
-124.4058033168569
 21
-2.5164172829404379
 31
0.0
  0
LINE
  8
DETAIL
  6
CONTINUOUS
 62
     5
 10
123.0904033735017
 20
-1.201017339585178
 30
0.0
 11
124.6917598262819
 21
-2.8023737923654148
 31
0.0
  0
LINE
  8
DETAIL
  6
CONTINUOUS
 62
     5
 10
-116.22744714730079
 20
-1.201017339585178
 30
0.0
 11
-123.2047859772717
 21
-1.201017339585178
 31
0.0
  0
LINE
  8
DETAIL
  6
CONTINUOUS
 62
     5
 10
123.0904033735017
 20
-1.201017339585178
 30
0.0
 11
116.1702558454157
 21
-1.201017339585178
 31
0.0
  0
LINE
  8
DETAIL
  6
CONTINUOUS
 62
     5
 10
116.1702558454157
 20
0.0
 30
0.0
 11
-116.22744714730079
 21
0.0
 31
0.0
  0
LINE
  8
DETAIL
  6
CONTINUOUS
 62
     5
 10
-126.23592497717711
 20
-255.47354552032971
 30
0.0
 11
-126.23592497717711
 21
-253.75780646377939
 31
0.0
  0
LINE
  8
DETAIL
  6
CONTINUOUS
 62
     5
 10
-116.22744714730079
 20
-1.201017339585178
 30
0.0
 11
-116.22744714730079
 21
0.0
 31
0.0
  0
LINE
  8
DETAIL
  6
CONTINUOUS
 62
     5
 10
116.1702558454157
 20
-1.201017339585178
 30
0.0
 11
116.1702558454157
 21
0.0
 31
0.0
  0
LINE
  8
DETAIL
  6
CONTINUOUS
 62
     5
 10
126.17873367529209
 20
-255.47354552032971
 30
0.0
 11
126.17873367529209
 21
-253.47184995435441
 31
0.0
  0
LINE
  8
DETAIL
  6
CONTINUOUS
 62
     5
 10
-127.09379450545229
 20
-166.82702759856761
 30
0.0
 11
-127.09379450545229
 21
-253.75780646377939
 31
0.0
  0
LINE
  8
DETAIL
  6
CONTINUOUS
 62
     5
 10
-118.229142713276
 20
-166.82702759856761
 30
0.0
 11
-118.229142713276
 21
-248.78216319978361
 31
0.0
  0
LINE
  8
DETAIL
  6
CONTINUOUS
 62
     5
 10
-118.229142713276
 20
-248.78216319978361
 30
0.0
 11
-118.400716618931
 21
-250.26913704879391
 31
0.0
  0
LINE
  8
DETAIL
  6
CONTINUOUS
 62
     5
 10
-118.400716618931
 20
-250.26913704879391
 30
0.0
 11
-119.2013948453211
 21
-251.75611089780409
 31
0.0
  0
LINE
  8
DETAIL
  6
CONTINUOUS
 62
     5
 10
-119.2013948453211
 20
-251.75611089780409
 30
0.0
 11
-120.11645567548121
 21
-252.78555433173409
 31
0.0
  0
LINE
  8
DETAIL
  6
CONTINUOUS
 62
     5
 10
-120.11645567548121
 20
-252.78555433173409
 30
0.0
 11
-121.7178121282616
 21
-253.47184995435441
 31
0.0
  0
LINE
  8
DETAIL
  6
CONTINUOUS
 62
     5
 10
-121.7178121282616
 20
-253.47184995435441
 30
0.0
 11
-123.2047859772717
 21
-253.75780646377939
 31
0.0
  0
LINE
  8
DETAIL
  6
CONTINUOUS
 62
     5
 10
-127.09379450545229
 20
-253.75780646377939
 30
0.0
 11
-123.2047859772717
 21
-253.75780646377939
 31
0.0
  0
LINE
  8
DETAIL
  6
CONTINUOUS
 62
     5
 10
-118.229142713276
 20
-255.98826723729459
 30
0.0
 11
-118.229142713276
 21
-255.47354552032971
 31
0.0
  0
LINE
  8
DETAIL
  6
CONTINUOUS
 62
     5
 10
-118.229142713276
 20
-255.98826723729459
 30
0.0
 11
-126.69345539225721
 21
-255.98826723729459
 31
0.0
  0
LINE
  8
DETAIL
  6
CONTINUOUS
 62
     5
 10
-126.69345539225721
 20
-255.98826723729459
 30
0.0
 11
-126.9222205997972
 21
-255.75950202975471
 31
0.0
  0
LINE
  8
DETAIL
  6
CONTINUOUS
 62
     5
 10
-126.9222205997972
 20
-255.75950202975471
 30
0.0
 11
-126.9222205997972
 21
-255.47354552032971
 31
0.0
  0
LINE
  8
DETAIL
  6
CONTINUOUS
 62
     5
 10
-126.9222205997972
 20
-255.47354552032971
 30
0.0
 11
-127.09379450545229
 21
-255.07320640713459
 31
0.0
  0
LINE
  8
DETAIL
  6
CONTINUOUS
 62
     5
 10
-127.09379450545229
 20
-255.07320640713459
 30
0.0
 11
-126.9222205997972
 21
-254.7872498977097
 31
0.0
  0
LINE
  8
DETAIL
  6
CONTINUOUS
 62
     5
 10
-126.9222205997972
 20
-254.7872498977097
 30
0.0
 11
-126.9222205997972
 21
-254.55848469016971
 31
0.0
  0
LINE
  8
DETAIL
  6
CONTINUOUS
 62
     5
 10
-126.9222205997972
 20
-254.55848469016971
 30
0.0
 11
-126.69345539225721
 21
-254.2725281807445
 31
0.0
  0
LINE
  8
DETAIL
  6
CONTINUOUS
 62
     5
 10
-126.69345539225721
 20
-254.2725281807445
 30
0.0
 11
-126.4074988828322
 21
-254.2725281807445
 31
0.0
  0
LINE
  8
DETAIL
  6
CONTINUOUS
 62
     5
 10
-126.4074988828322
 20
-254.2725281807445
 30
0.0
 11
-126.23592497717711
 21
-254.10095427508941
 31
0.0
  0
LINE
  8
DETAIL
  6
CONTINUOUS
 62
     5
 10
-126.4074988828322
 20
-254.7872498977097
 30
0.0
 11
-125.892777165867
 21
-254.7872498977097
 31
0.0
  0
LINE
  8
DETAIL
  6
CONTINUOUS
 62
     5
 10
-125.892777165867
 20
-254.7872498977097
 30
0.0
 11
-125.72120326021199
 21
-255.07320640713459
 31
0.0
  0
LINE
  8
DETAIL
  6
CONTINUOUS
 62
     5
 10
-125.72120326021199
 20
-255.07320640713459
 30
0.0
 11
-125.72120326021199
 21
-255.2447803127898
 31
0.0
  0
LINE
  8
DETAIL
  6
CONTINUOUS
 62
     5
 10
-125.72120326021199
 20
-255.2447803127898
 30
0.0
 11
-125.892777165867
 21
-255.47354552032971
 31
0.0
  0
LINE
  8
DETAIL
  6
CONTINUOUS
 62
     5
 10
126.3503075809472
 20
-255.47354552032971
 30
0.0
 11
-126.4074988828322
 21
-255.47354552032971
 31
0.0
  0
LINE
  8
DETAIL
  6
CONTINUOUS
 62
     5
 10
-126.4074988828322
 20
-255.47354552032971
 30
0.0
 11
-126.4074988828322
 21
-254.7872498977097
 31
0.0
  0
LINE
  8
DETAIL
  6
CONTINUOUS
 62
     5
 10
-127.09379450545229
 20
-117.69969927934589
 30
0.0
 11
-127.09379450545229
 21
-2.5164172829404379
 31
0.0
  0
LINE
  8
DETAIL
  6
CONTINUOUS
 62
     5
 10
-123.2047859772717
 20
-2.5164172829404379
 30
0.0
 11
-121.7178121282616
 21
-2.8023737923654148
 31
0.0
  0
LINE
  8
DETAIL
  6
CONTINUOUS
 62
     5
 10
-121.7178121282616
 20
-2.8023737923654148
 30
0.0
 11
-120.11645567548121
 21
-3.488669414985679
 31
0.0
  0
LINE
  8
DETAIL
  6
CONTINUOUS
 62
     5
 10
-120.11645567548121
 20
-3.488669414985679
 30
0.0
 11
-119.2013948453211
 21
-4.4609215470309209
 31
0.0
  0
LINE
  8
DETAIL
  6
CONTINUOUS
 62
     5
 10
-119.2013948453211
 20
-4.4609215470309209
 30
0.0
 11
-118.400716618931
 21
-6.0050866979258899
 31
0.0
  0
LINE
  8
DETAIL
  6
CONTINUOUS
 62
     5
 10
-118.400716618931
 20
-6.0050866979258899
 30
0.0
 11
-118.229142713276
 21
-7.4920605469360453
 31
0.0
  0
LINE
  8
DETAIL
  6
CONTINUOUS
 62
     5
 10
-127.09379450545229
 20
-2.5164172829404379
 30
0.0
 11
-123.2047859772717
 21
-2.5164172829404379
 31
0.0
  0
LINE
  8
DETAIL
  6
CONTINUOUS
 62
     5
 10
-126.23592497717711
 20
-0.8006782263901187
 30
0.0
 11
-118.229142713276
 21
-0.8006782263901187
 31
0.0
  0
LINE
  8
DETAIL
  6
CONTINUOUS
 62
     5
 10
-118.229142713276
 20
-0.2859565094252048
 30
0.0
 11
-118.229142713276
 21
-0.8006782263901187
 31
0.0
  0
LINE
  8
DETAIL
  6
CONTINUOUS
 62
     5
 10
-126.23592497717711
 20
-0.2859565094252048
 30
0.0
 11
-118.229142713276
 21
-0.2859565094252048
 31
0.0
  0
LINE
  8
DETAIL
  6
CONTINUOUS
 62
     5
 10
-126.4074988828322
 20
-1.201017339585178
 30
0.0
 11
-126.4074988828322
 21
-0.9722521320452415
 31
0.0
  0
LINE
  8
DETAIL
  6
CONTINUOUS
 62
     5
 10
-126.4074988828322
 20
-0.9722521320452415
 30
0.0
 11
-126.4074988828322
 21
-0.8006782263901187
 31
0.0
  0
LINE
  8
DETAIL
  6
CONTINUOUS
 62
     5
 10
-126.4074988828322
 20
-0.8006782263901187
 30
0.0
 11
-126.23592497717711
 21
-0.8006782263901187
 31
0.0
  0
LINE
  8
DETAIL
  6
CONTINUOUS
 62
     5
 10
-126.23592497717711
 20
-0.8006782263901187
 30
0.0
 11
-125.892777165867
 21
-0.8006782263901187
 31
0.0
  0
LINE
  8
DETAIL
  6
CONTINUOUS
 62
     5
 10
-125.892777165867
 20
-0.8006782263901187
 30
0.0
 11
-125.72120326021199
 21
-0.9722521320452415
 31
0.0
  0
LINE
  8
DETAIL
  6
CONTINUOUS
 62
     5
 10
-125.72120326021199
 20
-0.9722521320452415
 30
0.0
 11
-125.72120326021199
 21
-1.201017339585178
 31
0.0
  0
LINE
  8
DETAIL
  6
CONTINUOUS
 62
     5
 10
-125.72120326021199
 20
-1.201017339585178
 30
0.0
 11
-125.892777165867
 21
-1.4869738490101549
 31
0.0
  0
LINE
  8
DETAIL
  6
CONTINUOUS
 62
     5
 10
-125.892777165867
 20
-1.4869738490101549
 30
0.0
 11
-126.23592497717711
 21
-1.4869738490101549
 31
0.0
  0
LINE
  8
DETAIL
  6
CONTINUOUS
 62
     5
 10
-126.23592497717711
 20
-1.4869738490101549
 30
0.0
 11
-126.4074988828322
 21
-1.4869738490101549
 31
0.0
  0
LINE
  8
DETAIL
  6
CONTINUOUS
 62
     5
 10
-126.4074988828322
 20
-1.4869738490101549
 30
0.0
 11
-126.4074988828322
 21
-1.201017339585178
 31
0.0
  0
LINE
  8
DETAIL
  6
CONTINUOUS
 62
     5
 10
-126.23592497717711
 20
-2.1732694716304199
 30
0.0
 11
-124.2342294112018
 21
-2.1732694716304199
 31
0.0
  0
LINE
  8
DETAIL
  6
CONTINUOUS
 62
     5
 10
-126.23592497717711
 20
-2.1732694716304199
 30
0.0
 11
-126.4074988828322
 21
-2.0016955659752971
 31
0.0
  0
LINE
  8
DETAIL
  6
CONTINUOUS
 62
     5
 10
-126.4074988828322
 20
-2.0016955659752971
 30
0.0
 11
-126.69345539225721
 21
-2.0016955659752971
 31
0.0
  0
LINE
  8
DETAIL
  6
CONTINUOUS
 62
     5
 10
-126.69345539225721
 20
-2.0016955659752971
 30
0.0
 11
-126.9222205997972
 21
-1.77293035843536
 31
0.0
  0
LINE
  8
DETAIL
  6
CONTINUOUS
 62
     5
 10
-126.9222205997972
 20
-1.77293035843536
 30
0.0
 11
-126.9222205997972
 21
-1.4869738490101549
 31
0.0
  0
LINE
  8
DETAIL
  6
CONTINUOUS
 62
     5
 10
-126.9222205997972
 20
-1.4869738490101549
 30
0.0
 11
-127.09379450545229
 21
-1.201017339585178
 31
0.0
  0
LINE
  8
DETAIL
  6
CONTINUOUS
 62
     5
 10
-127.09379450545229
 20
-1.201017339585178
 30
0.0
 11
-126.9222205997972
 21
-0.8006782263901187
 31
0.0
  0
LINE
  8
DETAIL
  6
CONTINUOUS
 62
     5
 10
-126.9222205997972
 20
-0.8006782263901187
 30
0.0
 11
-126.9222205997972
 21
-0.5147217169651412
 31
0.0
  0
LINE
  8
DETAIL
  6
CONTINUOUS
 62
     5
 10
-126.9222205997972
 20
-0.5147217169651412
 30
0.0
 11
-126.69345539225721
 21
-0.2859565094252048
 31
0.0
  0
LINE
  8
DETAIL
  6
CONTINUOUS
 62
     5
 10
-126.69345539225721
 20
-0.2859565094252048
 30
0.0
 11
-126.4074988828322
 21
-0.2859565094252048
 31
0.0
  0
LINE
  8
DETAIL
  6
CONTINUOUS
 62
     5
 10
-126.4074988828322
 20
-0.2859565094252048
 30
0.0
 11
-126.23592497717711
 21
-0.2859565094252048
 31
0.0
  0
LINE
  8
DETAIL
  6
CONTINUOUS
 62
     5
 10
-118.229142713276
 20
-7.4920605469360453
 30
0.0
 11
-118.229142713276
 21
-121.7030904112964
 31
0.0
  0
LINE
  8
DETAIL
  6
CONTINUOUS
 62
     5
 10
-126.23592497717711
 20
-1.4869738490101549
 30
0.0
 11
-123.4335511848118
 21
-1.4869738490101549
 31
0.0
  0
LINE
  8
DETAIL
  6
CONTINUOUS
 62
     5
 10
118.0575688076209
 20
-121.7030904112964
 30
0.0
 11
118.0575688076209
 21
-7.7780170563610227
 31
0.0
  0
LINE
  8
DETAIL
  6
CONTINUOUS
 62
     5
 10
127.15098580733731
 20
-166.82702759856761
 30
0.0
 11
127.15098580733731
 21
-253.47184995435441
 31
0.0
  0
LINE
  8
DETAIL
  6
CONTINUOUS
 62
     5
 10
126.8650292979122
 20
-255.98826723729459
 30
0.0
 11
118.0575688076209
 21
-255.98826723729459
 31
0.0
  0
LINE
  8
DETAIL
  6
CONTINUOUS
 62
     5
 10
126.17873367529209
 20
-0.2859565094252048
 30
0.0
 11
118.0575688076209
 21
-0.2859565094252048
 31
0.0
  0
LINE
  8
DETAIL
  6
CONTINUOUS
 62
     5
 10
118.0575688076209
 20
-0.2859565094252048
 30
0.0
 11
118.0575688076209
 21
-0.8006782263901187
 31
0.0
  0
LINE
  8
DETAIL
  6
CONTINUOUS
 62
     5
 10
126.17873367529209
 20
-0.8006782263901187
 30
0.0
 11
118.0575688076209
 21
-0.8006782263901187
 31
0.0
  0
LINE
  8
DETAIL
  6
CONTINUOUS
 62
     5
 10
126.17873367529209
 20
-0.2859565094252048
 30
0.0
 11
126.3503075809472
 21
-0.2859565094252048
 31
0.0
  0
LINE
  8
DETAIL
  6
CONTINUOUS
 62
     5
 10
126.3503075809472
 20
-0.2859565094252048
 30
0.0
 11
126.8650292979122
 21
-0.5147217169651412
 31
0.0
  0
LINE
  8
DETAIL
  6
CONTINUOUS
 62
     5
 10
126.8650292979122
 20
-0.5147217169651412
 30
0.0
 11
126.8650292979122
 21
-0.8006782263901187
 31
0.0
  0
LINE
  8
DETAIL
  6
CONTINUOUS
 62
     5
 10
126.8650292979122
 20
-0.8006782263901187
 30
0.0
 11
127.15098580733731
 21
-0.9722521320452415
 31
0.0
  0
LINE
  8
DETAIL
  6
CONTINUOUS
 62
     5
 10
127.15098580733731
 20
-0.9722521320452415
 30
0.0
 11
127.15098580733731
 21
-1.201017339585178
 31
0.0
  0
LINE
  8
DETAIL
  6
CONTINUOUS
 62
     5
 10
127.15098580733731
 20
-1.201017339585178
 30
0.0
 11
126.8650292979122
 21
-1.77293035843536
 31
0.0
  0
LINE
  8
DETAIL
  6
CONTINUOUS
 62
     5
 10
126.8650292979122
 20
-1.77293035843536
 30
0.0
 11
126.8650292979122
 21
-2.0016955659752971
 31
0.0
  0
LINE
  8
DETAIL
  6
CONTINUOUS
 62
     5
 10
126.8650292979122
 20
-2.0016955659752971
 30
0.0
 11
126.3503075809472
 21
-2.0016955659752971
 31
0.0
  0
LINE
  8
DETAIL
  6
CONTINUOUS
 62
     5
 10
126.3503075809472
 20
-2.0016955659752971
 30
0.0
 11
126.17873367529209
 21
-2.1732694716304199
 31
0.0
  0
LINE
  8
DETAIL
  6
CONTINUOUS
 62
     5
 10
126.17873367529209
 20
-1.4869738490101549
 30
0.0
 11
123.6623163923517
 21
-1.4869738490101549
 31
0.0
  0
LINE
  8
DETAIL
  6
CONTINUOUS
 62
     5
 10
126.17873367529209
 20
-2.1732694716304199
 30
0.0
 11
124.0626555055468
 21
-2.1732694716304199
 31
0.0
  0
LINE
  8
DETAIL
  6
CONTINUOUS
 62
     5
 10
125.5496293545571
 20
-1.201017339585178
 30
0.0
 11
125.5496293545571
 21
-0.9722521320452415
 31
0.0
  0
LINE
  8
DETAIL
  6
CONTINUOUS
 62
     5
 10
125.5496293545571
 20
-0.9722521320452415
 30
0.0
 11
125.8927771658671
 21
-0.9722521320452415
 31
0.0
  0
LINE
  8
DETAIL
  6
CONTINUOUS
 62
     5
 10
125.8927771658671
 20
-0.9722521320452415
 30
0.0
 11
125.8927771658671
 21
-0.8006782263901187
 31
0.0
  0
LINE
  8
DETAIL
  6
CONTINUOUS
 62
     5
 10
125.8927771658671
 20
-0.8006782263901187
 30
0.0
 11
126.17873367529209
 21
-0.8006782263901187
 31
0.0
  0
LINE
  8
DETAIL
  6
CONTINUOUS
 62
     5
 10
126.17873367529209
 20
-0.8006782263901187
 30
0.0
 11
126.3503075809472
 21
-0.8006782263901187
 31
0.0
  0
LINE
  8
DETAIL
  6
CONTINUOUS
 62
     5
 10
126.3503075809472
 20
-0.8006782263901187
 30
0.0
 11
126.3503075809472
 21
-0.9722521320452415
 31
0.0
  0
LINE
  8
DETAIL
  6
CONTINUOUS
 62
     5
 10
126.3503075809472
 20
-0.9722521320452415
 30
0.0
 11
126.5790727884872
 21
-0.9722521320452415
 31
0.0
  0
LINE
  8
DETAIL
  6
CONTINUOUS
 62
     5
 10
126.5790727884872
 20
-0.9722521320452415
 30
0.0
 11
126.5790727884872
 21
-1.201017339585178
 31
0.0
  0
LINE
  8
DETAIL
  6
CONTINUOUS
 62
     5
 10
126.5790727884872
 20
-1.201017339585178
 30
0.0
 11
126.3503075809472
 21
-1.201017339585178
 31
0.0
  0
LINE
  8
DETAIL
  6
CONTINUOUS
 62
     5
 10
126.3503075809472
 20
-1.201017339585178
 30
0.0
 11
126.3503075809472
 21
-1.4869738490101549
 31
0.0
  0
LINE
  8
DETAIL
  6
CONTINUOUS
 62
     5
 10
126.3503075809472
 20
-1.4869738490101549
 30
0.0
 11
126.17873367529209
 21
-1.4869738490101549
 31
0.0
  0
LINE
  8
DETAIL
  6
CONTINUOUS
 62
     5
 10
126.17873367529209
 20
-1.4869738490101549
 30
0.0
 11
125.8927771658671
 21
-1.4869738490101549
 31
0.0
  0
LINE
  8
DETAIL
  6
CONTINUOUS
 62
     5
 10
125.8927771658671
 20
-1.4869738490101549
 30
0.0
 11
125.5496293545571
 21
-1.201017339585178
 31
0.0
  0
LINE
  8
DETAIL
  6
CONTINUOUS
 62
     5
 10
118.0575688076209
 20
-255.98826723729459
 30
0.0
 11
118.0575688076209
 21
-255.47354552032971
 31
0.0
  0
LINE
  8
DETAIL
  6
CONTINUOUS
 62
     5
 10
126.17873367529209
 20
-254.10095427508941
 30
0.0
 11
126.3503075809472
 21
-254.2725281807445
 31
0.0
  0
LINE
  8
DETAIL
  6
CONTINUOUS
 62
     5
 10
126.3503075809472
 20
-254.2725281807445
 30
0.0
 11
126.8650292979122
 21
-254.2725281807445
 31
0.0
  0
LINE
  8
DETAIL
  6
CONTINUOUS
 62
     5
 10
126.8650292979122
 20
-254.2725281807445
 30
0.0
 11
126.8650292979122
 21
-254.55848469016971
 31
0.0
  0
LINE
  8
DETAIL
  6
CONTINUOUS
 62
     5
 10
126.8650292979122
 20
-254.55848469016971
 30
0.0
 11
127.15098580733731
 21
-255.07320640713459
 31
0.0
  0
LINE
  8
DETAIL
  6
CONTINUOUS
 62
     5
 10
127.15098580733731
 20
-255.07320640713459
 30
0.0
 11
127.15098580733731
 21
-255.2447803127898
 31
0.0
  0
LINE
  8
DETAIL
  6
CONTINUOUS
 62
     5
 10
127.15098580733731
 20
-255.2447803127898
 30
0.0
 11
126.8650292979122
 21
-255.47354552032971
 31
0.0
  0
LINE
  8
DETAIL
  6
CONTINUOUS
 62
     5
 10
126.8650292979122
 20
-255.47354552032971
 30
0.0
 11
126.8650292979122
 21
-255.98826723729459
 31
0.0
  0
LINE
  8
DETAIL
  6
CONTINUOUS
 62
     5
 10
125.5496293545571
 20
-255.07320640713459
 30
0.0
 11
125.8927771658671
 21
-254.7872498977097
 31
0.0
  0
LINE
  8
DETAIL
  6
CONTINUOUS
 62
     5
 10
125.8927771658671
 20
-254.7872498977097
 30
0.0
 11
126.3503075809472
 21
-254.7872498977097
 31
0.0
  0
LINE
  8
DETAIL
  6
CONTINUOUS
 62
     5
 10
126.3503075809472
 20
-254.7872498977097
 30
0.0
 11
126.3503075809472
 21
-255.07320640713459
 31
0.0
  0
LINE
  8
DETAIL
  6
CONTINUOUS
 62
     5
 10
126.3503075809472
 20
-255.07320640713459
 30
0.0
 11
126.5790727884872
 21
-255.07320640713459
 31
0.0
  0
LINE
  8
DETAIL
  6
CONTINUOUS
 62
     5
 10
126.5790727884872
 20
-255.07320640713459
 30
0.0
 11
126.5790727884872
 21
-255.2447803127898
 31
0.0
  0
LINE
  8
DETAIL
  6
CONTINUOUS
 62
     5
 10
126.5790727884872
 20
-255.2447803127898
 30
0.0
 11
126.3503075809472
 21
-255.2447803127898
 31
0.0
  0
LINE
  8
DETAIL
  6
CONTINUOUS
 62
     5
 10
126.3503075809472
 20
-255.2447803127898
 30
0.0
 11
126.3503075809472
 21
-255.47354552032971
 31
0.0
  0
LINE
  8
DETAIL
  6
CONTINUOUS
 62
     5
 10
125.8927771658671
 20
-255.47354552032971
 30
0.0
 11
125.8927771658671
 21
-255.2447803127898
 31
0.0
  0
LINE
  8
DETAIL
  6
CONTINUOUS
 62
     5
 10
125.8927771658671
 20
-255.2447803127898
 30
0.0
 11
125.5496293545571
 21
-255.2447803127898
 31
0.0
  0
LINE
  8
DETAIL
  6
CONTINUOUS
 62
     5
 10
125.5496293545571
 20
-255.2447803127898
 30
0.0
 11
125.5496293545571
 21
-255.07320640713459
 31
0.0
  0
LINE
  8
DETAIL
  6
CONTINUOUS
 62
     5
 10
127.15098580733731
 20
-253.47184995435441
 30
0.0
 11
123.0904033735017
 21
-253.47184995435441
 31
0.0
  0
LINE
  8
DETAIL
  6
CONTINUOUS
 62
     5
 10
127.15098580733731
 20
-2.8023737923654148
 30
0.0
 11
123.0904033735017
 21
-2.8023737923654148
 31
0.0
  0
LINE
  8
DETAIL
  6
CONTINUOUS
 62
     5
 10
127.15098580733731
 20
-2.8023737923654148
 30
0.0
 11
127.15098580733731
 21
-117.69969927934589
 31
0.0
  0
LINE
  8
DETAIL
  6
CONTINUOUS
 62
     5
 10
123.0904033735017
 20
-253.47184995435441
 30
0.0
 11
121.5462382226066
 21
-253.30027604869929
 31
0.0
  0
LINE
  8
DETAIL
  6
CONTINUOUS
 62
     5
 10
121.5462382226066
 20
-253.30027604869929
 30
0.0
 11
120.3452208830214
 21
-252.55678912419421
 31
0.0
  0
LINE
  8
DETAIL
  6
CONTINUOUS
 62
     5
 10
120.3452208830214
 20
-252.55678912419421
 30
0.0
 11
119.08701224155109
 21
-251.5845369921492
 31
0.0
  0
LINE
  8
DETAIL
  6
CONTINUOUS
 62
     5
 10
119.08701224155109
 20
-251.5845369921492
 30
0.0
 11
118.400716618931
 21
-250.09756314313881
 31
0.0
  0
LINE
  8
DETAIL
  6
CONTINUOUS
 62
     5
 10
118.400716618931
 20
-250.09756314313881
 30
0.0
 11
118.0575688076209
 21
-248.4962066903588
 31
0.0
  0
LINE
  8
DETAIL
  6
CONTINUOUS
 62
     5
 10
118.0575688076209
 20
-7.7780170563610227
 30
0.0
 11
118.400716618931
 21
-6.1766606035810128
 31
0.0
  0
LINE
  8
DETAIL
  6
CONTINUOUS
 62
     5
 10
118.400716618931
 20
-6.1766606035810128
 30
0.0
 11
119.08701224155109
 21
-4.68968675457063
 31
0.0
  0
LINE
  8
DETAIL
  6
CONTINUOUS
 62
     5
 10
119.08701224155109
 20
-4.68968675457063
 30
0.0
 11
120.3452208830214
 21
-3.6602433206405749
 31
0.0
  0
LINE
  8
DETAIL
  6
CONTINUOUS
 62
     5
 10
120.3452208830214
 20
-3.6602433206405749
 30
0.0
 11
121.5462382226066
 21
-2.9739476980205382
 31
0.0
  0
LINE
  8
DETAIL
  6
CONTINUOUS
 62
     5
 10
121.5462382226066
 20
-2.9739476980205382
 30
0.0
 11
123.0904033735017
 21
-2.8023737923654148
 31
0.0
  0
LINE
  8
DETAIL
  6
CONTINUOUS
 62
     5
 10
118.0575688076209
 20
-248.4962066903588
 30
0.0
 11
118.0575688076209
 21
-166.82702759856761
 31
0.0
  0
LINE
  8
DETAIL
  6
CONTINUOUS
 62
     5
 10
127.8944727318423
 20
-166.82702759856761
 30
0.0
 11
127.8944727318423
 21
-252.78555433173409
 31
0.0
  0
LINE
  8
DETAIL
  6
CONTINUOUS
 62
     5
 10
124.34861201497181
 20
-255.98826723729459
 30
0.0
 11
118.8582470340111
 21
-256.56018025614458
 31
0.0
  0
LINE
  8
DETAIL
  6
CONTINUOUS
 62
     5
 10
127.15098580733731
 20
-255.2447803127898
 30
0.0
 11
126.8650292979122
 21
-255.75950202975471
 31
0.0
  0
LINE
  8
DETAIL
  6
CONTINUOUS
 62
     5
 10
126.8650292979122
 20
-0.5147217169651412
 30
0.0
 11
127.15098580733731
 21
-0.9722521320452415
 31
0.0
  0
LINE
  8
DETAIL
  6
CONTINUOUS
 62
     5
 10
124.34861201497181
 20
-0.2859565094252048
 30
0.0
 11
118.8582470340111
 21
0.2859565094252048
 31
0.0
  0
LINE
  8
DETAIL
  6
CONTINUOUS
 62
     5
 10
126.5790727884872
 20
-256.78894546368502
 30
0.0
 11
119.08701224155109
 21
-257.24647587876478
 31
0.0
  0
LINE
  8
DETAIL
  6
CONTINUOUS
 62
     5
 10
126.8650292979122
 20
-254.10095427508941
 30
0.0
 11
126.17873367529209
 21
-254.10095427508941
 31
0.0
  0
LINE
  8
DETAIL
  6
CONTINUOUS
 62
     5
 10
126.8650292979122
 20
-254.10095427508941
 30
0.0
 11
127.3797510148772
 21
-254.2725281807445
 31
0.0
  0
LINE
  8
DETAIL
  6
CONTINUOUS
 62
     5
 10
127.3797510148772
 20
-254.2725281807445
 30
0.0
 11
127.5513249205322
 21
-254.55848469016971
 31
0.0
  0
LINE
  8
DETAIL
  6
CONTINUOUS
 62
     5
 10
127.5513249205322
 20
-254.55848469016971
 30
0.0
 11
127.8944727318423
 21
-255.07320640713459
 31
0.0
  0
LINE
  8
DETAIL
  6
CONTINUOUS
 62
     5
 10
127.8944727318423
 20
-255.07320640713459
 30
0.0
 11
127.8944727318423
 21
-255.98826723729459
 31
0.0
  0
LINE
  8
DETAIL
  6
CONTINUOUS
 62
     5
 10
127.8944727318423
 20
-255.98826723729459
 30
0.0
 11
127.3797510148772
 21
-256.27422374671988
 31
0.0
  0
LINE
  8
DETAIL
  6
CONTINUOUS
 62
     5
 10
127.3797510148772
 20
-256.27422374671988
 30
0.0
 11
127.15098580733731
 21
-256.56018025614458
 31
0.0
  0
LINE
  8
DETAIL
  6
CONTINUOUS
 62
     5
 10
127.15098580733731
 20
-256.56018025614458
 30
0.0
 11
126.5790727884872
 21
-256.78894546368502
 31
0.0
  0
LINE
  8
DETAIL
  6
CONTINUOUS
 62
     5
 10
119.08701224155109
 20
-257.24647587876478
 30
0.0
 11
118.8582470340111
 21
-256.56018025614458
 31
0.0
  0
LINE
  8
DETAIL
  6
CONTINUOUS
 62
     5
 10
127.8944727318423
 20
-117.69969927934589
 30
0.0
 11
127.8944727318423
 21
-3.488669414985679
 31
0.0
  0
LINE
  8
DETAIL
  6
CONTINUOUS
 62
     5
 10
127.8944727318423
 20
-3.488669414985679
 30
0.0
 11
127.15098580733731
 21
-3.488669414985679
 31
0.0
  0
LINE
  8
DETAIL
  6
CONTINUOUS
 62
     5
 10
126.5790727884872
 20
0.5147217169651412
 30
0.0
 11
119.08701224155109
 21
1.0294434339300551
 31
0.0
  0
LINE
  8
DETAIL
  6
CONTINUOUS
 62
     5
 10
126.5790727884872
 20
-2.1732694716304199
 30
0.0
 11
126.17873367529209
 21
-2.1732694716304199
 31
0.0
  0
LINE
  8
DETAIL
  6
CONTINUOUS
 62
     5
 10
126.5790727884872
 20
0.5147217169651412
 30
0.0
 11
127.15098580733731
 21
0.2859565094252048
 31
0.0
  0
LINE
  8
DETAIL
  6
CONTINUOUS
 62
     5
 10
127.15098580733731
 20
0.2859565094252048
 30
0.0
 11
127.3797510148772
 21
0.0
 31
0.0
  0
LINE
  8
DETAIL
  6
CONTINUOUS
 62
     5
 10
127.3797510148772
 20
0.0
 30
0.0
 11
127.8944727318423
 21
-0.2859565094252048
 31
0.0
  0
LINE
  8
DETAIL
  6
CONTINUOUS
 62
     5
 10
127.8944727318423
 20
-0.2859565094252048
 30
0.0
 11
127.8944727318423
 21
-0.8006782263901187
 31
0.0
  0
LINE
  8
DETAIL
  6
CONTINUOUS
 62
     5
 10
127.8944727318423
 20
-0.8006782263901187
 30
0.0
 11
127.8944727318423
 21
-1.201017339585178
 31
0.0
  0
LINE
  8
DETAIL
  6
CONTINUOUS
 62
     5
 10
127.8944727318423
 20
-1.201017339585178
 30
0.0
 11
127.5513249205322
 21
-1.77293035843536
 31
0.0
  0
LINE
  8
DETAIL
  6
CONTINUOUS
 62
     5
 10
127.5513249205322
 20
-1.77293035843536
 30
0.0
 11
127.3797510148772
 21
-2.0016955659752971
 31
0.0
  0
LINE
  8
DETAIL
  6
CONTINUOUS
 62
     5
 10
127.3797510148772
 20
-2.0016955659752971
 30
0.0
 11
126.8650292979122
 21
-2.1732694716304199
 31
0.0
  0
LINE
  8
DETAIL
  6
CONTINUOUS
 62
     5
 10
126.8650292979122
 20
-2.1732694716304199
 30
0.0
 11
126.5790727884872
 21
-2.1732694716304199
 31
0.0
  0
LINE
  8
DETAIL
  6
CONTINUOUS
 62
     5
 10
119.08701224155109
 20
1.0294434339300551
 30
0.0
 11
118.8582470340111
 21
0.2859565094252048
 31
0.0
  0
LINE
  8
DETAIL
  6
CONTINUOUS
 62
     5
 10
127.8944727318423
 20
-252.78555433173409
 30
0.0
 11
127.15098580733731
 21
-252.78555433173409
 31
0.0
  0
LINE
  8
DETAIL
  6
CONTINUOUS
 62
     5
 10
107.3627953551245
 20
-128.16570752430241
 30
0.0
 11
106.1617780155393
 21
-138.17418535417869
 31
0.0
  0
LINE
  8
DETAIL
  6
CONTINUOUS
 62
     5
 10
106.1617780155393
 20
-138.17418535417869
 30
0.0
 11
103.7025520344841
 21
-147.66794146709
 31
0.0
  0
LINE
  8
DETAIL
  6
CONTINUOUS
 62
     5
 10
103.7025520344841
 20
-147.66794146709
 30
0.0
 11
100.09950001572859
 21
-157.04731497623129
 31
0.0
  0
LINE
  8
DETAIL
  6
CONTINUOUS
 62
     5
 10
128.06604663749729
 20
-119.58701224155109
 30
0.0
 11
122.1753425433416
 21
-119.58701224155109
 31
0.0
  0
LINE
  8
DETAIL
  6
CONTINUOUS
 62
     5
 10
107.3627953551245
 20
-128.16570752430241
 30
0.0
 11
107.8775170720895
 21
-126.1068206564421
 31
0.0
  0
LINE
  8
DETAIL
  6
CONTINUOUS
 62
     5
 10
107.8775170720895
 20
-126.1068206564421
 30
0.0
 11
108.9069605060198
 21
-124.391081599892
 31
0.0
  0
LINE
  8
DETAIL
  6
CONTINUOUS
 62
     5
 10
108.9069605060198
 20
-124.391081599892
 30
0.0
 11
110.39393435503
 21
-122.90410775088159
 31
0.0
  0
LINE
  8
DETAIL
  6
CONTINUOUS
 62
     5
 10
110.39393435503
 20
-122.90410775088159
 30
0.0
 11
112.1668647134652
 21
-122.1034295244915
 31
0.0
  0
LINE
  8
DETAIL
  6
CONTINUOUS
 62
     5
 10
112.1668647134652
 20
-122.1034295244915
 30
0.0
 11
114.39732548698071
 21
-121.7030904112964
 31
0.0
  0
LINE
  8
DETAIL
  6
CONTINUOUS
 62
     5
 10
128.06604663749729
 20
-121.7030904112964
 30
0.0
 11
114.39732548698071
 21
-121.7030904112964
 31
0.0
  0
LINE
  8
DETAIL
  6
CONTINUOUS
 62
     5
 10
151.6713325990404
 20
-122.6753425433417
 30
0.0
 11
151.6713325990404
 21
-117.69969927934589
 31
0.0
  0
LINE
  8
DETAIL
  6
CONTINUOUS
 62
     5
 10
154.35932378763579
 20
-117.69969927934589
 30
0.0
 11
151.6713325990404
 21
-122.6753425433417
 31
0.0
  0
LINE
  8
DETAIL
  6
CONTINUOUS
 62
     5
 10
148.52581099536519
 20
-117.69969927934589
 30
0.0
 11
151.6713325990404
 21
-122.6753425433417
 31
0.0
  0
LINE
  8
DETAIL
  6
CONTINUOUS
 62
     5
 10
179.5234966170392
 20
-122.6753425433417
 30
0.0
 11
179.5234966170392
 21
-117.69969927934589
 31
0.0
  0
LINE
  8
DETAIL
  6
CONTINUOUS
 62
     5
 10
176.60674022090379
 20
-117.69969927934589
 30
0.0
 11
179.5234966170392
 21
-122.6753425433417
 31
0.0
  0
LINE
  8
DETAIL
  6
CONTINUOUS
 62
     5
 10
182.3258704094047
 20
-117.69969927934589
 30
0.0
 11
179.5234966170392
 21
-122.6753425433417
 31
0.0
  0
LINE
  8
DETAIL
  6
CONTINUOUS
 62
     5
 10
139.83273310884391
 20
-140.34745482580911
 30
0.0
 11
115.5983428265657
 21
-140.34745482580911
 31
0.0
  0
LINE
  8
DETAIL
  6
CONTINUOUS
 62
     5
 10
115.5983428265657
 20
-150.35593265568539
 30
0.0
 11
114.0541776756704
 21
-150.1843587500305
 31
0.0
  0
LINE
  8
DETAIL
  6
CONTINUOUS
 62
     5
 10
114.0541776756704
 20
-150.1843587500305
 30
0.0
 11
112.8531603360852
 21
-149.38368052364041
 31
0.0
  0
LINE
  8
DETAIL
  6
CONTINUOUS
 62
     5
 10
112.8531603360852
 20
-149.38368052364041
 30
0.0
 11
111.59495169461501
 21
-148.3542370897101
 31
0.0
  0
LINE
  8
DETAIL
  6
CONTINUOUS
 62
     5
 10
111.59495169461501
 20
-148.3542370897101
 30
0.0
 11
110.908656071995
 21
-146.86726324069991
 31
0.0
  0
LINE
  8
DETAIL
  6
CONTINUOUS
 62
     5
 10
110.908656071995
 20
-146.86726324069991
 30
0.0
 11
110.56550826068499
 21
-145.38028939169001
 31
0.0
  0
LINE
  8
DETAIL
  6
CONTINUOUS
 62
     5
 10
110.56550826068499
 20
-145.38028939169001
 30
0.0
 11
110.908656071995
 21
-143.8933155426796
 31
0.0
  0
LINE
  8
DETAIL
  6
CONTINUOUS
 62
     5
 10
110.908656071995
 20
-143.8933155426796
 30
0.0
 11
111.59495169461501
 21
-142.34915039178421
 31
0.0
  0
LINE
  8
DETAIL
  6
CONTINUOUS
 62
     5
 10
111.59495169461501
 20
-142.34915039178421
 30
0.0
 11
112.8531603360852
 21
-141.37689825973919
 31
0.0
  0
LINE
  8
DETAIL
  6
CONTINUOUS
 62
     5
 10
112.8531603360852
 20
-141.37689825973919
 30
0.0
 11
114.0541776756704
 21
-140.6906026371191
 31
0.0
  0
LINE
  8
DETAIL
  6
CONTINUOUS
 62
     5
 10
114.0541776756704
 20
-140.6906026371191
 30
0.0
 11
115.5983428265657
 21
-140.34745482580911
 31
0.0
  0
LINE
  8
DETAIL
  6
CONTINUOUS
 62
     5
 10
115.5983428265657
 20
-150.35593265568539
 30
0.0
 11
139.83273310884391
 21
-150.35593265568539
 31
0.0
  0
LINE
  8
DETAIL
  6
CONTINUOUS
 62
     5
 10
139.83273310884391
 20
-140.34745482580911
 30
0.0
 11
141.66285476916411
 21
-140.6906026371191
 31
0.0
  0
LINE
  8
DETAIL
  6
CONTINUOUS
 62
     5
 10
141.66285476916411
 20
-140.6906026371191
 30
0.0
 11
143.0354460144043
 21
-141.66285476916411
 31
0.0
  0
LINE
  8
DETAIL
  6
CONTINUOUS
 62
     5
 10
143.0354460144043
 20
-141.66285476916411
 30
0.0
 11
144.17927205210449
 21
-142.86387210874909
 31
0.0
  0
LINE
  8
DETAIL
  6
CONTINUOUS
 62
     5
 10
144.17927205210449
 20
-142.86387210874909
 30
0.0
 11
144.8655676747245
 21
-144.3508459577597
 31
0.0
  0
LINE
  8
DETAIL
  6
CONTINUOUS
 62
     5
 10
144.8655676747245
 20
-144.3508459577597
 30
0.0
 11
144.8655676747245
 21
-146.06658501430999
 31
0.0
  0
LINE
  8
DETAIL
  6
CONTINUOUS
 62
     5
 10
144.8655676747245
 20
-146.06658501430999
 30
0.0
 11
144.17927205210449
 21
-147.83951537274521
 31
0.0
  0
LINE
  8
DETAIL
  6
CONTINUOUS
 62
     5
 10
144.17927205210449
 20
-147.83951537274521
 30
0.0
 11
143.0354460144043
 21
-149.15491531610041
 31
0.0
  0
LINE
  8
DETAIL
  6
CONTINUOUS
 62
     5
 10
143.0354460144043
 20
-149.15491531610041
 30
0.0
 11
141.66285476916411
 21
-150.1843587500305
 31
0.0
  0
LINE
  8
DETAIL
  6
CONTINUOUS
 62
     5
 10
141.66285476916411
 20
-150.1843587500305
 30
0.0
 11
139.83273310884391
 21
-150.35593265568539
 31
0.0
  0
LINE
  8
DETAIL
  6
CONTINUOUS
 62
     5
 10
106.5621171287345
 20
-166.82702759856761
 30
0.0
 11
104.38884765710419
 21
-166.36949718348751
 31
0.0
  0
LINE
  8
DETAIL
  6
CONTINUOUS
 62
     5
 10
104.38884765710419
 20
-166.36949718348751
 30
0.0
 11
102.3871520911289
 21
-165.34005374955751
 31
0.0
  0
LINE
  8
DETAIL
  6
CONTINUOUS
 62
     5
 10
102.3871520911289
 20
-165.34005374955751
 30
0.0
 11
100.9001782421186
 21
-163.5671233911221
 31
0.0
  0
LINE
  8
DETAIL
  6
CONTINUOUS
 62
     5
 10
100.9001782421186
 20
-163.5671233911221
 30
0.0
 11
99.870734808188445
 21
-161.67981042891691
 31
0.0
  0
LINE
  8
DETAIL
  6
CONTINUOUS
 62
     5
 10
99.870734808188445
 20
-161.67981042891691
 30
0.0
 11
99.584778298763467
 21
-159.33496705163179
 31
0.0
  0
LINE
  8
DETAIL
  6
CONTINUOUS
 62
     5
 10
99.584778298763467
 20
-159.33496705163179
 30
0.0
 11
100.09950001572859
 21
-157.04731497623129
 31
0.0
  0
LINE
  8
DETAIL
  6
CONTINUOUS
 62
     5
 10
154.53089769329091
 20
-166.82702759856761
 30
0.0
 11
106.5621171287345
 21
-166.82702759856761
 31
0.0
  0
LINE
  8
DETAIL
  6
CONTINUOUS
 62
     5
 10
185.528583314965
 20
-117.69969927934589
 30
0.0
 11
122.1753425433416
 21
-117.69969927934589
 31
0.0
  0
LINE
  8
DETAIL
  6
CONTINUOUS
 62
     5
 10
185.528583314965
 20
-117.69969927934589
 30
0.0
 11
185.528583314965
 21
-135.88653327877859
 31
0.0
  0
LINE
  8
DETAIL
  6
CONTINUOUS
 62
     5
 10
108.67819529847969
 20
-153.38707165559069
 30
0.0
 11
110.56550826068499
 21
-153.84460207067079
 31
0.0
  0
LINE
  8
DETAIL
  6
CONTINUOUS
 62
     5
 10
110.56550826068499
 20
-153.84460207067079
 30
0.0
 11
112.39562992100529
 21
-154.53089769329091
 31
0.0
  0
LINE
  8
DETAIL
  6
CONTINUOUS
 62
     5
 10
112.39562992100529
 20
-154.53089769329091
 30
0.0
 11
113.88260377001539
 21
-156.07506284418631
 31
0.0
  0
LINE
  8
DETAIL
  6
CONTINUOUS
 62
     5
 10
113.88260377001539
 20
-156.07506284418631
 30
0.0
 11
114.6832819964056
 21
-157.84799320262141
 31
0.0
  0
LINE
  8
DETAIL
  6
CONTINUOUS
 62
     5
 10
114.6832819964056
 20
-157.84799320262141
 30
0.0
 11
115.0836211096007
 21
-159.84968876859671
 31
0.0
  0
LINE
  8
DETAIL
  6
CONTINUOUS
 62
     5
 10
115.0836211096007
 20
-159.84968876859671
 30
0.0
 11
115.0836211096007
 21
-165.8547754665224
 31
0.0
  0
LINE
  8
DETAIL
  6
CONTINUOUS
 62
     5
 10
108.67819529847969
 20
-153.38707165559069
 30
0.0
 11
102.6159172986688
 21
-153.38707165559069
 31
0.0
  0
LINE
  8
DETAIL
  6
CONTINUOUS
 62
     5
 10
128.06604663749729
 20
-121.7030904112964
 30
0.0
 11
128.06604663749729
 21
-117.69969927934589
 31
0.0
  0
LINE
  8
DETAIL
  6
CONTINUOUS
 62
     5
 10
183.52688774898979
 20
-140.86217654277431
 30
0.0
 11
159.56373225917159
 21
-164.82533203259231
 31
0.0
  0
LINE
  8
DETAIL
  6
CONTINUOUS
 62
     5
 10
185.528583314965
 20
-135.88653327877859
 30
0.0
 11
185.29981810742521
 21
-137.6594636372138
 31
0.0
  0
LINE
  8
DETAIL
  6
CONTINUOUS
 62
     5
 10
185.29981810742521
 20
-137.6594636372138
 30
0.0
 11
184.49913988103489
 21
-139.3752026937639
 31
0.0
  0
LINE
  8
DETAIL
  6
CONTINUOUS
 62
     5
 10
184.49913988103489
 20
-139.3752026937639
 30
0.0
 11
183.52688774898979
 21
-140.86217654277431
 31
0.0
  0
LINE
  8
DETAIL
  6
CONTINUOUS
 62
     5
 10
159.56373225917159
 20
-164.82533203259231
 30
0.0
 11
158.01956710827631
 21
-165.8547754665224
 31
0.0
  0
LINE
  8
DETAIL
  6
CONTINUOUS
 62
     5
 10
158.01956710827631
 20
-165.8547754665224
 30
0.0
 11
156.36101935361111
 21
-166.65545369291269
 31
0.0
  0
LINE
  8
DETAIL
  6
CONTINUOUS
 62
     5
 10
156.36101935361111
 20
-166.65545369291269
 30
0.0
 11
154.53089769329091
 21
-166.82702759856761
 31
0.0
  0
LINE
  8
DETAIL
  6
CONTINUOUS
 62
     5
 10
118.0575688076209
 20
-121.7030904112964
 30
0.0
 11
118.400716618931
 21
-120.6736469773664
 31
0.0
  0
LINE
  8
DETAIL
  6
CONTINUOUS
 62
     5
 10
118.400716618931
 20
-120.6736469773664
 30
0.0
 11
118.8582470340111
 21
-119.4154383358959
 31
0.0
  0
LINE
  8
DETAIL
  6
CONTINUOUS
 62
     5
 10
118.8582470340111
 20
-119.4154383358959
 30
0.0
 11
119.8876904679412
 21
-118.61476010950609
 31
0.0
  0
LINE
  8
DETAIL
  6
CONTINUOUS
 62
     5
 10
119.8876904679412
 20
-118.61476010950609
 30
0.0
 11
120.8599425999864
 21
-117.871273185001
 31
0.0
  0
LINE
  8
DETAIL
  6
CONTINUOUS
 62
     5
 10
120.8599425999864
 20
-117.871273185001
 30
0.0
 11
122.1753425433416
 21
-117.69969927934589
 31
0.0
  0
LINE
  8
DETAIL
  6
CONTINUOUS
 62
     5
 10
120.05926437359631
 20
-121.7030904112964
 30
0.0
 11
120.3452208830214
 21
-121.07398609056141
 31
0.0
  0
LINE
  8
DETAIL
  6
CONTINUOUS
 62
     5
 10
120.3452208830214
 20
-121.07398609056141
 30
0.0
 11
120.57398609056131
 21
-120.6736469773664
 31
0.0
  0
LINE
  8
DETAIL
  6
CONTINUOUS
 62
     5
 10
120.57398609056131
 20
-120.6736469773664
 30
0.0
 11
121.1458991094114
 21
-120.2161165622863
 31
0.0
  0
LINE
  8
DETAIL
  6
CONTINUOUS
 62
     5
 10
121.1458991094114
 20
-120.2161165622863
 30
0.0
 11
121.5462382226066
 21
-119.8729687509763
 31
0.0
  0
LINE
  8
DETAIL
  6
CONTINUOUS
 62
     5
 10
121.5462382226066
 20
-119.8729687509763
 30
0.0
 11
122.1753425433416
 21
-119.58701224155109
 31
0.0
  0
LINE
  8
DETAIL
  6
CONTINUOUS
 62
     5
 10
122.1753425433416
 20
-119.58701224155109
 30
0.0
 11
122.1753425433416
 21
-121.7030904112964
 31
0.0
  0
LINE
  8
DETAIL
  6
CONTINUOUS
 62
     5
 10
162.65206256096201
 20
-141.66285476916411
 30
0.0
 11
162.82363646661699
 21
-140.86217654277431
 31
0.0
  0
LINE
  8
DETAIL
  6
CONTINUOUS
 62
     5
 10
162.82363646661699
 20
-140.86217654277431
 30
0.0
 11
163.05240167415701
 21
-139.88992441072901
 31
0.0
  0
LINE
  8
DETAIL
  6
CONTINUOUS
 62
     5
 10
163.05240167415701
 20
-139.88992441072901
 30
0.0
 11
163.8530799005471
 21
-139.1464374862239
 31
0.0
  0
LINE
  8
DETAIL
  6
CONTINUOUS
 62
     5
 10
163.8530799005471
 20
-139.1464374862239
 30
0.0
 11
164.82533203259231
 21
-138.8604809767987
 31
0.0
  0
LINE
  8
DETAIL
  6
CONTINUOUS
 62
     5
 10
164.82533203259231
 20
-138.8604809767987
 30
0.0
 11
165.85477546652251
 21
-138.8604809767987
 31
0.0
  0
LINE
  8
DETAIL
  6
CONTINUOUS
 62
     5
 10
165.85477546652251
 20
-138.8604809767987
 30
0.0
 11
166.8270275985675
 21
-138.8604809767987
 31
0.0
  0
LINE
  8
DETAIL
  6
CONTINUOUS
 62
     5
 10
166.8270275985675
 20
-138.8604809767987
 30
0.0
 11
167.6277058249575
 21
-139.54677659941899
 31
0.0
  0
LINE
  8
DETAIL
  6
CONTINUOUS
 62
     5
 10
167.6277058249575
 20
-139.54677659941899
 30
0.0
 11
168.0280449381527
 21
-140.34745482580911
 31
0.0
  0
LINE
  8
DETAIL
  6
CONTINUOUS
 62
     5
 10
168.0280449381527
 20
-140.34745482580911
 30
0.0
 11
168.5427666551177
 21
-141.09094175031419
 31
0.0
  0
LINE
  8
DETAIL
  6
CONTINUOUS
 62
     5
 10
168.5427666551177
 20
-141.09094175031419
 30
0.0
 11
168.5427666551177
 21
-142.0631938823592
 31
0.0
  0
LINE
  8
DETAIL
  6
CONTINUOUS
 62
     5
 10
168.5427666551177
 20
-142.0631938823592
 30
0.0
 11
168.0280449381527
 21
-143.1498286181743
 31
0.0
  0
LINE
  8
DETAIL
  6
CONTINUOUS
 62
     5
 10
168.0280449381527
 20
-143.1498286181743
 30
0.0
 11
167.6277058249575
 21
-143.8933155426796
 31
0.0
  0
LINE
  8
DETAIL
  6
CONTINUOUS
 62
     5
 10
167.6277058249575
 20
-143.8933155426796
 30
0.0
 11
166.8270275985675
 21
-144.3508459577597
 31
0.0
  0
LINE
  8
DETAIL
  6
CONTINUOUS
 62
     5
 10
166.8270275985675
 20
-144.3508459577597
 30
0.0
 11
165.85477546652251
 21
-144.57961116529961
 31
0.0
  0
LINE
  8
DETAIL
  6
CONTINUOUS
 62
     5
 10
165.85477546652251
 20
-144.57961116529961
 30
0.0
 11
164.82533203259231
 21
-144.57961116529961
 31
0.0
  0
LINE
  8
DETAIL
  6
CONTINUOUS
 62
     5
 10
164.82533203259231
 20
-144.57961116529961
 30
0.0
 11
163.8530799005471
 21
-144.3508459577597
 31
0.0
  0
LINE
  8
DETAIL
  6
CONTINUOUS
 62
     5
 10
163.8530799005471
 20
-144.3508459577597
 30
0.0
 11
163.05240167415701
 21
-143.55016773136961
 31
0.0
  0
LINE
  8
DETAIL
  6
CONTINUOUS
 62
     5
 10
163.05240167415701
 20
-143.55016773136961
 30
0.0
 11
162.82363646661699
 21
-142.6922982030942
 31
0.0
  0
LINE
  8
DETAIL
  6
CONTINUOUS
 62
     5
 10
162.82363646661699
 20
-142.6922982030942
 30
0.0
 11
162.65206256096201
 21
-141.66285476916411
 31
0.0
  0
LINE
  8
DETAIL
  6
CONTINUOUS
 62
     5
 10
-100.15669131761361
 20
-157.04731497623129
 30
0.0
 11
-103.7597433363692
 21
-147.66794146709
 31
0.0
  0
LINE
  8
DETAIL
  6
CONTINUOUS
 62
     5
 10
-103.7597433363692
 20
-147.66794146709
 30
0.0
 11
-105.9330128079994
 21
-138.17418535417869
 31
0.0
  0
LINE
  8
DETAIL
  6
CONTINUOUS
 62
     5
 10
-105.9330128079994
 20
-138.17418535417869
 30
0.0
 11
-107.1340301475846
 21
-128.16570752430241
 31
0.0
  0
LINE
  8
DETAIL
  6
CONTINUOUS
 62
     5
 10
-128.23762054315239
 20
-119.58701224155109
 30
0.0
 11
-122.1181512414565
 21
-119.58701224155109
 31
0.0
  0
LINE
  8
DETAIL
  6
CONTINUOUS
 62
     5
 10
-114.2257515813255
 20
-121.7030904112964
 30
0.0
 11
-112.1096734115802
 21
-122.1034295244915
 31
0.0
  0
LINE
  8
DETAIL
  6
CONTINUOUS
 62
     5
 10
-112.1096734115802
 20
-122.1034295244915
 30
0.0
 11
-110.4511256569151
 21
-122.90410775088159
 31
0.0
  0
LINE
  8
DETAIL
  6
CONTINUOUS
 62
     5
 10
-110.4511256569151
 20
-122.90410775088159
 30
0.0
 11
-108.9069605060197
 21
-124.391081599892
 31
0.0
  0
LINE
  8
DETAIL
  6
CONTINUOUS
 62
     5
 10
-108.9069605060197
 20
-124.391081599892
 30
0.0
 11
-107.64875186454969
 21
-126.1068206564421
 31
0.0
  0
LINE
  8
DETAIL
  6
CONTINUOUS
 62
     5
 10
-107.64875186454969
 20
-126.1068206564421
 30
0.0
 11
-107.1340301475846
 21
-128.16570752430241
 31
0.0
  0
LINE
  8
DETAIL
  6
CONTINUOUS
 62
     5
 10
-128.23762054315239
 20
-121.7030904112964
 30
0.0
 11
-114.2257515813255
 21
-121.7030904112964
 31
0.0
  0
LINE
  8
DETAIL
  6
CONTINUOUS
 62
     5
 10
-151.6713325990404
 20
-122.6753425433417
 30
0.0
 11
-151.6713325990404
 21
-117.69969927934589
 31
0.0
  0
LINE
  8
DETAIL
  6
CONTINUOUS
 62
     5
 10
-154.41651508952091
 20
-117.69969927934589
 30
0.0
 11
-151.6713325990404
 21
-122.6753425433417
 31
0.0
  0
LINE
  8
DETAIL
  6
CONTINUOUS
 62
     5
 10
-148.6973849010202
 20
-117.69969927934589
 30
0.0
 11
-151.6713325990404
 21
-122.6753425433417
 31
0.0
  0
LINE
  8
DETAIL
  6
CONTINUOUS
 62
     5
 10
-179.69507052269421
 20
-122.6753425433417
 30
0.0
 11
-179.69507052269421
 21
-117.69969927934589
 31
0.0
  0
LINE
  8
DETAIL
  6
CONTINUOUS
 62
     5
 10
-176.66393152278891
 20
-117.69969927934589
 30
0.0
 11
-179.69507052269421
 21
-122.6753425433417
 31
0.0
  0
LINE
  8
DETAIL
  6
CONTINUOUS
 62
     5
 10
-182.38306171128971
 20
-117.69969927934589
 30
0.0
 11
-179.69507052269421
 21
-122.6753425433417
 31
0.0
  0
LINE
  8
DETAIL
  6
CONTINUOUS
 62
     5
 10
-139.38992441072901
 20
-140.34745482580911
 30
0.0
 11
-115.71272543033569
 21
-140.34745482580911
 31
0.0
  0
LINE
  8
DETAIL
  6
CONTINUOUS
 62
     5
 10
-115.71272543033569
 20
-140.34745482580911
 30
0.0
 11
-113.9397950719006
 21
-140.6906026371191
 31
0.0
  0
LINE
  8
DETAIL
  6
CONTINUOUS
 62
     5
 10
-113.9397950719006
 20
-140.6906026371191
 30
0.0
 11
-112.45282122289019
 21
-141.66285476916411
 31
0.0
  0
LINE
  8
DETAIL
  6
CONTINUOUS
 62
     5
 10
-112.45282122289019
 20
-141.66285476916411
 30
0.0
 11
-111.4233777889601
 21
-142.86387210874909
 31
0.0
  0
LINE
  8
DETAIL
  6
CONTINUOUS
 62
     5
 10
-111.4233777889601
 20
-142.86387210874909
 30
0.0
 11
-110.7370821663401
 21
-144.3508459577597
 31
0.0
  0
LINE
  8
DETAIL
  6
CONTINUOUS
 62
     5
 10
-110.7370821663401
 20
-144.3508459577597
 30
0.0
 11
-110.7370821663401
 21
-146.06658501430999
 31
0.0
  0
LINE
  8
DETAIL
  6
CONTINUOUS
 62
     5
 10
-110.7370821663401
 20
-146.06658501430999
 30
0.0
 11
-111.4233777889601
 21
-147.83951537274521
 31
0.0
  0
LINE
  8
DETAIL
  6
CONTINUOUS
 62
     5
 10
-111.4233777889601
 20
-147.83951537274521
 30
0.0
 11
-112.45282122289019
 21
-149.15491531610041
 31
0.0
  0
LINE
  8
DETAIL
  6
CONTINUOUS
 62
     5
 10
-112.45282122289019
 20
-149.15491531610041
 30
0.0
 11
-113.9397950719006
 21
-150.1843587500305
 31
0.0
  0
LINE
  8
DETAIL
  6
CONTINUOUS
 62
     5
 10
-113.9397950719006
 20
-150.1843587500305
 30
0.0
 11
-115.71272543033569
 21
-150.35593265568539
 31
0.0
  0
LINE
  8
DETAIL
  6
CONTINUOUS
 62
     5
 10
-115.71272543033569
 20
-150.35593265568539
 30
0.0
 11
-139.38992441072901
 21
-150.35593265568539
 31
0.0
  0
LINE
  8
DETAIL
  6
CONTINUOUS
 62
     5
 10
-139.38992441072901
 20
-150.35593265568539
 30
0.0
 11
-140.87689825973919
 21
-150.1843587500305
 31
0.0
  0
LINE
  8
DETAIL
  6
CONTINUOUS
 62
     5
 10
-140.87689825973919
 20
-150.1843587500305
 30
0.0
 11
-142.42106341063439
 21
-149.38368052364041
 31
0.0
  0
LINE
  8
DETAIL
  6
CONTINUOUS
 62
     5
 10
-142.42106341063439
 20
-149.38368052364041
 30
0.0
 11
-143.39331554267949
 21
-148.3542370897101
 31
0.0
  0
LINE
  8
DETAIL
  6
CONTINUOUS
 62
     5
 10
-143.39331554267949
 20
-148.3542370897101
 30
0.0
 11
-144.69399376906949
 21
-146.86726324069991
 31
0.0
  0
LINE
  8
DETAIL
  6
CONTINUOUS
 62
     5
 10
-144.69399376906949
 20
-146.86726324069991
 30
0.0
 11
-144.92275897660971
 21
-145.38028939169001
 31
0.0
  0
LINE
  8
DETAIL
  6
CONTINUOUS
 62
     5
 10
-144.92275897660971
 20
-145.38028939169001
 30
0.0
 11
-144.69399376906949
 21
-143.8933155426796
 31
0.0
  0
LINE
  8
DETAIL
  6
CONTINUOUS
 62
     5
 10
-144.69399376906949
 20
-143.8933155426796
 30
0.0
 11
-143.39331554267949
 21
-142.34915039178421
 31
0.0
  0
LINE
  8
DETAIL
  6
CONTINUOUS
 62
     5
 10
-143.39331554267949
 20
-142.34915039178421
 30
0.0
 11
-142.42106341063439
 21
-141.37689825973919
 31
0.0
  0
LINE
  8
DETAIL
  6
CONTINUOUS
 62
     5
 10
-142.42106341063439
 20
-141.37689825973919
 30
0.0
 11
-140.87689825973919
 21
-140.6906026371191
 31
0.0
  0
LINE
  8
DETAIL
  6
CONTINUOUS
 62
     5
 10
-140.87689825973919
 20
-140.6906026371191
 30
0.0
 11
-139.38992441072901
 21
-140.34745482580911
 31
0.0
  0
LINE
  8
DETAIL
  6
CONTINUOUS
 62
     5
 10
-100.15669131761361
 20
-157.04731497623129
 30
0.0
 11
-99.641969600648636
 21
-159.33496705163179
 31
0.0
  0
LINE
  8
DETAIL
  6
CONTINUOUS
 62
     5
 10
-99.641969600648636
 20
-159.33496705163179
 30
0.0
 11
-99.927926110073628
 21
-161.67981042891691
 31
0.0
  0
LINE
  8
DETAIL
  6
CONTINUOUS
 62
     5
 10
-99.927926110073628
 20
-161.67981042891691
 30
0.0
 11
-100.7286043364636
 21
-163.5671233911221
 31
0.0
  0
LINE
  8
DETAIL
  6
CONTINUOUS
 62
     5
 10
-100.7286043364636
 20
-163.5671233911221
 30
0.0
 11
-102.4443433930139
 21
-165.34005374955751
 31
0.0
  0
LINE
  8
DETAIL
  6
CONTINUOUS
 62
     5
 10
-102.4443433930139
 20
-165.34005374955751
 30
0.0
 11
-104.44603895898921
 21
-166.36949718348751
 31
0.0
  0
LINE
  8
DETAIL
  6
CONTINUOUS
 62
     5
 10
-104.44603895898921
 20
-166.36949718348751
 30
0.0
 11
-106.73369103438949
 21
-166.82702759856761
 31
0.0
  0
LINE
  8
DETAIL
  6
CONTINUOUS
 62
     5
 10
-154.702471598946
 20
-166.82702759856761
 30
0.0
 11
-106.73369103438949
 21
-166.82702759856761
 31
0.0
  0
LINE
  8
DETAIL
  6
CONTINUOUS
 62
     5
 10
-185.5857746168501
 20
-117.69969927934589
 30
0.0
 11
-122.1181512414565
 21
-117.69969927934589
 31
0.0
  0
LINE
  8
DETAIL
  6
CONTINUOUS
 62
     5
 10
-185.5857746168501
 20
-117.69969927934589
 30
0.0
 11
-185.5857746168501
 21
-135.88653327877859
 31
0.0
  0
LINE
  8
DETAIL
  6
CONTINUOUS
 62
     5
 10
-114.9120472039457
 20
-159.84968876859671
 30
0.0
 11
-114.6260906945206
 21
-157.84799320262141
 31
0.0
  0
LINE
  8
DETAIL
  6
CONTINUOUS
 62
     5
 10
-114.6260906945206
 20
-157.84799320262141
 30
0.0
 11
-113.7110298643604
 21
-156.07506284418631
 31
0.0
  0
LINE
  8
DETAIL
  6
CONTINUOUS
 62
     5
 10
-113.7110298643604
 20
-156.07506284418631
 30
0.0
 11
-112.45282122289019
 21
-154.53089769329091
 31
0.0
  0
LINE
  8
DETAIL
  6
CONTINUOUS
 62
     5
 10
-112.45282122289019
 20
-154.53089769329091
 30
0.0
 11
-110.7370821663401
 21
-153.84460207067079
 31
0.0
  0
LINE
  8
DETAIL
  6
CONTINUOUS
 62
     5
 10
-110.7370821663401
 20
-153.84460207067079
 30
0.0
 11
-108.73538660036471
 21
-153.38707165559069
 31
0.0
  0
LINE
  8
DETAIL
  6
CONTINUOUS
 62
     5
 10
-114.9120472039457
 20
-159.84968876859671
 30
0.0
 11
-114.9120472039457
 21
-165.8547754665224
 31
0.0
  0
LINE
  8
DETAIL
  6
CONTINUOUS
 62
     5
 10
-108.73538660036471
 20
-153.38707165559069
 30
0.0
 11
-102.4443433930139
 21
-153.38707165559069
 31
0.0
  0
LINE
  8
DETAIL
  6
CONTINUOUS
 62
     5
 10
-128.23762054315239
 20
-121.7030904112964
 30
0.0
 11
-128.23762054315239
 21
-117.69969927934589
 31
0.0
  0
LINE
  8
DETAIL
  6
CONTINUOUS
 62
     5
 10
-183.3553138433349
 20
-140.86217654277431
 30
0.0
 11
-159.39215835351661
 21
-164.82533203259231
 31
0.0
  0
LINE
  8
DETAIL
  6
CONTINUOUS
 62
     5
 10
-183.3553138433349
 20
-140.86217654277431
 30
0.0
 11
-184.67071378668999
 21
-139.3752026937639
 31
0.0
  0
LINE
  8
DETAIL
  6
CONTINUOUS
 62
     5
 10
-184.67071378668999
 20
-139.3752026937639
 30
0.0
 11
-185.35700940931011
 21
-137.6594636372138
 31
0.0
  0
LINE
  8
DETAIL
  6
CONTINUOUS
 62
     5
 10
-185.35700940931011
 20
-137.6594636372138
 30
0.0
 11
-185.5857746168501
 21
-135.88653327877859
 31
0.0
  0
LINE
  8
DETAIL
  6
CONTINUOUS
 62
     5
 10
-154.702471598946
 20
-166.82702759856761
 30
0.0
 11
-156.4182106554961
 21
-166.65545369291269
 31
0.0
  0
LINE
  8
DETAIL
  6
CONTINUOUS
 62
     5
 10
-156.4182106554961
 20
-166.65545369291269
 30
0.0
 11
-158.07675841016129
 21
-165.8547754665224
 31
0.0
  0
LINE
  8
DETAIL
  6
CONTINUOUS
 62
     5
 10
-158.07675841016129
 20
-165.8547754665224
 30
0.0
 11
-159.39215835351661
 21
-164.82533203259231
 31
0.0
  0
LINE
  8
DETAIL
  6
CONTINUOUS
 62
     5
 10
-122.1181512414565
 20
-117.69969927934589
 30
0.0
 11
-120.91713390187149
 21
-117.871273185001
 31
0.0
  0
LINE
  8
DETAIL
  6
CONTINUOUS
 62
     5
 10
-120.91713390187149
 20
-117.871273185001
 30
0.0
 11
-119.9448817698262
 21
-118.61476010950609
 31
0.0
  0
LINE
  8
DETAIL
  6
CONTINUOUS
 62
     5
 10
-119.9448817698262
 20
-118.61476010950609
 30
0.0
 11
-118.9154383358961
 21
-119.4154383358959
 31
0.0
  0
LINE
  8
DETAIL
  6
CONTINUOUS
 62
     5
 10
-118.9154383358961
 20
-119.4154383358959
 30
0.0
 11
-118.400716618931
 21
-120.6736469773664
 31
0.0
  0
LINE
  8
DETAIL
  6
CONTINUOUS
 62
     5
 10
-118.400716618931
 20
-120.6736469773664
 30
0.0
 11
-118.229142713276
 21
-121.7030904112964
 31
0.0
  0
LINE
  8
DETAIL
  6
CONTINUOUS
 62
     5
 10
-122.1181512414565
 20
-119.58701224155109
 30
0.0
 11
-121.7178121282616
 21
-119.8729687509763
 31
0.0
  0
LINE
  8
DETAIL
  6
CONTINUOUS
 62
     5
 10
-121.7178121282616
 20
-119.8729687509763
 30
0.0
 11
-120.91713390187149
 21
-120.2161165622863
 31
0.0
  0
LINE
  8
DETAIL
  6
CONTINUOUS
 62
     5
 10
-120.91713390187149
 20
-120.2161165622863
 30
0.0
 11
-120.7455599962163
 21
-120.6736469773664
 31
0.0
  0
LINE
  8
DETAIL
  6
CONTINUOUS
 62
     5
 10
-120.7455599962163
 20
-120.6736469773664
 30
0.0
 11
-120.11645567548121
 21
-121.07398609056141
 31
0.0
  0
LINE
  8
DETAIL
  6
CONTINUOUS
 62
     5
 10
-120.11645567548121
 20
-121.07398609056141
 30
0.0
 11
-120.11645567548121
 21
-121.7030904112964
 31
0.0
  0
LINE
  8
DETAIL
  6
CONTINUOUS
 62
     5
 10
-122.1181512414565
 20
-119.58701224155109
 30
0.0
 11
-122.1181512414565
 21
-121.7030904112964
 31
0.0
  0
LINE
  8
DETAIL
  6
CONTINUOUS
 62
     5
 10
-168.6571492588877
 20
-141.66285476916411
 30
0.0
 11
-168.37119274946269
 21
-140.86217654277431
 31
0.0
  0
LINE
  8
DETAIL
  6
CONTINUOUS
 62
     5
 10
-168.37119274946269
 20
-140.86217654277431
 30
0.0
 11
-167.85647103249769
 21
-139.88992441072901
 31
0.0
  0
LINE
  8
DETAIL
  6
CONTINUOUS
 62
     5
 10
-167.85647103249769
 20
-139.88992441072901
 30
0.0
 11
-167.1701754098776
 21
-139.1464374862239
 31
0.0
  0
LINE
  8
DETAIL
  6
CONTINUOUS
 62
     5
 10
-167.1701754098776
 20
-139.1464374862239
 30
0.0
 11
-166.36949718348751
 21
-138.8604809767987
 31
0.0
  0
LINE
  8
DETAIL
  6
CONTINUOUS
 62
     5
 10
-166.36949718348751
 20
-138.8604809767987
 30
0.0
 11
-165.3972450514423
 21
-138.8604809767987
 31
0.0
  0
LINE
  8
DETAIL
  6
CONTINUOUS
 62
     5
 10
-165.3972450514423
 20
-138.8604809767987
 30
0.0
 11
-164.36780161751221
 21
-138.8604809767987
 31
0.0
  0
LINE
  8
DETAIL
  6
CONTINUOUS
 62
     5
 10
-164.36780161751221
 20
-138.8604809767987
 30
0.0
 11
-163.68150599489221
 21
-139.54677659941899
 31
0.0
  0
LINE
  8
DETAIL
  6
CONTINUOUS
 62
     5
 10
-163.68150599489221
 20
-139.54677659941899
 30
0.0
 11
-162.88082776850189
 21
-140.34745482580911
 31
0.0
  0
LINE
  8
DETAIL
  6
CONTINUOUS
 62
     5
 10
-162.88082776850189
 20
-140.34745482580911
 30
0.0
 11
-162.594871259077
 21
-141.09094175031419
 31
0.0
  0
LINE
  8
DETAIL
  6
CONTINUOUS
 62
     5
 10
-162.594871259077
 20
-141.09094175031419
 30
0.0
 11
-162.594871259077
 21
-142.0631938823592
 31
0.0
  0
LINE
  8
DETAIL
  6
CONTINUOUS
 62
     5
 10
-162.594871259077
 20
-142.0631938823592
 30
0.0
 11
-162.88082776850189
 21
-143.1498286181743
 31
0.0
  0
LINE
  8
DETAIL
  6
CONTINUOUS
 62
     5
 10
-162.88082776850189
 20
-143.1498286181743
 30
0.0
 11
-163.68150599489221
 21
-143.8933155426796
 31
0.0
  0
LINE
  8
DETAIL
  6
CONTINUOUS
 62
     5
 10
-163.68150599489221
 20
-143.8933155426796
 30
0.0
 11
-164.36780161751221
 21
-144.3508459577597
 31
0.0
  0
LINE
  8
DETAIL
  6
CONTINUOUS
 62
     5
 10
-164.36780161751221
 20
-144.3508459577597
 30
0.0
 11
-165.3972450514423
 21
-144.57961116529961
 31
0.0
  0
LINE
  8
DETAIL
  6
CONTINUOUS
 62
     5
 10
-165.3972450514423
 20
-144.57961116529961
 30
0.0
 11
-166.36949718348751
 21
-144.57961116529961
 31
0.0
  0
LINE
  8
DETAIL
  6
CONTINUOUS
 62
     5
 10
-166.36949718348751
 20
-144.57961116529961
 30
0.0
 11
-167.1701754098776
 21
-144.3508459577597
 31
0.0
  0
LINE
  8
DETAIL
  6
CONTINUOUS
 62
     5
 10
-167.1701754098776
 20
-144.3508459577597
 30
0.0
 11
-167.85647103249769
 21
-143.55016773136961
 31
0.0
  0
LINE
  8
DETAIL
  6
CONTINUOUS
 62
     5
 10
-167.85647103249769
 20
-143.55016773136961
 30
0.0
 11
-168.37119274946269
 21
-142.6922982030942
 31
0.0
  0
LINE
  8
DETAIL
  6
CONTINUOUS
 62
     5
 10
-168.37119274946269
 20
-142.6922982030942
 30
0.0
 11
-168.6571492588877
 21
-141.66285476916411
 31
0.0
  0
LINE
  8
DETAIL
  6
CONTINUOUS
 62
     5
 10
-70.974405639294673
 20
-128.16570752430241
 30
0.0
 11
-70.173727412904441
 21
-118.3859949019659
 31
0.0
  0
LINE
  8
DETAIL
  6
CONTINUOUS
 62
     5
 10
-70.173727412904441
 20
-118.3859949019659
 30
0.0
 11
-68.172031846929258
 21
-108.6062822796298
 31
0.0
  0
LINE
  8
DETAIL
  6
CONTINUOUS
 62
     5
 10
-68.172031846929258
 20
-108.6062822796298
 30
0.0
 11
-64.79774503571366
 21
-99.398482676143658
 31
0.0
  0
LINE
  8
DETAIL
  6
CONTINUOUS
 62
     5
 10
-64.79774503571366
 20
-99.398482676143658
 30
0.0
 11
-60.165249583028071
 21
-90.705404789622435
 31
0.0
  0
LINE
  8
DETAIL
  6
CONTINUOUS
 62
     5
 10
-60.165249583028071
 20
-90.705404789622435
 30
0.0
 11
-54.274545488872491
 21
-82.698622525721248
 31
0.0
  0
LINE
  8
DETAIL
  6
CONTINUOUS
 62
     5
 10
-54.274545488872491
 20
-82.698622525721248
 30
0.0
 11
-47.468780564556482
 21
-75.435327186325139
 31
0.0
  0
LINE
  8
DETAIL
  6
CONTINUOUS
 62
     5
 10
-47.468780564556482
 20
-75.435327186325139
 30
0.0
 11
-39.805146111965428
 21
-69.430240488399477
 31
0.0
  0
LINE
  8
DETAIL
  6
CONTINUOUS
 62
     5
 10
-39.805146111965428
 20
-69.430240488399477
 30
0.0
 11
-30.99768562167424
 21
-64.454597224403869
 31
0.0
  0
LINE
  8
DETAIL
  6
CONTINUOUS
 62
     5
 10
-30.99768562167424
 20
-64.454597224403869
 30
0.0
 11
-22.018651225728039
 21
-60.737162601878246
 31
0.0
  0
LINE
  8
DETAIL
  6
CONTINUOUS
 62
     5
 10
-22.018651225728039
 20
-60.737162601878246
 30
0.0
 11
-12.296129905276761
 21
-58.220745318937823
 31
0.0
  0
LINE
  8
DETAIL
  6
CONTINUOUS
 62
     5
 10
-12.296129905276761
 20
-58.220745318937823
 30
0.0
 11
-2.5164172829404379
 21
-57.134110583122947
 31
0.0
  0
LINE
  8
DETAIL
  6
CONTINUOUS
 62
     5
 10
-2.5164172829404379
 20
-57.134110583122947
 30
0.0
 11
7.4920605469359316
 21
-57.763214903857943
 31
0.0
  0
LINE
  8
DETAIL
  6
CONTINUOUS
 62
     5
 10
7.4920605469359316
 20
-57.763214903857943
 30
0.0
 11
17.271773169272361
 21
-59.421762658522987
 31
0.0
  0
LINE
  8
DETAIL
  6
CONTINUOUS
 62
     5
 10
17.271773169272361
 20
-59.421762658522987
 30
0.0
 11
26.76552928218371
 21
-62.452901658428573
 31
0.0
  0
LINE
  8
DETAIL
  6
CONTINUOUS
 62
     5
 10
26.76552928218371
 20
-62.452901658428573
 30
0.0
 11
35.458607168704823
 21
-66.742249299803916
 31
0.0
  0
LINE
  8
DETAIL
  6
CONTINUOUS
 62
     5
 10
35.458607168704823
 20
-66.742249299803916
 30
0.0
 11
43.636963338260898
 21
-72.11823167699481
 31
0.0
  0
LINE
  8
DETAIL
  6
CONTINUOUS
 62
     5
 10
43.636963338260898
 20
-72.11823167699481
 30
0.0
 11
50.957449979541821
 21
-78.923996601310819
 31
0.0
  0
LINE
  8
DETAIL
  6
CONTINUOUS
 62
     5
 10
50.957449979541821
 20
-78.923996601310819
 30
0.0
 11
57.420067092547697
 21
-86.416057148246637
 31
0.0
  0
LINE
  8
DETAIL
  6
CONTINUOUS
 62
     5
 10
57.420067092547697
 20
-86.416057148246637
 30
0.0
 11
62.624475564083468
 21
-94.937561129112737
 31
0.0
  0
LINE
  8
DETAIL
  6
CONTINUOUS
 62
     5
 10
62.624475564083468
 20
-94.937561129112737
 30
0.0
 11
66.742249299803916
 21
-103.9165955250589
 31
0.0
  0
LINE
  8
DETAIL
  6
CONTINUOUS
 62
     5
 10
66.742249299803916
 20
-103.9165955250589
 30
0.0
 11
69.430240488399477
 21
-113.41035163797029
 31
0.0
  0
LINE
  8
DETAIL
  6
CONTINUOUS
 62
     5
 10
69.430240488399477
 20
-113.41035163797029
 30
0.0
 11
70.631257827984541
 21
-123.1900642603068
 31
0.0
  0
LINE
  8
DETAIL
  6
CONTINUOUS
 62
     5
 10
70.631257827984541
 20
-123.1900642603068
 30
0.0
 11
70.631257827984541
 21
-133.19854209018311
 31
0.0
  0
LINE
  8
DETAIL
  6
CONTINUOUS
 62
     5
 10
70.631257827984541
 20
-133.19854209018311
 30
0.0
 11
69.430240488399477
 21
-142.86387210874909
 31
0.0
  0
LINE
  8
DETAIL
  6
CONTINUOUS
 62
     5
 10
69.430240488399477
 20
-142.86387210874909
 30
0.0
 11
66.742249299803916
 21
-152.35762822166041
 31
0.0
  0
LINE
  8
DETAIL
  6
CONTINUOUS
 62
     5
 10
66.742249299803916
 20
-152.35762822166041
 30
0.0
 11
62.624475564083468
 21
-161.33666261760689
 31
0.0
  0
LINE
  8
DETAIL
  6
CONTINUOUS
 62
     5
 10
62.624475564083468
 20
-161.33666261760689
 30
0.0
 11
57.420067092547697
 21
-169.85816659847319
 31
0.0
  0
LINE
  8
DETAIL
  6
CONTINUOUS
 62
     5
 10
57.420067092547697
 20
-169.85816659847319
 30
0.0
 11
50.957449979541821
 21
-177.35022714540901
 31
0.0
  0
LINE
  8
DETAIL
  6
CONTINUOUS
 62
     5
 10
50.957449979541821
 20
-177.35022714540901
 30
0.0
 11
43.636963338260898
 21
-184.15599206972499
 31
0.0
  0
LINE
  8
DETAIL
  6
CONTINUOUS
 62
     5
 10
43.636963338260898
 20
-184.15599206972499
 30
0.0
 11
35.458607168704823
 21
-189.64635705068579
 31
0.0
  0
LINE
  8
DETAIL
  6
CONTINUOUS
 62
     5
 10
35.458607168704823
 20
-189.64635705068579
 30
0.0
 11
26.76552928218371
 21
-193.82132208829131
 31
0.0
  0
LINE
  8
DETAIL
  6
CONTINUOUS
 62
     5
 10
26.76552928218371
 20
-193.82132208829131
 30
0.0
 11
17.271773169272361
 21
-197.13841759762161
 31
0.0
  0
LINE
  8
DETAIL
  6
CONTINUOUS
 62
     5
 10
17.271773169272361
 20
-197.13841759762161
 30
0.0
 11
7.4920605469359316
 21
-198.79696535228689
 31
0.0
  0
LINE
  8
DETAIL
  6
CONTINUOUS
 62
     5
 10
7.4920605469359316
 20
-198.79696535228689
 30
0.0
 11
-2.5164172829404379
 21
-199.14011316359691
 31
0.0
  0
LINE
  8
DETAIL
  6
CONTINUOUS
 62
     5
 10
-2.5164172829404379
 20
-199.14011316359691
 30
0.0
 11
-12.296129905276761
 21
-197.99628712589671
 31
0.0
  0
LINE
  8
DETAIL
  6
CONTINUOUS
 62
     5
 10
-12.296129905276761
 20
-197.99628712589671
 30
0.0
 11
-22.018651225728039
 21
-195.5370611448416
 31
0.0
  0
LINE
  8
DETAIL
  6
CONTINUOUS
 62
     5
 10
-22.018651225728039
 20
-195.5370611448416
 30
0.0
 11
-30.99768562167424
 21
-191.81962652231601
 31
0.0
  0
LINE
  8
DETAIL
  6
CONTINUOUS
 62
     5
 10
-30.99768562167424
 20
-191.81962652231601
 30
0.0
 11
-39.805146111965428
 21
-187.1299397677453
 31
0.0
  0
LINE
  8
DETAIL
  6
CONTINUOUS
 62
     5
 10
-39.805146111965428
 20
-187.1299397677453
 30
0.0
 11
-47.468780564556482
 21
-180.83889656039449
 31
0.0
  0
LINE
  8
DETAIL
  6
CONTINUOUS
 62
     5
 10
-47.468780564556482
 20
-180.83889656039449
 30
0.0
 11
-54.274545488872491
 21
-173.86155773042361
 31
0.0
  0
LINE
  8
DETAIL
  6
CONTINUOUS
 62
     5
 10
-54.274545488872491
 20
-173.86155773042361
 30
0.0
 11
-60.165249583028071
 21
-165.8547754665224
 31
0.0
  0
LINE
  8
DETAIL
  6
CONTINUOUS
 62
     5
 10
-60.165249583028071
 20
-165.8547754665224
 30
0.0
 11
-64.79774503571366
 21
-157.04731497623129
 31
0.0
  0
LINE
  8
DETAIL
  6
CONTINUOUS
 62
     5
 10
-64.79774503571366
 20
-157.04731497623129
 30
0.0
 11
-68.172031846929258
 21
-147.66794146709
 31
0.0
  0
LINE
  8
DETAIL
  6
CONTINUOUS
 62
     5
 10
-68.172031846929258
 20
-147.66794146709
 30
0.0
 11
-70.173727412904441
 21
-138.17418535417869
 31
0.0
  0
LINE
  8
DETAIL
  6
CONTINUOUS
 62
     5
 10
-70.173727412904441
 20
-138.17418535417869
 30
0.0
 11
-70.974405639294673
 21
-128.16570752430241
 31
0.0
  0
LINE
  8
DETAIL
  6
CONTINUOUS
 62
     5
 10
80.58254435597587
 20
-88.417752714221933
 30
0.0
 11
83.899639865306312
 21
-95.90981326115795
 31
0.0
  0
LINE
  8
DETAIL
  6
CONTINUOUS
 62
     5
 10
-39.51918960254045
 20
-47.468780564556482
 30
0.0
 11
-30.482963904709099
 21
-43.465389432605889
 31
0.0
  0
LINE
  8
DETAIL
  6
CONTINUOUS
 62
     5
 10
-30.482963904709099
 20
-43.465389432605889
 30
0.0
 11
-20.98920779179775
 21
-40.777398244010563
 31
0.0
  0
LINE
  8
DETAIL
  6
CONTINUOUS
 62
     5
 10
-20.98920779179775
 20
-40.777398244010563
 30
0.0
 11
-11.323877773231629
 21
-38.947276583690382
 31
0.0
  0
LINE
  8
DETAIL
  6
CONTINUOUS
 62
     5
 10
-11.323877773231629
 20
-38.947276583690382
 30
0.0
 11
-1.3153999433552599
 21
-38.260980961070352
 31
0.0
  0
LINE
  8
DETAIL
  6
CONTINUOUS
 62
     5
 10
-1.3153999433552599
 20
-38.260980961070352
 30
0.0
 11
8.4643126789811731
 21
-38.661320074265397
 31
0.0
  0
LINE
  8
DETAIL
  6
CONTINUOUS
 62
     5
 10
8.4643126789811731
 20
-38.661320074265397
 30
0.0
 11
18.472790508857539
 21
-40.262676527045407
 31
0.0
  0
LINE
  8
DETAIL
  6
CONTINUOUS
 62
     5
 10
18.472790508857539
 20
-40.262676527045407
 30
0.0
 11
27.966546621768881
 21
-42.779093809985852
 31
0.0
  0
LINE
  8
DETAIL
  6
CONTINUOUS
 62
     5
 10
27.966546621768881
 20
-42.779093809985852
 30
0.0
 11
37.231537527139949
 21
-46.153380621201222
 31
0.0
  0
LINE
  8
DETAIL
  6
CONTINUOUS
 62
     5
 10
37.231537527139949
 20
-46.153380621201222
 30
0.0
 11
45.924615413661172
 21
-50.957449979541927
 31
0.0
  0
LINE
  8
DETAIL
  6
CONTINUOUS
 62
     5
 10
45.924615413661172
 20
-50.957449979541927
 30
0.0
 11
54.217354186987222
 21
-56.447814960502683
 31
0.0
  0
LINE
  8
DETAIL
  6
CONTINUOUS
 62
     5
 10
54.217354186987222
 20
-56.447814960502683
 30
0.0
 11
61.709414733923268
 21
-62.73885816785355
 31
0.0
  0
LINE
  8
DETAIL
  6
CONTINUOUS
 62
     5
 10
-80.639735657860911
 20
-167.85647103249789
 30
0.0
 11
-83.956831167191339
 21
-160.36441048556179
 31
0.0
  0
LINE
  8
DETAIL
  6
CONTINUOUS
 62
     5
 10
39.747954810080273
 20
-208.80544318216329
 30
0.0
 11
30.42577260282405
 21
-212.80883431411391
 31
0.0
  0
LINE
  8
DETAIL
  6
CONTINUOUS
 62
     5
 10
30.42577260282405
 20
-212.80883431411391
 30
0.0
 11
20.932016489912709
 21
-215.49682550270899
 31
0.0
  0
LINE
  8
DETAIL
  6
CONTINUOUS
 62
     5
 10
20.932016489912709
 20
-215.49682550270899
 30
0.0
 11
11.15230386757662
 21
-217.32694716302939
 31
0.0
  0
LINE
  8
DETAIL
  6
CONTINUOUS
 62
     5
 10
11.15230386757662
 20
-217.32694716302939
 30
0.0
 11
1.201017339585178
 21
-218.01324278564951
 31
0.0
  0
LINE
  8
DETAIL
  6
CONTINUOUS
 62
     5
 10
1.201017339585178
 20
-218.01324278564951
 30
0.0
 11
-8.5215039808661004
 21
-217.61290367245439
 31
0.0
  0
LINE
  8
DETAIL
  6
CONTINUOUS
 62
     5
 10
-8.5215039808661004
 20
-217.61290367245439
 30
0.0
 11
-18.186833999432451
 21
-216.01154721967421
 31
0.0
  0
LINE
  8
DETAIL
  6
CONTINUOUS
 62
     5
 10
-18.186833999432451
 20
-216.01154721967421
 30
0.0
 11
-28.023737923653808
 21
-213.495129936734
 31
0.0
  0
LINE
  8
DETAIL
  6
CONTINUOUS
 62
     5
 10
-28.023737923653808
 20
-213.495129936734
 30
0.0
 11
-37.288728829025104
 21
-210.1208431255186
 31
0.0
  0
LINE
  8
DETAIL
  6
CONTINUOUS
 62
     5
 10
-37.288728829025104
 20
-210.1208431255186
 30
0.0
 11
-45.981806715546327
 21
-205.31677376717769
 31
0.0
  0
LINE
  8
DETAIL
  6
CONTINUOUS
 62
     5
 10
-45.981806715546327
 20
-205.31677376717769
 30
0.0
 11
-54.274545488872491
 21
-199.82640878621709
 31
0.0
  0
LINE
  8
DETAIL
  6
CONTINUOUS
 62
     5
 10
-54.274545488872491
 20
-199.82640878621709
 30
0.0
 11
-61.766606035808422
 21
-193.5353655788663
 31
0.0
  0
LINE
  8
DETAIL
  6
CONTINUOUS
 62
     5
 10
-65.941571073413797
 20
-128.16570752430241
 30
0.0
 11
-65.140892847023906
 21
-118.3859949019659
 31
0.0
  0
LINE
  8
DETAIL
  6
CONTINUOUS
 62
     5
 10
-65.140892847023906
 20
-118.3859949019659
 30
0.0
 11
-62.9676233753936
 21
-108.6062822796298
 31
0.0
  0
LINE
  8
DETAIL
  6
CONTINUOUS
 62
     5
 10
-62.9676233753936
 20
-108.6062822796298
 30
0.0
 11
-59.47895396040802
 21
-99.627247883683594
 31
0.0
  0
LINE
  8
DETAIL
  6
CONTINUOUS
 62
     5
 10
-59.47895396040802
 20
-99.627247883683594
 30
0.0
 11
-54.503310696412427
 21
-90.934169997162371
 31
0.0
  0
LINE
  8
DETAIL
  6
CONTINUOUS
 62
     5
 10
-54.503310696412427
 20
-90.934169997162371
 30
0.0
 11
-48.155076187176519
 21
-83.442109450226553
 31
0.0
  0
LINE
  8
DETAIL
  6
CONTINUOUS
 62
     5
 10
-48.155076187176519
 20
-83.442109450226553
 30
0.0
 11
-41.006163451550492
 21
-76.750727129680399
 31
0.0
  0
LINE
  8
DETAIL
  6
CONTINUOUS
 62
     5
 10
-41.006163451550492
 20
-76.750727129680399
 30
0.0
 11
-32.999381187649313
 21
-70.917214337409632
 31
0.0
  0
LINE
  8
DETAIL
  6
CONTINUOUS
 62
     5
 10
-32.999381187649313
 20
-70.917214337409632
 30
0.0
 11
-24.020346791703329
 21
-66.742249299803916
 31
0.0
  0
LINE
  8
DETAIL
  6
CONTINUOUS
 62
     5
 10
-24.020346791703329
 20
-66.742249299803916
 30
0.0
 11
-14.812547188216969
 21
-63.939875507438728
 31
0.0
  0
LINE
  8
DETAIL
  6
CONTINUOUS
 62
     5
 10
-14.812547188216969
 20
-63.939875507438728
 30
0.0
 11
-5.0328345658808757
 21
-62.452901658428573
 31
0.0
  0
LINE
  8
DETAIL
  6
CONTINUOUS
 62
     5
 10
-5.0328345658808757
 20
-62.452901658428573
 30
0.0
 11
4.9756432639956074
 21
-62.452901658428573
 31
0.0
  0
LINE
  8
DETAIL
  6
CONTINUOUS
 62
     5
 10
4.9756432639956074
 20
-62.452901658428573
 30
0.0
 11
14.75535588633193
 21
-63.939875507438728
 31
0.0
  0
LINE
  8
DETAIL
  6
CONTINUOUS
 62
     5
 10
14.75535588633193
 20
-63.939875507438728
 30
0.0
 11
24.249111999243269
 21
-66.742249299803916
 31
0.0
  0
LINE
  8
DETAIL
  6
CONTINUOUS
 62
     5
 10
24.249111999243269
 20
-66.742249299803916
 30
0.0
 11
32.942189885764492
 21
-70.917214337409632
 31
0.0
  0
LINE
  8
DETAIL
  6
CONTINUOUS
 62
     5
 10
32.942189885764492
 20
-70.917214337409632
 30
0.0
 11
41.120546055320567
 21
-76.750727129680399
 31
0.0
  0
LINE
  8
DETAIL
  6
CONTINUOUS
 62
     5
 10
41.120546055320567
 20
-76.750727129680399
 30
0.0
 11
48.441032696601503
 21
-83.442109450226553
 31
0.0
  0
LINE
  8
DETAIL
  6
CONTINUOUS
 62
     5
 10
48.441032696601503
 20
-83.442109450226553
 30
0.0
 11
54.446119394527393
 21
-90.934169997162371
 31
0.0
  0
LINE
  8
DETAIL
  6
CONTINUOUS
 62
     5
 10
54.446119394527393
 20
-90.934169997162371
 30
0.0
 11
59.421762658522987
 21
-99.627247883683594
 31
0.0
  0
LINE
  8
DETAIL
  6
CONTINUOUS
 62
     5
 10
59.421762658522987
 20
-99.627247883683594
 30
0.0
 11
62.910432073508453
 21
-108.6062822796298
 31
0.0
  0
LINE
  8
DETAIL
  6
CONTINUOUS
 62
     5
 10
62.910432073508453
 20
-108.6062822796298
 30
0.0
 11
65.140892847023906
 21
-118.3859949019659
 31
0.0
  0
LINE
  8
DETAIL
  6
CONTINUOUS
 62
     5
 10
65.140892847023906
 20
-118.3859949019659
 30
0.0
 11
65.941571073413797
 21
-128.16570752430241
 31
0.0
  0
LINE
  8
DETAIL
  6
CONTINUOUS
 62
     5
 10
65.941571073413797
 20
-128.16570752430241
 30
0.0
 11
65.140892847023906
 21
-137.88822884475371
 31
0.0
  0
LINE
  8
DETAIL
  6
CONTINUOUS
 62
     5
 10
65.140892847023906
 20
-137.88822884475371
 30
0.0
 11
62.910432073508453
 21
-147.66794146709
 31
0.0
  0
LINE
  8
DETAIL
  6
CONTINUOUS
 62
     5
 10
62.910432073508453
 20
-147.66794146709
 30
0.0
 11
59.421762658522987
 21
-156.8757410705762
 31
0.0
  0
LINE
  8
DETAIL
  6
CONTINUOUS
 62
     5
 10
59.421762658522987
 20
-156.8757410705762
 30
0.0
 11
54.446119394527393
 21
-165.34005374955751
 31
0.0
  0
LINE
  8
DETAIL
  6
CONTINUOUS
 62
     5
 10
54.446119394527393
 20
-165.34005374955751
 30
0.0
 11
48.441032696601503
 21
-173.06087950403321
 31
0.0
  0
LINE
  8
DETAIL
  6
CONTINUOUS
 62
     5
 10
48.441032696601503
 20
-173.06087950403321
 30
0.0
 11
41.120546055320567
 21
-179.63787922080931
 31
0.0
  0
LINE
  8
DETAIL
  6
CONTINUOUS
 62
     5
 10
41.120546055320567
 20
-179.63787922080931
 30
0.0
 11
32.942189885764492
 21
-185.35700940931011
 31
0.0
  0
LINE
  8
DETAIL
  6
CONTINUOUS
 62
     5
 10
32.942189885764492
 20
-185.35700940931011
 30
0.0
 11
24.249111999243269
 21
-189.64635705068579
 31
0.0
  0
LINE
  8
DETAIL
  6
CONTINUOUS
 62
     5
 10
24.249111999243269
 20
-189.64635705068579
 30
0.0
 11
14.75535588633193
 21
-192.3343482392811
 31
0.0
  0
LINE
  8
DETAIL
  6
CONTINUOUS
 62
     5
 10
14.75535588633193
 20
-192.3343482392811
 30
0.0
 11
4.9756432639956074
 21
-193.82132208829131
 31
0.0
  0
LINE
  8
DETAIL
  6
CONTINUOUS
 62
     5
 10
4.9756432639956074
 20
-193.82132208829131
 30
0.0
 11
-5.0328345658808757
 21
-193.82132208829131
 31
0.0
  0
LINE
  8
DETAIL
  6
CONTINUOUS
 62
     5
 10
-5.0328345658808757
 20
-193.82132208829131
 30
0.0
 11
-14.812547188216969
 21
-192.3343482392811
 31
0.0
  0
LINE
  8
DETAIL
  6
CONTINUOUS
 62
     5
 10
-14.812547188216969
 20
-192.3343482392811
 30
0.0
 11
-24.020346791703329
 21
-189.64635705068579
 31
0.0
  0
LINE
  8
DETAIL
  6
CONTINUOUS
 62
     5
 10
-24.020346791703329
 20
-189.64635705068579
 30
0.0
 11
-32.999381187649313
 21
-185.35700940931011
 31
0.0
  0
LINE
  8
DETAIL
  6
CONTINUOUS
 62
     5
 10
-32.999381187649313
 20
-185.35700940931011
 30
0.0
 11
-41.006163451550492
 21
-179.63787922080931
 31
0.0
  0
LINE
  8
DETAIL
  6
CONTINUOUS
 62
     5
 10
-41.006163451550492
 20
-179.63787922080931
 30
0.0
 11
-48.155076187176519
 21
-173.06087950403321
 31
0.0
  0
LINE
  8
DETAIL
  6
CONTINUOUS
 62
     5
 10
-48.155076187176519
 20
-173.06087950403321
 30
0.0
 11
-54.503310696412427
 21
-165.34005374955751
 31
0.0
  0
LINE
  8
DETAIL
  6
CONTINUOUS
 62
     5
 10
-54.503310696412427
 20
-165.34005374955751
 30
0.0
 11
-59.47895396040802
 21
-156.8757410705762
 31
0.0
  0
LINE
  8
DETAIL
  6
CONTINUOUS
 62
     5
 10
-59.47895396040802
 20
-156.8757410705762
 30
0.0
 11
-62.9676233753936
 21
-147.66794146709
 31
0.0
  0
LINE
  8
DETAIL
  6
CONTINUOUS
 62
     5
 10
-62.9676233753936
 20
-147.66794146709
 30
0.0
 11
-65.140892847023906
 21
-137.88822884475371
 31
0.0
  0
LINE
  8
DETAIL
  6
CONTINUOUS
 62
     5
 10
-65.140892847023906
 20
-137.88822884475371
 30
0.0
 11
-65.941571073413797
 21
-128.16570752430241
 31
0.0
  0
LINE
  8
DETAIL
  6
CONTINUOUS
 62
     5
 10
-79.95344003524086
 20
-128.16570752430241
 30
0.0
 11
-79.267144412620837
 21
-118.3859949019659
 31
0.0
  0
LINE
  8
DETAIL
  6
CONTINUOUS
 62
     5
 10
-79.267144412620837
 20
-118.3859949019659
 30
0.0
 11
-77.437022752300436
 21
-108.6062822796298
 31
0.0
  0
LINE
  8
DETAIL
  6
CONTINUOUS
 62
     5
 10
-77.437022752300436
 20
-108.6062822796298
 30
0.0
 11
-74.463075054280125
 21
-99.226908770488507
 31
0.0
  0
LINE
  8
DETAIL
  6
CONTINUOUS
 62
     5
 10
-74.463075054280125
 20
-99.226908770488507
 30
0.0
 11
-70.459683922329532
 21
-90.419448280197429
 31
0.0
  0
LINE
  8
DETAIL
  6
CONTINUOUS
 62
     5
 10
-70.459683922329532
 20
-90.419448280197429
 30
0.0
 11
-65.140892847023906
 21
-81.897944299331357
 31
0.0
  0
LINE
  8
DETAIL
  6
CONTINUOUS
 62
     5
 10
-65.140892847023906
 20
-81.897944299331357
 30
0.0
 11
-58.964232243442893
 21
-74.234309846739961
 31
0.0
  0
LINE
  8
DETAIL
  6
CONTINUOUS
 62
     5
 10
-58.964232243442893
 20
-74.234309846739961
 30
0.0
 11
-51.986893413471989
 21
-67.42854492242418
 31
0.0
  0
LINE
  8
DETAIL
  6
CONTINUOUS
 62
     5
 10
-51.986893413471989
 20
-67.42854492242418
 30
0.0
 11
-44.266067658996008
 21
-61.42345822449829
 31
0.0
  0
LINE
  8
DETAIL
  6
CONTINUOUS
 62
     5
 10
-44.266067658996008
 20
-61.42345822449829
 30
0.0
 11
-35.515798470589743
 21
-56.733771469927888
 31
0.0
  0
LINE
  8
DETAIL
  6
CONTINUOUS
 62
     5
 10
-35.515798470589743
 20
-56.733771469927888
 30
0.0
 11
-26.479572772758619
 21
-52.730380337977287
 31
0.0
  0
LINE
  8
DETAIL
  6
CONTINUOUS
 62
     5
 10
-26.479572772758619
 20
-52.730380337977287
 30
0.0
 11
-16.98581665984727
 21
-49.928006545611652
 31
0.0
  0
LINE
  8
DETAIL
  6
CONTINUOUS
 62
     5
 10
-16.98581665984727
 20
-49.928006545611652
 30
0.0
 11
-7.3204866412809224
 21
-48.441032696601717
 31
0.0
  0
LINE
  8
DETAIL
  6
CONTINUOUS
 62
     5
 10
-7.3204866412809224
 20
-48.441032696601717
 30
0.0
 11
2.4592259810553969
 21
-48.269458790946828
 31
0.0
  0
LINE
  8
DETAIL
  6
CONTINUOUS
 62
     5
 10
2.4592259810553969
 20
-48.269458790946828
 30
0.0
 11
12.238938603391601
 21
-49.241710922991622
 31
0.0
  0
LINE
  8
DETAIL
  6
CONTINUOUS
 62
     5
 10
12.238938603391601
 20
-49.241710922991622
 30
0.0
 11
21.961459923842771
 21
-51.12902388519683
 31
0.0
  0
LINE
  8
DETAIL
  6
CONTINUOUS
 62
     5
 10
21.961459923842771
 20
-51.12902388519683
 30
0.0
 11
31.169259527329132
 21
-54.446119394527393
 31
0.0
  0
LINE
  8
DETAIL
  6
CONTINUOUS
 62
     5
 10
31.169259527329132
 20
-54.446119394527393
 30
0.0
 11
39.919528715735403
 21
-58.964232243443121
 31
0.0
  0
LINE
  8
DETAIL
  6
CONTINUOUS
 62
     5
 10
39.919528715735403
 20
-58.964232243443121
 30
0.0
 11
48.155076187176519
 21
-64.454597224403869
 31
0.0
  0
LINE
  8
DETAIL
  6
CONTINUOUS
 62
     5
 10
48.155076187176519
 20
-64.454597224403869
 30
0.0
 11
55.647136734112557
 21
-70.745640431754737
 31
0.0
  0
LINE
  8
DETAIL
  6
CONTINUOUS
 62
     5
 10
55.647136734112557
 20
-70.745640431754737
 30
0.0
 11
62.224136450888409
 21
-77.951744469265577
 31
0.0
  0
LINE
  8
DETAIL
  6
CONTINUOUS
 62
     5
 10
62.224136450888409
 20
-77.951744469265577
 30
0.0
 11
67.943266639389094
 21
-86.130100638821659
 31
0.0
  0
LINE
  8
DETAIL
  6
CONTINUOUS
 62
     5
 10
67.943266639389094
 20
-86.130100638821659
 30
0.0
 11
72.632953393959951
 21
-94.594413317802719
 31
0.0
  0
LINE
  8
DETAIL
  6
CONTINUOUS
 62
     5
 10
72.632953393959951
 20
-94.594413317802719
 30
0.0
 11
76.121622808945176
 21
-103.9165955250589
 31
0.0
  0
LINE
  8
DETAIL
  6
CONTINUOUS
 62
     5
 10
76.121622808945176
 20
-103.9165955250589
 30
0.0
 11
78.580848790000687
 21
-113.41035163797029
 31
0.0
  0
LINE
  8
DETAIL
  6
CONTINUOUS
 62
     5
 10
78.580848790000687
 20
-113.41035163797029
 30
0.0
 11
79.896248733355833
 21
-123.1900642603068
 31
0.0
  0
LINE
  8
DETAIL
  6
CONTINUOUS
 62
     5
 10
79.896248733355833
 20
-123.1900642603068
 30
0.0
 11
79.896248733355833
 21
-133.19854209018311
 31
0.0
  0
LINE
  8
DETAIL
  6
CONTINUOUS
 62
     5
 10
79.896248733355833
 20
-133.19854209018311
 30
0.0
 11
78.580848790000687
 21
-142.86387210874909
 31
0.0
  0
LINE
  8
DETAIL
  6
CONTINUOUS
 62
     5
 10
78.580848790000687
 20
-142.86387210874909
 30
0.0
 11
76.121622808945176
 21
-152.35762822166041
 31
0.0
  0
LINE
  8
DETAIL
  6
CONTINUOUS
 62
     5
 10
76.121622808945176
 20
-152.35762822166041
 30
0.0
 11
72.632953393959951
 21
-161.67981042891691
 31
0.0
  0
LINE
  8
DETAIL
  6
CONTINUOUS
 62
     5
 10
72.632953393959951
 20
-161.67981042891691
 30
0.0
 11
67.943266639389094
 21
-170.3728883154381
 31
0.0
  0
LINE
  8
DETAIL
  6
CONTINUOUS
 62
     5
 10
67.943266639389094
 20
-170.3728883154381
 30
0.0
 11
62.224136450888409
 21
-178.32247927745419
 31
0.0
  0
LINE
  8
DETAIL
  6
CONTINUOUS
 62
     5
 10
62.224136450888409
 20
-178.32247927745419
 30
0.0
 11
55.647136734112557
 21
-185.52858331496509
 31
0.0
  0
LINE
  8
DETAIL
  6
CONTINUOUS
 62
     5
 10
55.647136734112557
 20
-185.52858331496509
 30
0.0
 11
48.155076187176519
 21
-191.81962652231601
 31
0.0
  0
LINE
  8
DETAIL
  6
CONTINUOUS
 62
     5
 10
48.155076187176519
 20
-191.81962652231601
 30
0.0
 11
39.919528715735403
 21
-197.30999150327671
 31
0.0
  0
LINE
  8
DETAIL
  6
CONTINUOUS
 62
     5
 10
39.919528715735403
 20
-197.30999150327671
 30
0.0
 11
31.169259527329132
 21
-201.82810435219241
 31
0.0
  0
LINE
  8
DETAIL
  6
CONTINUOUS
 62
     5
 10
31.169259527329132
 20
-201.82810435219241
 30
0.0
 11
21.961459923842771
 21
-205.0880085596377
 31
0.0
  0
LINE
  8
DETAIL
  6
CONTINUOUS
 62
     5
 10
21.961459923842771
 20
-205.0880085596377
 30
0.0
 11
12.238938603391601
 21
-207.089704125613
 31
0.0
  0
LINE
  8
DETAIL
  6
CONTINUOUS
 62
     5
 10
12.238938603391601
 20
-207.089704125613
 30
0.0
 11
2.4592259810553969
 21
-208.004764955773
 31
0.0
  0
LINE
  8
DETAIL
  6
CONTINUOUS
 62
     5
 10
2.4592259810553969
 20
-208.004764955773
 30
0.0
 11
-7.3204866412809224
 21
-207.8331910501181
 31
0.0
  0
LINE
  8
DETAIL
  6
CONTINUOUS
 62
     5
 10
-7.3204866412809224
 20
-207.8331910501181
 30
0.0
 11
-16.98581665984727
 21
-206.28902589922291
 31
0.0
  0
LINE
  8
DETAIL
  6
CONTINUOUS
 62
     5
 10
-16.98581665984727
 20
-206.28902589922291
 30
0.0
 11
-26.479572772758619
 21
-203.5438434087425
 31
0.0
  0
LINE
  8
DETAIL
  6
CONTINUOUS
 62
     5
 10
-26.479572772758619
 20
-203.5438434087425
 30
0.0
 11
-35.515798470589743
 21
-199.82640878621709
 31
0.0
  0
LINE
  8
DETAIL
  6
CONTINUOUS
 62
     5
 10
-35.515798470589743
 20
-199.82640878621709
 30
0.0
 11
-44.266067658996008
 21
-194.85076552222151
 31
0.0
  0
LINE
  8
DETAIL
  6
CONTINUOUS
 62
     5
 10
-44.266067658996008
 20
-194.85076552222151
 30
0.0
 11
-51.986893413471989
 21
-188.84567882429559
 31
0.0
  0
LINE
  8
DETAIL
  6
CONTINUOUS
 62
     5
 10
-51.986893413471989
 20
-188.84567882429559
 30
0.0
 11
-58.964232243442893
 21
-182.15429650374969
 31
0.0
  0
LINE
  8
DETAIL
  6
CONTINUOUS
 62
     5
 10
-58.964232243442893
 20
-182.15429650374969
 30
0.0
 11
-65.140892847023906
 21
-174.31908814550371
 31
0.0
  0
LINE
  8
DETAIL
  6
CONTINUOUS
 62
     5
 10
-65.140892847023906
 20
-174.31908814550371
 30
0.0
 11
-70.459683922329532
 21
-165.8547754665224
 31
0.0
  0
LINE
  8
DETAIL
  6
CONTINUOUS
 62
     5
 10
-70.459683922329532
 20
-165.8547754665224
 30
0.0
 11
-74.463075054280125
 21
-157.04731497623129
 31
0.0
  0
LINE
  8
DETAIL
  6
CONTINUOUS
 62
     5
 10
-74.463075054280125
 20
-157.04731497623129
 30
0.0
 11
-77.437022752300436
 21
-147.66794146709
 31
0.0
  0
LINE
  8
DETAIL
  6
CONTINUOUS
 62
     5
 10
-77.437022752300436
 20
-147.66794146709
 30
0.0
 11
-79.267144412620837
 21
-137.88822884475371
 31
0.0
  0
LINE
  8
DETAIL
  6
CONTINUOUS
 62
     5
 10
-79.267144412620837
 20
-137.88822884475371
 30
0.0
 11
-79.95344003524086
 21
-128.16570752430241
 31
0.0
  0
LINE
  8
DETAIL
  6
CONTINUOUS
 62
     5
 10
83.899639865306312
 20
-160.36441048556179
 30
0.0
 11
83.899639865306312
 21
-95.90981326115795
 31
0.0
  0
LINE
  8
DETAIL
  6
CONTINUOUS
 62
     5
 10
-83.956831167191339
 20
-95.90981326115795
 30
0.0
 11
-80.468161752205901
 21
-87.903030997257019
 31
0.0
  0
LINE
  8
DETAIL
  6
CONTINUOUS
 62
     5
 10
-80.468161752205901
 20
-87.903030997257019
 30
0.0
 11
-75.950048903290153
 21
-80.239396544666079
 31
0.0
  0
LINE
  8
DETAIL
  6
CONTINUOUS
 62
     5
 10
-75.950048903290153
 20
-80.239396544666079
 30
0.0
 11
-70.974405639294673
 21
-72.918909903384929
 31
0.0
  0
LINE
  8
DETAIL
  6
CONTINUOUS
 62
     5
 10
-70.974405639294673
 20
-72.918909903384929
 30
0.0
 11
-65.140892847023906
 21
-66.456292790379166
 31
0.0
  0
LINE
  8
DETAIL
  6
CONTINUOUS
 62
     5
 10
-83.956831167191339
 20
-160.36441048556179
 30
0.0
 11
-83.956831167191339
 21
-95.90981326115795
 31
0.0
  0
LINE
  8
DETAIL
  6
CONTINUOUS
 62
     5
 10
83.899639865306312
 20
-160.36441048556179
 30
0.0
 11
80.410970450320747
 21
-168.37119274946281
 31
0.0
  0
LINE
  8
DETAIL
  6
CONTINUOUS
 62
     5
 10
80.410970450320747
 20
-168.37119274946281
 30
0.0
 11
76.121622808945176
 21
-176.034827202054
 31
0.0
  0
LINE
  8
DETAIL
  6
CONTINUOUS
 62
     5
 10
76.121622808945176
 20
-176.034827202054
 30
0.0
 11
71.088788243064755
 21
-183.3553138433349
 31
0.0
  0
LINE
  8
DETAIL
  6
CONTINUOUS
 62
     5
 10
71.088788243064755
 20
-183.3553138433349
 30
0.0
 11
65.426849356448656
 21
-189.81793095634069
 31
0.0
  0
LINE
  8
DETAIL
  6
CONTINUOUS
 62
     5
 10
74.234309846739961
 20
-79.438718318275733
 30
0.0
 11
74.405883752394971
 21
-79.438718318275733
 31
0.0
  0
LINE
  8
DETAIL
  6
CONTINUOUS
 62
     5
 10
74.691840261820062
 20
-77.951744469265577
 30
0.0
 11
74.920605469359998
 21
-78.409274884345649
 31
0.0
  0
LINE
  8
DETAIL
  6
CONTINUOUS
 62
     5
 10
74.920605469359998
 20
-78.409274884345649
 30
0.0
 11
74.920605469359998
 21
-78.638040091885841
 31
0.0
  0
LINE
  8
DETAIL
  6
CONTINUOUS
 62
     5
 10
74.920605469359998
 20
-78.638040091885841
 30
0.0
 11
74.691840261820062
 21
-78.923996601310819
 31
0.0
  0
LINE
  8
DETAIL
  6
CONTINUOUS
 62
     5
 10
74.691840261820062
 20
-78.923996601310819
 30
0.0
 11
74.691840261820062
 21
-79.209953110735796
 31
0.0
  0
LINE
  8
DETAIL
  6
CONTINUOUS
 62
     5
 10
74.691840261820062
 20
-79.209953110735796
 30
0.0
 11
74.405883752394971
 21
-79.438718318275733
 31
0.0
  0
LINE
  8
DETAIL
  6
CONTINUOUS
 62
     5
 10
74.405883752394971
 20
-81.440413884251058
 30
0.0
 11
74.234309846739961
 21
-81.097266072941011
 31
0.0
  0
LINE
  8
DETAIL
  6
CONTINUOUS
 62
     5
 10
74.234309846739961
 20
-81.097266072941011
 30
0.0
 11
73.891162035429943
 21
-80.925692167286115
 31
0.0
  0
LINE
  8
DETAIL
  6
CONTINUOUS
 62
     5
 10
73.891162035429943
 20
-80.925692167286115
 30
0.0
 11
73.891162035429943
 21
-80.696926959746179
 31
0.0
  0
LINE
  8
DETAIL
  6
CONTINUOUS
 62
     5
 10
73.891162035429943
 20
-80.696926959746179
 30
0.0
 11
73.605205526004966
 21
-80.410970450320974
 31
0.0
  0
LINE
  8
DETAIL
  6
CONTINUOUS
 62
     5
 10
73.605205526004966
 20
-80.410970450320974
 30
0.0
 11
73.891162035429943
 21
-79.896248733355804
 31
0.0
  0
LINE
  8
DETAIL
  6
CONTINUOUS
 62
     5
 10
73.891162035429943
 20
-79.896248733355804
 30
0.0
 11
73.891162035429943
 21
-79.610292223930855
 31
0.0
  0
LINE
  8
DETAIL
  6
CONTINUOUS
 62
     5
 10
73.891162035429943
 20
-79.610292223930855
 30
0.0
 11
74.234309846739961
 21
-79.438718318275733
 31
0.0
  0
LINE
  8
DETAIL
  6
CONTINUOUS
 62
     5
 10
74.405883752394971
 20
-81.440413884251058
 30
0.0
 11
77.894553167380536
 21
-86.930778865211778
 31
0.0
  0
LINE
  8
DETAIL
  6
CONTINUOUS
 62
     5
 10
79.381527016390692
 20
-88.188987506681997
 30
0.0
 11
79.72467482770071
 21
-87.903030997257019
 31
0.0
  0
LINE
  8
DETAIL
  6
CONTINUOUS
 62
     5
 10
79.72467482770071
 20
-87.903030997257019
 30
0.0
 11
79.896248733355833
 21
-87.903030997257019
 31
0.0
  0
LINE
  8
DETAIL
  6
CONTINUOUS
 62
     5
 10
79.896248733355833
 20
-87.903030997257019
 30
0.0
 11
80.410970450320747
 21
-88.188987506681997
 31
0.0
  0
LINE
  8
DETAIL
  6
CONTINUOUS
 62
     5
 10
80.410970450320747
 20
-88.188987506681997
 30
0.0
 11
80.58254435597587
 21
-88.188987506681997
 31
0.0
  0
LINE
  8
DETAIL
  6
CONTINUOUS
 62
     5
 10
80.58254435597587
 20
-88.188987506681997
 30
0.0
 11
80.58254435597587
 21
-88.417752714221933
 31
0.0
  0
LINE
  8
DETAIL
  6
CONTINUOUS
 62
     5
 10
79.209953110735682
 20
-88.188987506681997
 30
0.0
 11
78.923996601310705
 21
-88.188987506681997
 31
0.0
  0
LINE
  8
DETAIL
  6
CONTINUOUS
 62
     5
 10
78.923996601310705
 20
-88.188987506681997
 30
0.0
 11
78.580848790000687
 21
-88.188987506681997
 31
0.0
  0
LINE
  8
DETAIL
  6
CONTINUOUS
 62
     5
 10
78.580848790000687
 20
-88.188987506681997
 30
0.0
 11
78.409274884345677
 21
-88.188987506681997
 31
0.0
  0
LINE
  8
DETAIL
  6
CONTINUOUS
 62
     5
 10
78.409274884345677
 20
-88.188987506681997
 30
0.0
 11
77.894553167380536
 21
-87.903030997257019
 31
0.0
  0
LINE
  8
DETAIL
  6
CONTINUOUS
 62
     5
 10
77.894553167380536
 20
-87.903030997257019
 30
0.0
 11
77.894553167380536
 21
-87.731457091601897
 31
0.0
  0
LINE
  8
DETAIL
  6
CONTINUOUS
 62
     5
 10
77.894553167380536
 20
-87.731457091601897
 30
0.0
 11
77.608596657955445
 21
-87.388309280291878
 31
0.0
  0
LINE
  8
DETAIL
  6
CONTINUOUS
 62
     5
 10
77.608596657955445
 20
-87.388309280291878
 30
0.0
 11
77.894553167380536
 21
-86.930778865211778
 31
0.0
  0
LINE
  8
DETAIL
  6
CONTINUOUS
 62
     5
 10
79.209953110735682
 20
-88.188987506681997
 30
0.0
 11
79.381527016390692
 21
-88.188987506681997
 31
0.0
  0
LINE
  8
DETAIL
  6
CONTINUOUS
 62
     5
 10
-48.784180507911508
 20
-53.931397677562472
 30
0.0
 11
-48.784180507911508
 21
-53.645441168137268
 31
0.0
  0
LINE
  8
DETAIL
  6
CONTINUOUS
 62
     5
 10
-49.985197847496693
 20
-53.416675960597331
 30
0.0
 11
-49.756432639956763
 21
-53.416675960597331
 31
0.0
  0
LINE
  8
DETAIL
  6
CONTINUOUS
 62
     5
 10
-49.756432639956763
 20
-53.416675960597331
 30
0.0
 11
-49.470476130531551
 21
-53.245102054942208
 31
0.0
  0
LINE
  8
DETAIL
  6
CONTINUOUS
 62
     5
 10
-49.470476130531551
 20
-53.245102054942208
 30
0.0
 11
-49.298902224876663
 21
-53.416675960597331
 31
0.0
  0
LINE
  8
DETAIL
  6
CONTINUOUS
 62
     5
 10
-49.298902224876663
 20
-53.416675960597331
 30
0.0
 11
-48.955754413566517
 21
-53.416675960597331
 31
0.0
  0
LINE
  8
DETAIL
  6
CONTINUOUS
 62
     5
 10
-48.955754413566517
 20
-53.416675960597331
 30
0.0
 11
-48.784180507911508
 21
-53.645441168137268
 31
0.0
  0
LINE
  8
DETAIL
  6
CONTINUOUS
 62
     5
 10
-46.782484941936332
 20
-53.645441168137268
 30
0.0
 11
-47.011250149476382
 21
-53.931397677562472
 31
0.0
  0
LINE
  8
DETAIL
  6
CONTINUOUS
 62
     5
 10
-47.011250149476382
 20
-53.931397677562472
 30
0.0
 11
-47.297206658901359
 21
-54.217354186987222
 31
0.0
  0
LINE
  8
DETAIL
  6
CONTINUOUS
 62
     5
 10
-47.297206658901359
 20
-54.217354186987222
 30
0.0
 11
-47.468780564556482
 21
-54.446119394527393
 31
0.0
  0
LINE
  8
DETAIL
  6
CONTINUOUS
 62
     5
 10
-47.468780564556482
 20
-54.446119394527393
 30
0.0
 11
-47.697545772096419
 21
-54.446119394527393
 31
0.0
  0
LINE
  8
DETAIL
  6
CONTINUOUS
 62
     5
 10
-47.697545772096419
 20
-54.446119394527393
 30
0.0
 11
-48.155076187176519
 21
-54.446119394527393
 31
0.0
  0
LINE
  8
DETAIL
  6
CONTINUOUS
 62
     5
 10
-48.155076187176519
 20
-54.446119394527393
 30
0.0
 11
-48.498223998486537
 21
-54.217354186987222
 31
0.0
  0
LINE
  8
DETAIL
  6
CONTINUOUS
 62
     5
 10
-48.498223998486537
 20
-54.217354186987222
 30
0.0
 11
-48.784180507911508
 21
-53.931397677562472
 31
0.0
  0
LINE
  8
DETAIL
  6
CONTINUOUS
 62
     5
 10
-46.782484941936332
 20
-53.645441168137268
 30
0.0
 11
-41.006163451550492
 21
-50.442728262576793
 31
0.0
  0
LINE
  8
DETAIL
  6
CONTINUOUS
 62
     5
 10
-39.976720017620437
 20
-48.66979790414166
 30
0.0
 11
-40.205485225160487
 21
-48.441032696601717
 31
0.0
  0
LINE
  8
DETAIL
  6
CONTINUOUS
 62
     5
 10
-40.205485225160487
 20
-48.441032696601717
 30
0.0
 11
-40.205485225160487
 21
-48.269458790946828
 31
0.0
  0
LINE
  8
DETAIL
  6
CONTINUOUS
 62
     5
 10
-40.205485225160487
 20
-48.269458790946828
 30
0.0
 11
-39.976720017620437
 21
-47.926310979636582
 31
0.0
  0
LINE
  8
DETAIL
  6
CONTINUOUS
 62
     5
 10
-39.976720017620437
 20
-47.926310979636582
 30
0.0
 11
-39.805146111965428
 21
-47.754737073981687
 31
0.0
  0
LINE
  8
DETAIL
  6
CONTINUOUS
 62
     5
 10
-39.805146111965428
 20
-47.754737073981687
 30
0.0
 11
-39.51918960254045
 21
-47.468780564556482
 31
0.0
  0
LINE
  8
DETAIL
  6
CONTINUOUS
 62
     5
 10
-39.976720017620437
 20
-48.955754413566858
 30
0.0
 11
-39.805146111965428
 21
-49.241710922991622
 31
0.0
  0
LINE
  8
DETAIL
  6
CONTINUOUS
 62
     5
 10
-39.805146111965428
 20
-49.241710922991622
 30
0.0
 11
-39.805146111965428
 21
-49.470476130531779
 31
0.0
  0
LINE
  8
DETAIL
  6
CONTINUOUS
 62
     5
 10
-39.805146111965428
 20
-49.470476130531779
 30
0.0
 11
-39.976720017620437
 21
-49.928006545611652
 31
0.0
  0
LINE
  8
DETAIL
  6
CONTINUOUS
 62
     5
 10
-39.976720017620437
 20
-49.928006545611652
 30
0.0
 11
-40.205485225160487
 21
-50.27115435692167
 31
0.0
  0
LINE
  8
DETAIL
  6
CONTINUOUS
 62
     5
 10
-40.205485225160487
 20
-50.27115435692167
 30
0.0
 11
-40.491441734585578
 21
-50.27115435692167
 31
0.0
  0
LINE
  8
DETAIL
  6
CONTINUOUS
 62
     5
 10
-40.491441734585578
 20
-50.27115435692167
 30
0.0
 11
-40.663015640240467
 21
-50.442728262576793
 31
0.0
  0
LINE
  8
DETAIL
  6
CONTINUOUS
 62
     5
 10
-40.663015640240467
 20
-50.442728262576793
 30
0.0
 11
-41.006163451550492
 21
-50.442728262576793
 31
0.0
  0
LINE
  8
DETAIL
  6
CONTINUOUS
 62
     5
 10
-39.976720017620437
 20
-48.955754413566858
 30
0.0
 11
-39.976720017620437
 21
-48.66979790414166
 31
0.0
  0
LINE
  8
DETAIL
  6
CONTINUOUS
 62
     5
 10
-74.749031563705088
 20
-178.32247927745419
 30
0.0
 11
-74.749031563705088
 21
-177.86494886237409
 31
0.0
  0
LINE
  8
DETAIL
  6
CONTINUOUS
 62
     5
 10
-74.749031563705088
 20
-177.86494886237409
 30
0.0
 11
-74.749031563705088
 21
-177.63618365483421
 31
0.0
  0
LINE
  8
DETAIL
  6
CONTINUOUS
 62
     5
 10
-74.749031563705088
 20
-177.63618365483421
 30
0.0
 11
-74.749031563705088
 21
-177.35022714540901
 31
0.0
  0
LINE
  8
DETAIL
  6
CONTINUOUS
 62
     5
 10
-74.749031563705088
 20
-177.35022714540901
 30
0.0
 11
-74.463075054280125
 21
-177.12146193786879
 31
0.0
  0
LINE
  8
DETAIL
  6
CONTINUOUS
 62
     5
 10
-74.463075054280125
 20
-177.12146193786879
 30
0.0
 11
-74.234309846739976
 21
-176.83550542844409
 31
0.0
  0
LINE
  8
DETAIL
  6
CONTINUOUS
 62
     5
 10
-74.463075054280125
 20
-174.8338098624688
 30
0.0
 11
-74.234309846739976
 21
-175.1197663718938
 31
0.0
  0
LINE
  8
DETAIL
  6
CONTINUOUS
 62
     5
 10
-74.234309846739976
 20
-175.1197663718938
 30
0.0
 11
-73.948353337314984
 21
-175.34853157943371
 31
0.0
  0
LINE
  8
DETAIL
  6
CONTINUOUS
 62
     5
 10
-73.948353337314984
 20
-175.34853157943371
 30
0.0
 11
-73.776779431659961
 21
-175.52010548508881
 31
0.0
  0
LINE
  8
DETAIL
  6
CONTINUOUS
 62
     5
 10
-73.776779431659961
 20
-175.52010548508881
 30
0.0
 11
-73.776779431659961
 21
-175.86325329639891
 31
0.0
  0
LINE
  8
DETAIL
  6
CONTINUOUS
 62
     5
 10
-73.776779431659961
 20
-175.86325329639891
 30
0.0
 11
-73.776779431659961
 21
-176.32078371147901
 31
0.0
  0
LINE
  8
DETAIL
  6
CONTINUOUS
 62
     5
 10
-73.776779431659961
 20
-176.32078371147901
 30
0.0
 11
-73.948353337314984
 21
-176.663931522789
 31
0.0
  0
LINE
  8
DETAIL
  6
CONTINUOUS
 62
     5
 10
-73.948353337314984
 20
-176.663931522789
 30
0.0
 11
-74.234309846739976
 21
-176.83550542844409
 31
0.0
  0
LINE
  8
DETAIL
  6
CONTINUOUS
 62
     5
 10
-74.463075054280125
 20
-174.8338098624688
 30
0.0
 11
-77.6657879598406
 21
-169.34344488150799
 31
0.0
  0
LINE
  8
DETAIL
  6
CONTINUOUS
 62
     5
 10
-79.267144412620837
 20
-168.1424275419229
 30
0.0
 11
-79.78186612958585
 21
-168.37119274946281
 31
0.0
  0
LINE
  8
DETAIL
  6
CONTINUOUS
 62
     5
 10
-79.78186612958585
 20
-168.37119274946281
 30
0.0
 11
-79.95344003524086
 21
-168.37119274946281
 31
0.0
  0
LINE
  8
DETAIL
  6
CONTINUOUS
 62
     5
 10
-79.95344003524086
 20
-168.37119274946281
 30
0.0
 11
-80.18220524278081
 21
-168.1424275419229
 31
0.0
  0
LINE
  8
DETAIL
  6
CONTINUOUS
 62
     5
 10
-80.18220524278081
 20
-168.1424275419229
 30
0.0
 11
-80.468161752205901
 21
-168.1424275419229
 31
0.0
  0
LINE
  8
DETAIL
  6
CONTINUOUS
 62
     5
 10
-80.468161752205901
 20
-168.1424275419229
 30
0.0
 11
-80.639735657860911
 21
-167.85647103249789
 31
0.0
  0
LINE
  8
DETAIL
  6
CONTINUOUS
 62
     5
 10
-79.267144412620837
 20
-168.1424275419229
 30
0.0
 11
-78.981187903195632
 21
-168.1424275419229
 31
0.0
  0
LINE
  8
DETAIL
  6
CONTINUOUS
 62
     5
 10
-78.981187903195632
 20
-168.1424275419229
 30
0.0
 11
-78.752422695655696
 21
-168.1424275419229
 31
0.0
  0
LINE
  8
DETAIL
  6
CONTINUOUS
 62
     5
 10
-78.752422695655696
 20
-168.1424275419229
 30
0.0
 11
-78.180509676805627
 21
-168.1424275419229
 31
0.0
  0
LINE
  8
DETAIL
  6
CONTINUOUS
 62
     5
 10
-78.180509676805627
 20
-168.1424275419229
 30
0.0
 11
-77.951744469265563
 21
-168.37119274946281
 31
0.0
  0
LINE
  8
DETAIL
  6
CONTINUOUS
 62
     5
 10
-77.951744469265563
 20
-168.37119274946281
 30
0.0
 11
-77.6657879598406
 21
-168.5427666551179
 31
0.0
  0
LINE
  8
DETAIL
  6
CONTINUOUS
 62
     5
 10
-77.6657879598406
 20
-168.5427666551179
 30
0.0
 11
-77.6657879598406
 21
-168.82872316454291
 31
0.0
  0
LINE
  8
DETAIL
  6
CONTINUOUS
 62
     5
 10
-77.6657879598406
 20
-168.82872316454291
 30
0.0
 11
-77.6657879598406
 21
-169.34344488150799
 31
0.0
  0
LINE
  8
DETAIL
  6
CONTINUOUS
 62
     5
 10
46.954058847591341
 20
-202.62878257858259
 30
0.0
 11
46.954058847591341
 21
-202.34282606915741
 31
0.0
  0
LINE
  8
DETAIL
  6
CONTINUOUS
 62
     5
 10
46.954058847591341
 20
-202.34282606915741
 30
0.0
 11
47.240015357016318
 21
-202.11406086161739
 31
0.0
  0
LINE
  8
DETAIL
  6
CONTINUOUS
 62
     5
 10
47.240015357016318
 20
-202.11406086161739
 30
0.0
 11
47.411589262671328
 21
-202.11406086161739
 31
0.0
  0
LINE
  8
DETAIL
  6
CONTINUOUS
 62
     5
 10
47.411589262671328
 20
-202.11406086161739
 30
0.0
 11
47.926310979636362
 21
-201.82810435219241
 31
0.0
  0
LINE
  8
DETAIL
  6
CONTINUOUS
 62
     5
 10
47.926310979636362
 20
-201.82810435219241
 30
0.0
 11
48.155076187176519
 21
-202.11406086161739
 31
0.0
  0
LINE
  8
DETAIL
  6
CONTINUOUS
 62
     5
 10
48.155076187176519
 20
-202.11406086161739
 30
0.0
 11
48.441032696601503
 21
-202.11406086161739
 31
0.0
  0
LINE
  8
DETAIL
  6
CONTINUOUS
 62
     5
 10
48.441032696601503
 20
-202.11406086161739
 30
0.0
 11
48.612606602256392
 21
-202.34282606915741
 31
0.0
  0
LINE
  8
DETAIL
  6
CONTINUOUS
 62
     5
 10
48.612606602256392
 20
-202.34282606915741
 30
0.0
 11
48.612606602256392
 21
-202.62878257858259
 31
0.0
  0
LINE
  8
DETAIL
  6
CONTINUOUS
 62
     5
 10
50.156771753151823
 20
-202.80035648423771
 30
0.0
 11
49.928006545611652
 21
-203.02912169177759
 31
0.0
  0
LINE
  8
DETAIL
  6
CONTINUOUS
 62
     5
 10
49.928006545611652
 20
-203.02912169177759
 30
0.0
 11
49.413284828646738
 21
-203.02912169177759
 31
0.0
  0
LINE
  8
DETAIL
  6
CONTINUOUS
 62
     5
 10
49.413284828646738
 20
-203.02912169177759
 30
0.0
 11
49.241710922991622
 21
-202.80035648423771
 31
0.0
  0
LINE
  8
DETAIL
  6
CONTINUOUS
 62
     5
 10
49.241710922991622
 20
-202.80035648423771
 30
0.0
 11
48.955754413566517
 21
-202.80035648423771
 31
0.0
  0
LINE
  8
DETAIL
  6
CONTINUOUS
 62
     5
 10
48.955754413566517
 20
-202.80035648423771
 30
0.0
 11
48.612606602256392
 21
-202.62878257858259
 31
0.0
  0
LINE
  8
DETAIL
  6
CONTINUOUS
 62
     5
 10
39.919528715735403
 20
-207.60442584257819
 30
0.0
 11
40.148293923275453
 21
-207.8331910501181
 31
0.0
  0
LINE
  8
DETAIL
  6
CONTINUOUS
 62
     5
 10
40.148293923275453
 20
-207.8331910501181
 30
0.0
 11
40.148293923275453
 21
-208.004764955773
 31
0.0
  0
LINE
  8
DETAIL
  6
CONTINUOUS
 62
     5
 10
40.148293923275453
 20
-208.004764955773
 30
0.0
 11
40.148293923275453
 21
-208.2907214651982
 31
0.0
  0
LINE
  8
DETAIL
  6
CONTINUOUS
 62
     5
 10
40.148293923275453
 20
-208.2907214651982
 30
0.0
 11
39.919528715735403
 21
-208.80544318216329
 31
0.0
  0
LINE
  8
DETAIL
  6
CONTINUOUS
 62
     5
 10
39.919528715735403
 20
-208.80544318216329
 30
0.0
 11
39.747954810080273
 21
-208.80544318216329
 31
0.0
  0
LINE
  8
DETAIL
  6
CONTINUOUS
 62
     5
 10
39.919528715735403
 20
-207.31846933315299
 30
0.0
 11
39.919528715735403
 21
-207.089704125613
 31
0.0
  0
LINE
  8
DETAIL
  6
CONTINUOUS
 62
     5
 10
39.919528715735403
 20
-207.089704125613
 30
0.0
 11
39.919528715735403
 21
-206.80374761618799
 31
0.0
  0
LINE
  8
DETAIL
  6
CONTINUOUS
 62
     5
 10
39.919528715735403
 20
-206.80374761618799
 30
0.0
 11
39.919528715735403
 21
-206.28902589922291
 31
0.0
  0
LINE
  8
DETAIL
  6
CONTINUOUS
 62
     5
 10
39.919528715735403
 20
-206.28902589922291
 30
0.0
 11
40.148293923275453
 21
-206.0030693897977
 31
0.0
  0
LINE
  8
DETAIL
  6
CONTINUOUS
 62
     5
 10
40.148293923275453
 20
-206.0030693897977
 30
0.0
 11
40.434250432700424
 21
-206.0030693897977
 31
0.0
  0
LINE
  8
DETAIL
  6
CONTINUOUS
 62
     5
 10
40.434250432700424
 20
-206.0030693897977
 30
0.0
 11
40.663015640240467
 21
-205.83149548414281
 31
0.0
  0
LINE
  8
DETAIL
  6
CONTINUOUS
 62
     5
 10
40.663015640240467
 20
-205.83149548414281
 30
0.0
 11
41.120546055320567
 21
-205.83149548414281
 31
0.0
  0
LINE
  8
DETAIL
  6
CONTINUOUS
 62
     5
 10
39.919528715735403
 20
-207.31846933315299
 30
0.0
 11
39.919528715735403
 21
-207.60442584257819
 31
0.0
  0
LINE
  8
DETAIL
  6
CONTINUOUS
 62
     5
 10
46.954058847591341
 20
-202.62878257858259
 30
0.0
 11
41.120546055320567
 21
-205.83149548414281
 31
0.0
  0
LINE
  8
DETAIL
  6
CONTINUOUS
 62
     5
 10
-61.766606035808422
 20
-62.73885816785355
 30
0.0
 11
-56.27624105484756
 21
-57.934788809513073
 31
0.0
  0
LINE
  8
DETAIL
  6
CONTINUOUS
 62
     5
 10
-56.27624105484756
 20
-57.934788809513073
 30
0.0
 11
-49.985197847496693
 21
-53.416675960597331
 31
0.0
  0
LINE
  8
DETAIL
  6
CONTINUOUS
 62
     5
 10
65.426849356448656
 20
-66.456292790379166
 30
0.0
 11
70.116536111019514
 21
-71.946657771339915
 31
0.0
  0
LINE
  8
DETAIL
  6
CONTINUOUS
 62
     5
 10
70.116536111019514
 20
-71.946657771339915
 30
0.0
 11
74.691840261820062
 21
-77.951744469265577
 31
0.0
  0
LINE
  8
DETAIL
  6
CONTINUOUS
 62
     5
 10
61.709414733923268
 20
-193.5353655788663
 30
0.0
 11
56.104667149192657
 21
-198.33943493720679
 31
0.0
  0
LINE
  8
DETAIL
  6
CONTINUOUS
 62
     5
 10
56.104667149192657
 20
-198.33943493720679
 30
0.0
 11
50.156771753151823
 21
-202.80035648423771
 31
0.0
  0
LINE
  8
DETAIL
  6
CONTINUOUS
 62
     5
 10
-65.140892847023906
 20
-189.81793095634069
 30
0.0
 11
-70.173727412904441
 21
-184.32756597538011
 31
0.0
  0
LINE
  8
DETAIL
  6
CONTINUOUS
 62
     5
 10
-70.173727412904441
 20
-184.32756597538011
 30
0.0
 11
-74.749031563705088
 21
-178.32247927745419
 31
0.0
  0
LINE
  8
DETAIL
  6
CONTINUOUS
 62
     5
 10
149.8412109387202
 20
-170.3728883154381
 30
0.0
 11
149.8412109387202
 21
-166.82702759856761
 31
0.0
  0
LINE
  8
DETAIL
  6
CONTINUOUS
 62
     5
 10
127.8944727318423
 20
-106.71896931742459
 30
0.0
 11
139.83273310884391
 21
-106.71896931742459
 31
0.0
  0
LINE
  8
DETAIL
  6
CONTINUOUS
 62
     5
 10
149.8412109387202
 20
-195.5370611448416
 30
0.0
 11
149.8412109387202
 21
-170.3728883154381
 31
0.0
  0
LINE
  8
DETAIL
  6
CONTINUOUS
 62
     5
 10
139.83273310884391
 20
-205.48834767283279
 30
0.0
 11
127.8944727318423
 21
-205.48834767283279
 31
0.0
  0
LINE
  8
DETAIL
  6
CONTINUOUS
 62
     5
 10
149.8412109387202
 20
-195.5370611448416
 30
0.0
 11
149.3264892217552
 21
-198.51100884286191
 31
0.0
  0
LINE
  8
DETAIL
  6
CONTINUOUS
 62
     5
 10
149.3264892217552
 20
-198.51100884286191
 30
0.0
 11
147.83951537274501
 21
-201.3133826352273
 31
0.0
  0
LINE
  8
DETAIL
  6
CONTINUOUS
 62
     5
 10
147.83951537274501
 20
-201.3133826352273
 30
0.0
 11
145.55186329734471
 21
-203.5438434087425
 31
0.0
  0
LINE
  8
DETAIL
  6
CONTINUOUS
 62
     5
 10
145.55186329734471
 20
-203.5438434087425
 30
0.0
 11
142.86387210874929
 21
-205.0880085596377
 31
0.0
  0
LINE
  8
DETAIL
  6
CONTINUOUS
 62
     5
 10
142.86387210874929
 20
-205.0880085596377
 30
0.0
 11
139.83273310884391
 21
-205.48834767283279
 31
0.0
  0
LINE
  8
DETAIL
  6
CONTINUOUS
 62
     5
 10
139.83273310884391
 20
-106.71896931742459
 30
0.0
 11
142.86387210874929
 21
-107.1193084306194
 31
0.0
  0
LINE
  8
DETAIL
  6
CONTINUOUS
 62
     5
 10
142.86387210874929
 20
-107.1193084306194
 30
0.0
 11
145.55186329734471
 21
-108.3775170720896
 31
0.0
  0
LINE
  8
DETAIL
  6
CONTINUOUS
 62
     5
 10
145.55186329734471
 20
-108.3775170720896
 30
0.0
 11
147.83951537274501
 21
-110.7223604493749
 31
0.0
  0
LINE
  8
DETAIL
  6
CONTINUOUS
 62
     5
 10
147.83951537274501
 20
-110.7223604493749
 30
0.0
 11
149.3264892217552
 21
-113.41035163797029
 31
0.0
  0
LINE
  8
DETAIL
  6
CONTINUOUS
 62
     5
 10
149.3264892217552
 20
-113.41035163797029
 30
0.0
 11
149.8412109387202
 21
-116.6702558454158
 31
0.0
  0
LINE
  8
DETAIL
  6
CONTINUOUS
 62
     5
 10
149.8412109387202
 20
-117.69969927934589
 30
0.0
 11
149.8412109387202
 21
-116.6702558454158
 31
0.0
  0
LINE
  8
DETAIL
  6
CONTINUOUS
 62
     5
 10
56.104667149192657
 20
-67.42854492242418
 30
0.0
 11
56.447814960502683
 21
-65.941571073413797
 31
0.0
  0
LINE
  8
DETAIL
  6
CONTINUOUS
 62
     5
 10
56.447814960502683
 20
-65.941571073413797
 30
0.0
 11
57.248493186892688
 21
-64.454597224403869
 31
0.0
  0
LINE
  8
DETAIL
  6
CONTINUOUS
 62
     5
 10
57.248493186892688
 20
-64.454597224403869
 30
0.0
 11
58.106362715167727
 21
-63.425153790473807
 31
0.0
  0
LINE
  8
DETAIL
  6
CONTINUOUS
 62
     5
 10
58.106362715167727
 20
-63.425153790473807
 30
0.0
 11
59.707719167948198
 21
-62.910432073508673
 31
0.0
  0
LINE
  8
DETAIL
  6
CONTINUOUS
 62
     5
 10
59.707719167948198
 20
-62.910432073508673
 30
0.0
 11
61.137501715073313
 21
-62.73885816785355
 31
0.0
  0
LINE
  8
DETAIL
  6
CONTINUOUS
 62
     5
 10
61.137501715073313
 20
-62.73885816785355
 30
0.0
 11
62.624475564083468
 21
-63.253579884818691
 31
0.0
  0
LINE
  8
DETAIL
  6
CONTINUOUS
 62
     5
 10
62.624475564083468
 20
-63.253579884818691
 30
0.0
 11
63.939875507438607
 21
-63.939875507438728
 31
0.0
  0
LINE
  8
DETAIL
  6
CONTINUOUS
 62
     5
 10
63.939875507438607
 20
-63.939875507438728
 30
0.0
 11
64.912127639483742
 21
-65.255275450793761
 31
0.0
  0
LINE
  8
DETAIL
  6
CONTINUOUS
 62
     5
 10
64.912127639483742
 20
-65.255275450793761
 30
0.0
 11
65.426849356448656
 21
-66.742249299803916
 31
0.0
  0
LINE
  8
DETAIL
  6
CONTINUOUS
 62
     5
 10
65.426849356448656
 20
-66.742249299803916
 30
0.0
 11
65.426849356448656
 21
-68.229223148814299
 31
0.0
  0
LINE
  8
DETAIL
  6
CONTINUOUS
 62
     5
 10
65.426849356448656
 20
-68.229223148814299
 30
0.0
 11
64.912127639483742
 21
-69.659005695939641
 31
0.0
  0
LINE
  8
DETAIL
  6
CONTINUOUS
 62
     5
 10
64.912127639483742
 20
-69.659005695939641
 30
0.0
 11
63.939875507438607
 21
-70.917214337409632
 31
0.0
  0
LINE
  8
DETAIL
  6
CONTINUOUS
 62
     5
 10
63.939875507438607
 20
-70.917214337409632
 30
0.0
 11
62.624475564083468
 21
-71.717892563799978
 31
0.0
  0
LINE
  8
DETAIL
  6
CONTINUOUS
 62
     5
 10
62.624475564083468
 20
-71.717892563799978
 30
0.0
 11
61.137501715073313
 21
-72.11823167699481
 31
0.0
  0
LINE
  8
DETAIL
  6
CONTINUOUS
 62
     5
 10
61.137501715073313
 20
-72.11823167699481
 30
0.0
 11
59.707719167948198
 21
-71.946657771339915
 31
0.0
  0
LINE
  8
DETAIL
  6
CONTINUOUS
 62
     5
 10
59.707719167948198
 20
-71.946657771339915
 30
0.0
 11
58.106362715167727
 21
-71.431936054374773
 31
0.0
  0
LINE
  8
DETAIL
  6
CONTINUOUS
 62
     5
 10
58.106362715167727
 20
-71.431936054374773
 30
0.0
 11
57.248493186892688
 21
-70.230918714789595
 31
0.0
  0
LINE
  8
DETAIL
  6
CONTINUOUS
 62
     5
 10
57.248493186892688
 20
-70.230918714789595
 30
0.0
 11
56.447814960502683
 21
-68.915518771434336
 31
0.0
  0
LINE
  8
DETAIL
  6
CONTINUOUS
 62
     5
 10
56.447814960502683
 20
-68.915518771434336
 30
0.0
 11
56.104667149192657
 21
-67.42854492242418
 31
0.0
  0
LINE
  8
DETAIL
  6
CONTINUOUS
 62
     5
 10
59.250188752867977
 20
-65.941571073413797
 30
0.0
 11
62.224136450888409
 21
-68.915518771434336
 31
0.0
  0
LINE
  8
DETAIL
  6
CONTINUOUS
 62
     5
 10
62.224136450888409
 20
-65.941571073413797
 30
0.0
 11
59.250188752867977
 21
-68.915518771434336
 31
0.0
  0
LINE
  8
DETAIL
  6
CONTINUOUS
 62
     5
 10
-65.484040658333925
 20
-67.42854492242418
 30
0.0
 11
-65.140892847023906
 21
-65.941571073413797
 31
0.0
  0
LINE
  8
DETAIL
  6
CONTINUOUS
 62
     5
 10
-65.140892847023906
 20
-65.941571073413797
 30
0.0
 11
-64.454597224403642
 21
-64.454597224403869
 31
0.0
  0
LINE
  8
DETAIL
  6
CONTINUOUS
 62
     5
 10
-64.454597224403642
 20
-64.454597224403869
 30
0.0
 11
-63.196388582933423
 21
-63.425153790473807
 31
0.0
  0
LINE
  8
DETAIL
  6
CONTINUOUS
 62
     5
 10
-63.196388582933423
 20
-63.425153790473807
 30
0.0
 11
-61.995371243348359
 21
-62.910432073508673
 31
0.0
  0
LINE
  8
DETAIL
  6
CONTINUOUS
 62
     5
 10
-61.995371243348359
 20
-62.910432073508673
 30
0.0
 11
-60.451206092453162
 21
-62.73885816785355
 31
0.0
  0
LINE
  8
DETAIL
  6
CONTINUOUS
 62
     5
 10
-60.451206092453162
 20
-62.73885816785355
 30
0.0
 11
-58.964232243442893
 21
-63.253579884818691
 31
0.0
  0
LINE
  8
DETAIL
  6
CONTINUOUS
 62
     5
 10
-58.964232243442893
 20
-63.253579884818691
 30
0.0
 11
-57.477258394432738
 21
-63.939875507438728
 31
0.0
  0
LINE
  8
DETAIL
  6
CONTINUOUS
 62
     5
 10
-57.477258394432738
 20
-63.939875507438728
 30
0.0
 11
-56.790962771812701
 21
-65.255275450793761
 31
0.0
  0
LINE
  8
DETAIL
  6
CONTINUOUS
 62
     5
 10
-56.790962771812701
 20
-65.255275450793761
 30
0.0
 11
-56.27624105484756
 21
-66.742249299803916
 31
0.0
  0
LINE
  8
DETAIL
  6
CONTINUOUS
 62
     5
 10
-56.27624105484756
 20
-66.742249299803916
 30
0.0
 11
-56.27624105484756
 21
-68.229223148814299
 31
0.0
  0
LINE
  8
DETAIL
  6
CONTINUOUS
 62
     5
 10
-56.27624105484756
 20
-68.229223148814299
 30
0.0
 11
-56.790962771812701
 21
-69.659005695939641
 31
0.0
  0
LINE
  8
DETAIL
  6
CONTINUOUS
 62
     5
 10
-56.790962771812701
 20
-69.659005695939641
 30
0.0
 11
-57.477258394432738
 21
-70.917214337409632
 31
0.0
  0
LINE
  8
DETAIL
  6
CONTINUOUS
 62
     5
 10
-57.477258394432738
 20
-70.917214337409632
 30
0.0
 11
-58.964232243442893
 21
-71.717892563799978
 31
0.0
  0
LINE
  8
DETAIL
  6
CONTINUOUS
 62
     5
 10
-58.964232243442893
 20
-71.717892563799978
 30
0.0
 11
-60.451206092453162
 21
-72.11823167699481
 31
0.0
  0
LINE
  8
DETAIL
  6
CONTINUOUS
 62
     5
 10
-60.451206092453162
 20
-72.11823167699481
 30
0.0
 11
-61.995371243348359
 21
-71.946657771339915
 31
0.0
  0
LINE
  8
DETAIL
  6
CONTINUOUS
 62
     5
 10
-61.995371243348359
 20
-71.946657771339915
 30
0.0
 11
-63.196388582933423
 21
-71.431936054374773
 31
0.0
  0
LINE
  8
DETAIL
  6
CONTINUOUS
 62
     5
 10
-63.196388582933423
 20
-71.431936054374773
 30
0.0
 11
-64.454597224403642
 21
-70.230918714789595
 31
0.0
  0
LINE
  8
DETAIL
  6
CONTINUOUS
 62
     5
 10
-64.454597224403642
 20
-70.230918714789595
 30
0.0
 11
-65.140892847023906
 21
-68.915518771434336
 31
0.0
  0
LINE
  8
DETAIL
  6
CONTINUOUS
 62
     5
 10
-65.140892847023906
 20
-68.915518771434336
 30
0.0
 11
-65.484040658333925
 21
-67.42854492242418
 31
0.0
  0
LINE
  8
DETAIL
  6
CONTINUOUS
 62
     5
 10
-62.28132775277345
 20
-65.941571073413797
 30
0.0
 11
-59.250188752868098
 21
-68.915518771434336
 31
0.0
  0
LINE
  8
DETAIL
  6
CONTINUOUS
 62
     5
 10
-59.250188752868098
 20
-65.941571073413797
 30
0.0
 11
-62.28132775277345
 21
-68.915518771434336
 31
0.0
  0
LINE
  8
DETAIL
  6
CONTINUOUS
 62
     5
 10
-65.484040658333925
 20
-188.84567882429559
 30
0.0
 11
-65.140892847023906
 21
-187.35870497528549
 31
0.0
  0
LINE
  8
DETAIL
  6
CONTINUOUS
 62
     5
 10
-65.140892847023906
 20
-187.35870497528549
 30
0.0
 11
-64.454597224403642
 21
-186.0433050319302
 31
0.0
  0
LINE
  8
DETAIL
  6
CONTINUOUS
 62
     5
 10
-64.454597224403642
 20
-186.0433050319302
 30
0.0
 11
-63.196388582933423
 21
-185.12824420177
 31
0.0
  0
LINE
  8
DETAIL
  6
CONTINUOUS
 62
     5
 10
-63.196388582933423
 20
-185.12824420177
 30
0.0
 11
-61.995371243348359
 21
-184.32756597538011
 31
0.0
  0
LINE
  8
DETAIL
  6
CONTINUOUS
 62
     5
 10
-61.995371243348359
 20
-184.32756597538011
 30
0.0
 11
-60.451206092453162
 21
-184.32756597538011
 31
0.0
  0
LINE
  8
DETAIL
  6
CONTINUOUS
 62
     5
 10
-60.451206092453162
 20
-184.32756597538011
 30
0.0
 11
-58.964232243442893
 21
-184.61352248480489
 31
0.0
  0
LINE
  8
DETAIL
  6
CONTINUOUS
 62
     5
 10
-58.964232243442893
 20
-184.61352248480489
 30
0.0
 11
-57.477258394432738
 21
-185.35700940931011
 31
0.0
  0
LINE
  8
DETAIL
  6
CONTINUOUS
 62
     5
 10
-57.477258394432738
 20
-185.35700940931011
 30
0.0
 11
-56.790962771812701
 21
-186.61521805078019
 31
0.0
  0
LINE
  8
DETAIL
  6
CONTINUOUS
 62
     5
 10
-56.790962771812701
 20
-186.61521805078019
 30
0.0
 11
-56.27624105484756
 21
-188.0450005979055
 31
0.0
  0
LINE
  8
DETAIL
  6
CONTINUOUS
 62
     5
 10
-56.27624105484756
 20
-188.0450005979055
 30
0.0
 11
-56.27624105484756
 21
-189.64635705068579
 31
0.0
  0
LINE
  8
DETAIL
  6
CONTINUOUS
 62
     5
 10
-56.27624105484756
 20
-189.64635705068579
 30
0.0
 11
-56.790962771812701
 21
-191.01894829592581
 31
0.0
  0
LINE
  8
DETAIL
  6
CONTINUOUS
 62
     5
 10
-56.790962771812701
 20
-191.01894829592581
 30
0.0
 11
-57.477258394432738
 21
-192.3343482392811
 31
0.0
  0
LINE
  8
DETAIL
  6
CONTINUOUS
 62
     5
 10
-57.477258394432738
 20
-192.3343482392811
 30
0.0
 11
-58.964232243442893
 21
-193.30660037132631
 31
0.0
  0
LINE
  8
DETAIL
  6
CONTINUOUS
 62
     5
 10
-58.964232243442893
 20
-193.30660037132631
 30
0.0
 11
-60.451206092453162
 21
-193.5353655788663
 31
0.0
  0
LINE
  8
DETAIL
  6
CONTINUOUS
 62
     5
 10
-60.451206092453162
 20
-193.5353655788663
 30
0.0
 11
-61.995371243348359
 21
-193.5353655788663
 31
0.0
  0
LINE
  8
DETAIL
  6
CONTINUOUS
 62
     5
 10
-61.995371243348359
 20
-193.5353655788663
 30
0.0
 11
-63.196388582933423
 21
-192.84906995624621
 31
0.0
  0
LINE
  8
DETAIL
  6
CONTINUOUS
 62
     5
 10
-63.196388582933423
 20
-192.84906995624621
 30
0.0
 11
-64.454597224403642
 21
-191.81962652231601
 31
0.0
  0
LINE
  8
DETAIL
  6
CONTINUOUS
 62
     5
 10
-64.454597224403642
 20
-191.81962652231601
 30
0.0
 11
-65.140892847023906
 21
-190.3326526733058
 31
0.0
  0
LINE
  8
DETAIL
  6
CONTINUOUS
 62
     5
 10
-65.140892847023906
 20
-190.3326526733058
 30
0.0
 11
-65.484040658333925
 21
-188.84567882429559
 31
0.0
  0
LINE
  8
DETAIL
  6
CONTINUOUS
 62
     5
 10
-62.28132775277345
 20
-187.35870497528549
 30
0.0
 11
-59.250188752868098
 21
-190.3326526733058
 31
0.0
  0
LINE
  8
DETAIL
  6
CONTINUOUS
 62
     5
 10
-59.250188752868098
 20
-187.35870497528549
 30
0.0
 11
-62.28132775277345
 21
-190.3326526733058
 31
0.0
  0
LINE
  8
DETAIL
  6
CONTINUOUS
 62
     5
 10
56.104667149192657
 20
-188.84567882429559
 30
0.0
 11
56.447814960502683
 21
-187.35870497528549
 31
0.0
  0
LINE
  8
DETAIL
  6
CONTINUOUS
 62
     5
 10
56.447814960502683
 20
-187.35870497528549
 30
0.0
 11
57.248493186892688
 21
-186.0433050319302
 31
0.0
  0
LINE
  8
DETAIL
  6
CONTINUOUS
 62
     5
 10
57.248493186892688
 20
-186.0433050319302
 30
0.0
 11
58.106362715167727
 21
-185.12824420177
 31
0.0
  0
LINE
  8
DETAIL
  6
CONTINUOUS
 62
     5
 10
58.106362715167727
 20
-185.12824420177
 30
0.0
 11
59.707719167948198
 21
-184.32756597538011
 31
0.0
  0
LINE
  8
DETAIL
  6
CONTINUOUS
 62
     5
 10
59.707719167948198
 20
-184.32756597538011
 30
0.0
 11
61.137501715073313
 21
-184.32756597538011
 31
0.0
  0
LINE
  8
DETAIL
  6
CONTINUOUS
 62
     5
 10
61.137501715073313
 20
-184.32756597538011
 30
0.0
 11
62.624475564083468
 21
-184.61352248480489
 31
0.0
  0
LINE
  8
DETAIL
  6
CONTINUOUS
 62
     5
 10
62.624475564083468
 20
-184.61352248480489
 30
0.0
 11
63.939875507438607
 21
-185.35700940931011
 31
0.0
  0
LINE
  8
DETAIL
  6
CONTINUOUS
 62
     5
 10
63.939875507438607
 20
-185.35700940931011
 30
0.0
 11
64.912127639483742
 21
-186.61521805078019
 31
0.0
  0
LINE
  8
DETAIL
  6
CONTINUOUS
 62
     5
 10
64.912127639483742
 20
-186.61521805078019
 30
0.0
 11
65.426849356448656
 21
-188.0450005979055
 31
0.0
  0
LINE
  8
DETAIL
  6
CONTINUOUS
 62
     5
 10
65.426849356448656
 20
-188.0450005979055
 30
0.0
 11
65.426849356448656
 21
-189.64635705068579
 31
0.0
  0
LINE
  8
DETAIL
  6
CONTINUOUS
 62
     5
 10
65.426849356448656
 20
-189.64635705068579
 30
0.0
 11
64.912127639483742
 21
-191.01894829592581
 31
0.0
  0
LINE
  8
DETAIL
  6
CONTINUOUS
 62
     5
 10
64.912127639483742
 20
-191.01894829592581
 30
0.0
 11
63.939875507438607
 21
-192.3343482392811
 31
0.0
  0
LINE
  8
DETAIL
  6
CONTINUOUS
 62
     5
 10
63.939875507438607
 20
-192.3343482392811
 30
0.0
 11
62.624475564083468
 21
-193.30660037132631
 31
0.0
  0
LINE
  8
DETAIL
  6
CONTINUOUS
 62
     5
 10
62.624475564083468
 20
-193.30660037132631
 30
0.0
 11
61.137501715073313
 21
-193.5353655788663
 31
0.0
  0
LINE
  8
DETAIL
  6
CONTINUOUS
 62
     5
 10
61.137501715073313
 20
-193.5353655788663
 30
0.0
 11
59.707719167948198
 21
-193.5353655788663
 31
0.0
  0
LINE
  8
DETAIL
  6
CONTINUOUS
 62
     5
 10
59.707719167948198
 20
-193.5353655788663
 30
0.0
 11
58.106362715167727
 21
-192.84906995624621
 31
0.0
  0
LINE
  8
DETAIL
  6
CONTINUOUS
 62
     5
 10
58.106362715167727
 20
-192.84906995624621
 30
0.0
 11
57.248493186892688
 21
-191.81962652231601
 31
0.0
  0
LINE
  8
DETAIL
  6
CONTINUOUS
 62
     5
 10
57.248493186892688
 20
-191.81962652231601
 30
0.0
 11
56.447814960502683
 21
-190.3326526733058
 31
0.0
  0
LINE
  8
DETAIL
  6
CONTINUOUS
 62
     5
 10
56.447814960502683
 20
-190.3326526733058
 30
0.0
 11
56.104667149192657
 21
-188.84567882429559
 31
0.0
  0
LINE
  8
DETAIL
  6
CONTINUOUS
 62
     5
 10
59.250188752867977
 20
-187.35870497528549
 30
0.0
 11
62.224136450888409
 21
-190.3326526733058
 31
0.0
  0
LINE
  8
DETAIL
  6
CONTINUOUS
 62
     5
 10
62.224136450888409
 20
-187.35870497528549
 30
0.0
 11
59.250188752867977
 21
-190.3326526733058
 31
0.0
  0
LINE
  8
DETAIL
  6
CONTINUOUS
 62
     5
 10
-114.4545167888655
 20
-159.84968876859671
 30
0.0
 11
-114.2257515813255
 21
-157.84799320262141
 31
0.0
  0
LINE
  8
DETAIL
  6
CONTINUOUS
 62
     5
 10
-114.2257515813255
 20
-157.84799320262141
 30
0.0
 11
-113.2534994492804
 21
-156.07506284418631
 31
0.0
  0
LINE
  8
DETAIL
  6
CONTINUOUS
 62
     5
 10
-113.2534994492804
 20
-156.07506284418631
 30
0.0
 11
-111.93809950592519
 21
-154.8740455046011
 31
0.0
  0
LINE
  8
DETAIL
  6
CONTINUOUS
 62
     5
 10
-111.93809950592519
 20
-154.8740455046011
 30
0.0
 11
-109.93640393995
 21
-154.18774988198081
 31
0.0
  0
LINE
  8
DETAIL
  6
CONTINUOUS
 62
     5
 10
-109.93640393995
 20
-154.18774988198081
 30
0.0
 11
-108.22066488339961
 21
-153.84460207067079
 31
0.0
  0
LINE
  8
DETAIL
  6
CONTINUOUS
 62
     5
 10
-108.22066488339961
 20
-153.84460207067079
 30
0.0
 11
-106.2189693174244
 21
-154.3593237876357
 31
0.0
  0
LINE
  8
DETAIL
  6
CONTINUOUS
 62
     5
 10
-106.2189693174244
 20
-154.3593237876357
 30
0.0
 11
-104.6176128646441
 21
-155.67472373099099
 31
0.0
  0
LINE
  8
DETAIL
  6
CONTINUOUS
 62
     5
 10
-104.6176128646441
 20
-155.67472373099099
 30
0.0
 11
-103.41659552505909
 21
-157.04731497623129
 31
0.0
  0
LINE
  8
DETAIL
  6
CONTINUOUS
 62
     5
 10
-103.41659552505909
 20
-157.04731497623129
 30
0.0
 11
-102.6159172986688
 21
-158.87743663655149
 31
0.0
  0
LINE
  8
DETAIL
  6
CONTINUOUS
 62
     5
 10
-102.6159172986688
 20
-158.87743663655149
 30
0.0
 11
-102.6159172986688
 21
-160.87913220252699
 31
0.0
  0
LINE
  8
DETAIL
  6
CONTINUOUS
 62
     5
 10
-102.6159172986688
 20
-160.87913220252699
 30
0.0
 11
-103.41659552505909
 21
-162.65206256096189
 31
0.0
  0
LINE
  8
DETAIL
  6
CONTINUOUS
 62
     5
 10
-103.41659552505909
 20
-162.65206256096189
 30
0.0
 11
-104.6176128646441
 21
-164.13903640997231
 31
0.0
  0
LINE
  8
DETAIL
  6
CONTINUOUS
 62
     5
 10
-104.6176128646441
 20
-164.13903640997231
 30
0.0
 11
-106.2189693174244
 21
-165.1684798439023
 31
0.0
  0
LINE
  8
DETAIL
  6
CONTINUOUS
 62
     5
 10
-106.2189693174244
 20
-165.1684798439023
 30
0.0
 11
-108.22066488339961
 21
-165.62601025898269
 31
0.0
  0
LINE
  8
DETAIL
  6
CONTINUOUS
 62
     5
 10
-108.22066488339961
 20
-165.62601025898269
 30
0.0
 11
-109.93640393995
 21
-165.62601025898269
 31
0.0
  0
LINE
  8
DETAIL
  6
CONTINUOUS
 62
     5
 10
-109.93640393995
 20
-165.62601025898269
 30
0.0
 11
-111.93809950592519
 21
-164.82533203259231
 31
0.0
  0
LINE
  8
DETAIL
  6
CONTINUOUS
 62
     5
 10
-111.93809950592519
 20
-164.82533203259231
 30
0.0
 11
-113.2534994492804
 21
-163.33835818358219
 31
0.0
  0
LINE
  8
DETAIL
  6
CONTINUOUS
 62
     5
 10
-113.2534994492804
 20
-163.33835818358219
 30
0.0
 11
-114.2257515813255
 21
-161.8513843345718
 31
0.0
  0
LINE
  8
DETAIL
  6
CONTINUOUS
 62
     5
 10
-114.2257515813255
 20
-161.8513843345718
 30
0.0
 11
-114.4545167888655
 21
-159.84968876859671
 31
0.0
  0
LINE
  8
DETAIL
  6
CONTINUOUS
 62
     5
 10
-110.4511256569151
 20
-158.13394971204659
 30
0.0
 11
-106.9052649400445
 21
-161.67981042891691
 31
0.0
  0
LINE
  8
DETAIL
  6
CONTINUOUS
 62
     5
 10
-106.9052649400445
 20
-158.13394971204659
 30
0.0
 11
-110.4511256569151
 21
-161.67981042891691
 31
0.0
  0
LINE
  8
DETAIL
  6
CONTINUOUS
 62
     5
 10
102.6159172986688
 20
-159.84968876859671
 30
0.0
 11
103.07344771374891
 21
-157.84799320262141
 31
0.0
  0
LINE
  8
DETAIL
  6
CONTINUOUS
 62
     5
 10
103.07344771374891
 20
-157.84799320262141
 30
0.0
 11
103.87412594013919
 21
-156.07506284418631
 31
0.0
  0
LINE
  8
DETAIL
  6
CONTINUOUS
 62
     5
 10
103.87412594013919
 20
-156.07506284418631
 30
0.0
 11
105.36109978914931
 21
-154.8740455046011
 31
0.0
  0
LINE
  8
DETAIL
  6
CONTINUOUS
 62
     5
 10
105.36109978914931
 20
-154.8740455046011
 30
0.0
 11
107.1912214494695
 21
-154.18774988198081
 31
0.0
  0
LINE
  8
DETAIL
  6
CONTINUOUS
 62
     5
 10
107.1912214494695
 20
-154.18774988198081
 30
0.0
 11
109.0785344116748
 21
-153.84460207067079
 31
0.0
  0
LINE
  8
DETAIL
  6
CONTINUOUS
 62
     5
 10
109.0785344116748
 20
-153.84460207067079
 30
0.0
 11
110.908656071995
 21
-154.3593237876357
 31
0.0
  0
LINE
  8
DETAIL
  6
CONTINUOUS
 62
     5
 10
110.908656071995
 20
-154.3593237876357
 30
0.0
 11
112.5672038266603
 21
-155.67472373099099
 31
0.0
  0
LINE
  8
DETAIL
  6
CONTINUOUS
 62
     5
 10
112.5672038266603
 20
-155.67472373099099
 30
0.0
 11
113.88260377001539
 21
-157.04731497623129
 31
0.0
  0
LINE
  8
DETAIL
  6
CONTINUOUS
 62
     5
 10
113.88260377001539
 20
-157.04731497623129
 30
0.0
 11
114.39732548698071
 21
-158.87743663655149
 31
0.0
  0
LINE
  8
DETAIL
  6
CONTINUOUS
 62
     5
 10
114.39732548698071
 20
-158.87743663655149
 30
0.0
 11
114.39732548698071
 21
-160.87913220252699
 31
0.0
  0
LINE
  8
DETAIL
  6
CONTINUOUS
 62
     5
 10
114.39732548698071
 20
-160.87913220252699
 30
0.0
 11
113.88260377001539
 21
-162.65206256096189
 31
0.0
  0
LINE
  8
DETAIL
  6
CONTINUOUS
 62
     5
 10
113.88260377001539
 20
-162.65206256096189
 30
0.0
 11
112.5672038266603
 21
-164.13903640997231
 31
0.0
  0
LINE
  8
DETAIL
  6
CONTINUOUS
 62
     5
 10
112.5672038266603
 20
-164.13903640997231
 30
0.0
 11
110.908656071995
 21
-165.1684798439023
 31
0.0
  0
LINE
  8
DETAIL
  6
CONTINUOUS
 62
     5
 10
110.908656071995
 20
-165.1684798439023
 30
0.0
 11
109.0785344116748
 21
-165.62601025898269
 31
0.0
  0
LINE
  8
DETAIL
  6
CONTINUOUS
 62
     5
 10
109.0785344116748
 20
-165.62601025898269
 30
0.0
 11
107.1912214494695
 21
-165.62601025898269
 31
0.0
  0
LINE
  8
DETAIL
  6
CONTINUOUS
 62
     5
 10
107.1912214494695
 20
-165.62601025898269
 30
0.0
 11
105.36109978914931
 21
-164.82533203259231
 31
0.0
  0
LINE
  8
DETAIL
  6
CONTINUOUS
 62
     5
 10
105.36109978914931
 20
-164.82533203259231
 30
0.0
 11
103.87412594013919
 21
-163.33835818358219
 31
0.0
  0
LINE
  8
DETAIL
  6
CONTINUOUS
 62
     5
 10
103.87412594013919
 20
-163.33835818358219
 30
0.0
 11
103.07344771374891
 21
-161.8513843345718
 31
0.0
  0
LINE
  8
DETAIL
  6
CONTINUOUS
 62
     5
 10
103.07344771374891
 20
-161.8513843345718
 30
0.0
 11
102.6159172986688
 21
-159.84968876859671
 31
0.0
  0
LINE
  8
DETAIL
  6
CONTINUOUS
 62
     5
 10
106.9052649400445
 20
-158.13394971204659
 30
0.0
 11
110.39393435503
 21
-161.67981042891691
 31
0.0
  0
LINE
  8
DETAIL
  6
CONTINUOUS
 62
     5
 10
110.39393435503
 20
-158.13394971204659
 30
0.0
 11
106.9052649400445
 21
-161.67981042891691
 31
0.0
  0
LINE
  8
OUTLINE
  6
CONTINUOUS
 62
     3
 10
126.17873367529209
 20
-255.47354552032971
 30
0.0
 11
-126.23592497717731
 21
-255.47354552032971
 31
0.0
  0
LINE
  8
OUTLINE
  6
CONTINUOUS
 62
     3
 10
-123.2047859772717
 20
-1.201017339585178
 30
0.0
 11
-124.4058033168569
 21
-2.5164172829404379
 31
0.0
  0
LINE
  8
OUTLINE
  6
CONTINUOUS
 62
     3
 10
123.0904033735017
 20
-1.201017339585178
 30
0.0
 11
124.6917598262819
 21
-2.8023737923654148
 31
0.0
  0
LINE
  8
OUTLINE
  6
CONTINUOUS
 62
     3
 10
-116.22744714730079
 20
-1.201017339585178
 30
0.0
 11
-123.2047859772717
 21
-1.201017339585178
 31
0.0
  0
LINE
  8
OUTLINE
  6
CONTINUOUS
 62
     3
 10
123.0904033735017
 20
-1.201017339585178
 30
0.0
 11
116.1702558454156
 21
-1.201017339585178
 31
0.0
  0
LINE
  8
OUTLINE
  6
CONTINUOUS
 62
     3
 10
116.1702558454156
 20
0.0
 30
0.0
 11
-116.22744714730079
 21
0.0
 31
0.0
  0
LINE
  8
OUTLINE
  6
CONTINUOUS
 62
     3
 10
-126.23592497717731
 20
-255.47354552032971
 30
0.0
 11
-126.23592497717731
 21
-253.75780646377939
 31
0.0
  0
LINE
  8
OUTLINE
  6
CONTINUOUS
 62
     3
 10
-116.22744714730079
 20
-1.201017339585178
 30
0.0
 11
-116.22744714730079
 21
0.0
 31
0.0
  0
LINE
  8
OUTLINE
  6
CONTINUOUS
 62
     3
 10
116.1702558454156
 20
-1.201017339585178
 30
0.0
 11
116.1702558454156
 21
0.0
 31
0.0
  0
LINE
  8
OUTLINE
  6
CONTINUOUS
 62
     3
 10
126.17873367529209
 20
-255.47354552032971
 30
0.0
 11
126.17873367529209
 21
-253.47184995435441
 31
0.0
  0
LINE
  8
OUTLINE
  6
CONTINUOUS
 62
     3
 10
-127.09379450545229
 20
-166.82702759856761
 30
0.0
 11
-127.09379450545229
 21
-253.75780646377939
 31
0.0
  0
LINE
  8
OUTLINE
  6
CONTINUOUS
 62
     3
 10
-127.09379450545229
 20
-253.75780646377939
 30
0.0
 11
-123.2047859772717
 21
-253.75780646377939
 31
0.0
  0
LINE
  8
OUTLINE
  6
CONTINUOUS
 62
     3
 10
-127.09379450545229
 20
-166.82702759856761
 30
0.0
 11
-127.09379450545229
 21
-2.5164172829404379
 31
0.0
  0
LINE
  8
OUTLINE
  6
CONTINUOUS
 62
     3
 10
-127.09379450545229
 20
-2.5164172829404379
 30
0.0
 11
-123.2047859772717
 21
-2.5164172829404379
 31
0.0
  0
LINE
  8
OUTLINE
  6
CONTINUOUS
 62
     3
 10
127.15098580733731
 20
-253.47184995435441
 30
0.0
 11
123.0904033735017
 21
-253.47184995435441
 31
0.0
  0
LINE
  8
OUTLINE
  6
CONTINUOUS
 62
     3
 10
127.15098580733731
 20
-2.8023737923654148
 30
0.0
 11
123.0904033735017
 21
-2.8023737923654148
 31
0.0
  0
LINE
  8
OUTLINE
  6
CONTINUOUS
 62
     3
 10
128.06604663749729
 20
-121.7030904112964
 30
0.0
 11
127.8944727318424
 21
-252.78555433173409
 31
0.0
  0
LINE
  8
OUTLINE
  6
CONTINUOUS
 62
     3
 10
127.8944727318424
 20
-117.69969927934589
 30
0.0
 11
127.8944727318424
 21
-3.488669414985679
 31
0.0
  0
LINE
  8
OUTLINE
  6
CONTINUOUS
 62
     3
 10
127.8944727318424
 20
-3.488669414985679
 30
0.0
 11
127.15098580733731
 21
-3.488669414985679
 31
0.0
  0
LINE
  8
OUTLINE
  6
CONTINUOUS
 62
     3
 10
127.8944727318424
 20
-252.78555433173409
 30
0.0
 11
127.15098580733731
 21
-252.78555433173409
 31
0.0
  0
LINE
  8
OUTLINE
  6
CONTINUOUS
 62
     3
 10
128.06604663749729
 20
-121.7030904112964
 30
0.0
 11
128.06604663749729
 21
-117.69969927934589
 31
0.0
  0
ENDSEC
  0
EOF
