  0
SECTION
  2
HEADER
  9
$ACADVER
  1
AC1009
  9
$DWGCODEPAGE
  3
dos932
  9
$INSBASE
 10
0.0
 20
0.0
 30
0.0
  9
$EXTMIN
 10
-517.80926905585989
 20
-614.65095501885355
 30
0.0
  9
$EXTMAX
 10
1016.961862269399
 20
456.56466712617981
 30
0.0
  9
$LIMMIN
 10
-2970.0
 20
-2100.0
  9
$LIMMAX
 10
2970.0
 20
2100.0
  9
$ORTHOMODE
 70
     1
  9
$REGENMODE
 70
     1
  9
$FILLMODE
 70
     1
  9
$QTEXTMODE
 70
     0
  9
$MIRRTEXT
 70
     0
  9
$LTSCALE
 40
20.0
  9
$ATTMODE
 70
     1
  9
$TEXTSIZE
 40
64.0
  9
$TRACEWID
 40
0.05
  9
$TEXTSTYLE
  7
STANDARD
  9
$CLAYER
  8
SIZE
  9
$CELTYPE
  6
CONTINUOUS
  9
$CECOLOR
 62
     7
  9
$DIMSCALE
 40
1.0
  9
$DIMASZ
 40
12.0
  9
$DIMEXO
 40
20.0
  9
$DIMDLI
 40
200.0
  9
$DIMRND
 40
0.0
  9
$DIMDLE
 40
0.0
  9
$DIMEXE
 40
20.0
  9
$DIMTP
 40
0.0
  9
$DIMTM
 40
0.0
  9
$DIMTXT
 40
64.0
  9
$DIMCEN
 40
0.09
  9
$DIMTSZ
 40
0.0
  9
$DIMTOL
 70
     0
  9
$DIMLIM
 70
     0
  9
$DIMTIH
 70
     0
  9
$DIMTOH
 70
     0
  9
$DIMSE1
 70
     0
  9
$DIMSE2
 70
     0
  9
$DIMTAD
 70
     1
  9
$DIMZIN
 70
     8
  9
$DIMBLK
  1

  9
$DIMASO
 70
     1
  9
$DIMSHO
 70
     0
  9
$DIMPOST
  1

  9
$DIMAPOST
  1

  9
$DIMALT
 70
     0
  9
$DIMALTD
 70
     2
  9
$DIMALTF
 40
25.399999999999999
  9
$DIMLFAC
 40
1.0
  9
$DIMTOFL
 70
     1
  9
$DIMTVP
 40
0.0
  9
$DIMTIX
 70
     1
  9
$DIMSOXD
 70
     0
  9
$DIMSAH
 70
     0
  9
$DIMBLK1
  1

  9
$DIMBLK2
  1

  9
$DIMSTYLE
  2
STANDARD
  9
$DIMCLRD
 70
     7
  9
$DIMCLRE
 70
     7
  9
$DIMCLRT
 70
     7
  9
$DIMTFAC
 40
1.0
  9
$DIMGAP
 40
25.0
  9
$LUNITS
 70
     2
  9
$LUPREC
 70
     4
  9
$SKETCHINC
 40
0.1
  9
$FILLETRAD
 40
3.0
  9
$AUNITS
 70
     1
  9
$AUPREC
 70
     3
  9
$MENU
  1
ACAD
  9
$ELEVATION
 40
0.0
  9
$PELEVATION
 40
0.0
  9
$THICKNESS
 40
50.0
  9
$LIMCHECK
 70
     0
  9
$CHAMFERA
 40
0.0
  9
$CHAMFERB
 40
0.0
  9
$SKPOLY
 70
     0
  9
$TDCREATE
 40
2453019.623009259
  9
$TDUPDATE
 40
2459292.389607535
  9
$TDINDWG
 40
1.7209534838
  9
$TDUSRTIMER
 40
1.7209534838
  9
$USRTIMER
 70
     1
  9
$ANGBASE
 50
0.0
  9
$ANGDIR
 70
     0
  9
$PDMODE
 70
     3
  9
$PDSIZE
 40
-2.0
  9
$PLINEWID
 40
0.0
  9
$SPLFRAME
 70
     0
  9
$SPLINETYPE
 70
     6
  9
$SPLINESEGS
 70
     8
  9
$SURFTAB1
 70
     6
  9
$SURFTAB2
 70
     6
  9
$SURFTYPE
 70
     6
  9
$SURFU
 70
     6
  9
$SURFV
 70
     6
  9
$UCSNAME
  2

  9
$UCSORG
 10
0.0
 20
0.0
 30
0.0
  9
$UCSXDIR
 10
1.0
 20
0.0
 30
0.0
  9
$UCSYDIR
 10
0.0
 20
1.0
 30
0.0
  9
$PUCSNAME
  2

  9
$PUCSORG
 10
0.0
 20
0.0
 30
0.0
  9
$PUCSXDIR
 10
1.0
 20
0.0
 30
0.0
  9
$PUCSYDIR
 10
0.0
 20
1.0
 30
0.0
  9
$USERI1
 70
     0
  9
$USERI2
 70
     0
  9
$USERI3
 70
     0
  9
$USERI4
 70
     0
  9
$USERI5
 70
     0
  9
$USERR1
 40
20.0
  9
$USERR2
 40
0.0
  9
$USERR3
 40
0.0
  9
$USERR4
 40
0.0
  9
$USERR5
 40
0.0
  9
$WORLDVIEW
 70
     1
  9
$SHADEDGE
 70
     3
  9
$SHADEDIF
 70
    70
  9
$TILEMODE
 70
     1
  9
$MAXACTVP
 70
    48
  9
$PINSBASE
 10
0.0
 20
0.0
 30
0.0
  9
$PLIMCHECK
 70
     0
  9
$PEXTMIN
 10
-100000000000000000000.0
 20
-100000000000000000000.0
 30
-100000000000000000000.0
  9
$PEXTMAX
 10
100000000000000000000.0
 20
100000000000000000000.0
 30
100000000000000000000.0
  9
$PLIMMIN
 10
0.0
 20
0.0
  9
$PLIMMAX
 10
12.0
 20
9.0
  9
$UNITMODE
 70
     0
  9
$VISRETAIN
 70
     0
  9
$PLINEGEN
 70
     0
  9
$PSLTSCALE
 70
     0
  9
$TREEDEPTH
 70
  3020
  9
$ATTDIA
 70
     0
  9
$ATTREQ
 70
     1
  9
$BLIPMODE
 70
     1
  9
$COORDS
 70
     1
  9
$DRAGMODE
 70
     2
  9
$OSMODE
 70
     0
  9
$HANDLING
 70
     0
  9
$HANDSEED
  5
367
  0
ENDSEC
  0
SECTION
  2
TABLES
  0
TABLE
  2
LTYPE
 70
     2
  0
LTYPE
  2
CONTINUOUS
 70
     0
  3
実線
 72
    65
 73
     0
 40
0.0
  0
LTYPE
  2
DASHDOT
 70
     0
  3
____ _ ____ _ ____ _ ____ _ ____ _ ____ _ ____
 72
    65
 73
     4
 40
5.5
 49
4.0
 49
-0.6
 49
0.3
 49
-0.6
  0
ENDTAB
  0
TABLE
  2
LAYER
 70
    12
  0
LAYER
  2
SIZE
 70
     0
 62
    30
  6
CONTINUOUS
  0
LAYER
  2
BASIS
 70
     0
 62
     6
  6
DASHDOT
  0
LAYER
  2
OUTLINE
 70
     0
 62
     3
  6
CONTINUOUS
  0
LAYER
  2
DETAIL
 70
     0
 62
     5
  6
CONTINUOUS
  0
LAYER
  2
ARRANGE
 70
     0
 62
     1
  6
CONTINUOUS
  0
LAYER
  2
DEFPOINTS
 70
     0
 62
     7
  6
CONTINUOUS
  0
LAYER
  2
ETC
 70
     0
 62
    61
  6
CONTINUOUS
  0
LAYER
  2
FIX
 70
     0
 62
    11
  6
CONTINUOUS
  0
LAYER
  2
NOTE
 70
     0
 62
     4
  6
CONTINUOUS
  0
LAYER
  2
0
 70
    64
 62
     7
  6
CONTINUOUS
  0
LAYER
  2
SERVICESPACE
 70
    64
 62
     2
  6
DASHDOT
  0
LAYER
  2
SYMBOLLINE
 70
    64
 62
    15
  6
CONTINUOUS
  0
ENDTAB
  0
TABLE
  2
STYLE
 70
     1
  0
STYLE
  2
STANDARD
 70
     0
 40
64.0
 41
0.9
 50
0.0
 71
     0
 42
64.0
  3
SIMPLEX.shx
  4
BIGFONT.shx
  0
ENDTAB
  0
TABLE
  2
APPID
 70
    21
  0
APPID
  2
ACAD
 70
     0
  0
APPID
  2
ACADANNOTATIVE
 70
     0
  0
APPID
  2
AUTOCAD_POSTSCRIPT_FIGURE
 70
     0
  0
APPID
  2
ACAD_EXEMPT_FROM_CAD_STANDARDS
 70
     0
  0
APPID
  2
ACAD_PSEXT
 70
     0
  0
APPID
  2
ACAUTHENVIRON
 70
     0
  0
APPID
  2
GENIUS_GENOENT_13
 70
     0
  0
APPID
  2
GENIUS_GENCFG_13
 70
     0
  0
APPID
  2
GENIUS_GENCFG0_13
 70
     0
  0
APPID
  2
GENIUS_GENCFG1_13
 70
     0
  0
APPID
  2
GENIUS_GENCFG2_13
 70
     0
  0
APPID
  2
GENIUS_GENCFG3_13
 70
     0
  0
APPID
  2
GENIUS_GENCFG4_13
 70
     0
  0
APPID
  2
GENIUS_GEVCFG0_13
 70
     0
  0
APPID
  2
CONTENTBLOCKICON
 70
     0
  0
APPID
  2
CONTENTBLOCKDESCRIPTION
 70
     0
  0
APPID
  2
ACAD_NAV_VCDISPLAY
 70
     0
  0
APPID
  2
ACAD_MLEADERVER
 70
     0
  0
APPID
  2
ACDBDYNAMICBLOCKTRUENAME
 70
     0
  0
APPID
  2
ACDBDYNAMICBLOCKGUID
 70
     0
  0
APPID
  2
ACAD_DSTYLE_DIMRADIAL_EXTENSION
 70
     0
  0
ENDTAB
  0
TABLE
  2
DIMSTYLE
 70
     1
  0
DIMSTYLE
  2
STANDARD
 70
     0
  3

  4

  5

  6

  7

 40
1.0
 41
12.0
 42
20.0
 43
200.0
 44
20.0
 45
0.0
 46
0.0
 47
0.0
 48
0.0
140
64.0
141
0.09
142
0.0
143
25.399999999999999
144
1.0
145
0.0
146
1.0
147
25.0
 71
     0
 72
     0
 73
     0
 74
     0
 75
     0
 76
     0
 77
     1
 78
     8
170
     0
171
     2
172
     1
173
     0
174
     1
175
     0
176
     7
177
     7
178
     7
  0
ENDTAB
  0
TABLE
  2
VIEW
 70
     1
  0
VIEW
  2
ALL
 70
     0
 40
4282.6198079999986
 10
0.0
 20
41.309904000000003
 41
5940.0
 11
0.0
 21
0.0
 31
1.0
 12
0.0
 22
0.0
 32
0.0
 42
50.0
 43
0.0
 44
0.0
 50
0.0
 71
     0
  0
ENDTAB
  0
TABLE
  2
UCS
 70
     0
  0
ENDTAB
  0
TABLE
  2
VPORT
 70
     1
  0
VPORT
  2
*ACTIVE
 70
     0
 10
0.0
 20
0.0
 11
1.0
 21
1.0
 12
260.24930521093972
 22
-79.147329180440465
 13
0.0
 23
0.0
 14
1.0
 24
1.0
 15
0.0
 25
0.0
 16
0.0
 26
0.0
 36
1.0
 17
0.0
 27
0.0
 37
0.0
 40
1078.6372869933689
 41
1.767337807606264
 42
50.0
 43
0.0
 44
0.0
 50
0.0
 51
0.0
 71
     0
 72
  1000
 73
     1
 74
     3
 75
     0
 76
     0
 77
     0
 78
     0
  0
ENDTAB
  0
ENDSEC
  0
SECTION
  2
BLOCKS
  0
ENDSEC
  0
SECTION
  2
ENTITIES
  0
LINE
  8
DETAIL
  6
CONTINUOUS
 62
     5
 10
-148.5871505536679
 20
-238.64170216086251
 30
0.0
 11
-144.28752988957879
 21
-238.40225578739521
 31
0.0
  0
LINE
  8
DETAIL
  6
CONTINUOUS
 62
     5
 10
-138.9768583474515
 20
-255.00003940020181
 30
0.0
 11
139.78614985264991
 21
-255.00003940020181
 31
0.0
  0
LINE
  8
DETAIL
  6
CONTINUOUS
 62
     5
 10
-139.78610554755409
 20
-252.5722978002018
 30
0.0
 11
-139.17917014755491
 21
-252.5722978002018
 31
0.0
  0
LINE
  8
DETAIL
  6
CONTINUOUS
 62
     5
 10
141.00002065264829
 20
-252.16767419999911
 30
0.0
 11
139.78614985264991
 21
-252.16767419999911
 31
0.0
  0
LINE
  8
DETAIL
  6
CONTINUOUS
 62
     5
 10
-140.19072914745169
 20
-252.16767419999911
 30
0.0
 11
-139.17917014755491
 21
-252.16767419999911
 31
0.0
  0
LINE
  8
DETAIL
  6
CONTINUOUS
 62
     5
 10
-140.19072914745169
 20
-251.3584270002016
 30
0.0
 11
-140.99993582429761
 21
-251.3584270002016
 31
0.0
  0
LINE
  8
DETAIL
  6
CONTINUOUS
 62
     5
 10
-143.47829589735099
 20
-250.36085507340539
 30
0.0
 11
-142.66904869755399
 21
-250.36085507340539
 31
0.0
  0
LINE
  8
DETAIL
  6
CONTINUOUS
 62
     5
 10
-140.19072914745169
 20
-248.8435165734052
 30
0.0
 11
-141.60691174755169
 21
-248.8435165734052
 31
0.0
  0
LINE
  8
DETAIL
  6
CONTINUOUS
 62
     5
 10
-141.60691174755169
 20
-247.17444422340549
 30
0.0
 11
-142.66904869755399
 21
-247.17444422340549
 31
0.0
  0
LINE
  8
DETAIL
  6
CONTINUOUS
 62
     5
 10
-141.60691174755169
 20
-243.43167592350599
 30
0.0
 11
-142.66904869755399
 21
-243.43167592350599
 31
0.0
  0
LINE
  8
DETAIL
  6
CONTINUOUS
 62
     5
 10
-141.60691174755169
 20
-242.1166466502016
 30
0.0
 11
-142.66904869755399
 21
-242.1166466502016
 31
0.0
  0
LINE
  8
DETAIL
  6
CONTINUOUS
 62
     5
 10
-144.28754309745179
 20
-239.84064147360749
 30
0.0
 11
-143.47829589735099
 21
-239.84064147360749
 31
0.0
  0
LINE
  8
DETAIL
  6
CONTINUOUS
 62
     5
 10
-141.60691174755169
 20
-238.37387834999959
 30
0.0
 11
-142.66904869755399
 21
-238.37387834999959
 31
0.0
  0
LINE
  8
DETAIL
  6
CONTINUOUS
 62
     5
 10
-140.19072914745169
 20
-236.70480599999951
 30
0.0
 11
-141.60691174755169
 21
-236.70480599999951
 31
0.0
  0
LINE
  8
DETAIL
  6
CONTINUOUS
 62
     5
 10
-159.06766289755339
 20
-233.56897567350671
 30
0.0
 11
-144.28754309745179
 21
-233.56897567350671
 31
0.0
  0
LINE
  8
DETAIL
  6
CONTINUOUS
 62
     5
 10
-143.47829589735099
 20
-230.9389222734051
 30
0.0
 11
-142.66904869755399
 21
-230.9389222734051
 31
0.0
  0
LINE
  8
DETAIL
  6
CONTINUOUS
 62
     5
 10
84.786128452649791
 20
-229.0086079002015
 30
0.0
 11
-103.7861697474509
 21
-229.0086079002013
 31
0.0
  0
LINE
  8
DETAIL
  6
CONTINUOUS
 62
     5
 10
-201.57224149745119
 20
-230.53429867350701
 30
0.0
 11
-145.09679029755441
 21
-230.53429867350701
 31
0.0
  0
LINE
  8
DETAIL
  6
CONTINUOUS
 62
     5
 10
-143.6977925313104
 20
-230.53429867350701
 30
0.0
 11
-143.47829589735099
 21
-230.53429867350701
 31
0.0
  0
LINE
  8
DETAIL
  6
CONTINUOUS
 62
     5
 10
-117.3408541475537
 20
-229.92736070010031
 30
0.0
 11
-104.9303864678168
 21
-229.92736070010031
 31
0.0
  0
LINE
  8
DETAIL
  6
CONTINUOUS
 62
     5
 10
85.930345172710062
 20
-229.92736070010031
 30
0.0
 11
98.121212852446646
 21
-229.92736070010031
 31
0.0
  0
LINE
  8
DETAIL
  6
CONTINUOUS
 62
     5
 10
-145.09679029755441
 20
-229.0169601735067
 30
0.0
 11
-143.47829589735099
 21
-229.0169601735067
 31
0.0
  0
LINE
  8
DETAIL
  6
CONTINUOUS
 62
     5
 10
-145.09679029755441
 20
-228.91580427360779
 30
0.0
 11
-143.47829589735099
 21
-228.91580427360779
 31
0.0
  0
LINE
  8
DETAIL
  6
CONTINUOUS
 62
     5
 10
-142.66904869755399
 20
-206.76266217360791
 30
0.0
 11
-140.19072914745169
 21
-206.76266217360791
 31
0.0
  0
LINE
  8
DETAIL
  6
CONTINUOUS
 62
     5
 10
-142.66904869755399
 20
-203.72798517360769
 30
0.0
 11
-140.19072914745169
 21
-203.72798517360769
 31
0.0
  0
LINE
  8
DETAIL
  6
CONTINUOUS
 62
     5
 10
-141.15171019755229
 20
-192.19621257360791
 30
0.0
 11
-142.66904869755399
 21
-192.19621257360791
 31
0.0
  0
LINE
  8
DETAIL
  6
CONTINUOUS
 62
     5
 10
-140.19072914745169
 20
-190.78002997350649
 30
0.0
 11
-141.15171019755229
 21
-190.78002997350649
 31
0.0
  0
LINE
  8
DETAIL
  6
CONTINUOUS
 62
     5
 10
-148.5871505536679
 20
-241.84882283933871
 30
0.0
 11
-143.47829589735099
 21
-242.12910650168101
 31
0.0
  0
LINE
  8
DETAIL
  6
CONTINUOUS
 62
     5
 10
-140.19072914745169
 20
-186.5314821735067
 30
0.0
 11
-141.15171019755229
 21
-186.5314821735067
 31
0.0
  0
LINE
  8
DETAIL
  6
CONTINUOUS
 62
     5
 10
-141.15171019755229
 20
-185.11529957340531
 30
0.0
 11
-142.66904869755399
 21
-185.11529957340531
 31
0.0
  0
LINE
  8
DETAIL
  6
CONTINUOUS
 62
     5
 10
-142.66904869755399
 20
-183.09218157360809
 30
0.0
 11
-140.19072914745169
 21
-183.09218157360809
 31
0.0
  0
LINE
  8
DETAIL
  6
CONTINUOUS
 62
     5
 10
-142.66904869755399
 20
-180.05750457360801
 30
0.0
 11
-140.19072914745169
 21
-180.05750457360801
 31
0.0
  0
LINE
  8
DETAIL
  6
CONTINUOUS
 62
     5
 10
96.098094852649396
 20
-171.9650300001006
 30
0.0
 11
93.063417852649764
 21
-171.9650300001006
 31
0.0
  0
LINE
  8
DETAIL
  6
CONTINUOUS
 62
     5
 10
-115.3177361474509
 20
-171.9650300001006
 30
0.0
 11
-112.2830591474512
 21
-171.9650300001006
 31
0.0
  0
LINE
  8
DETAIL
  6
CONTINUOUS
 62
     5
 10
-142.66904869755399
 20
-170.59942792350671
 30
0.0
 11
-140.19072914745169
 21
-170.59942792350671
 31
0.0
  0
LINE
  8
DETAIL
  6
CONTINUOUS
 62
     5
 10
-170.14474484877701
 20
-168.9303530001005
 30
0.0
 11
-122.0951814473492
 21
-168.9303530001005
 31
0.0
  0
LINE
  8
DETAIL
  6
CONTINUOUS
 62
     5
 10
122.0951611524479
 20
-168.9303530001005
 30
0.0
 11
170.1447245538757
 21
-168.9303530001005
 31
0.0
  0
LINE
  8
DETAIL
  6
CONTINUOUS
 62
     5
 10
-128.86126844921549
 20
-152.23962110405981
 30
0.0
 11
-152.83521664755341
 21
-152.23962110405981
 31
0.0
  0
LINE
  8
DETAIL
  6
CONTINUOUS
 62
     5
 10
131.30034815431009
 20
-152.23962110405981
 30
0.0
 11
153.4421963526502
 21
-152.23962110405981
 31
0.0
  0
LINE
  8
DETAIL
  6
CONTINUOUS
 62
     5
 10
96.098094852649396
 20
-151.73384999999939
 30
0.0
 11
93.063417852649764
 21
-151.73384999999939
 31
0.0
  0
LINE
  8
DETAIL
  6
CONTINUOUS
 62
     5
 10
-115.3177361474509
 20
-151.73384999999939
 30
0.0
 11
-112.2830591474512
 21
-151.73384999999939
 31
0.0
  0
LINE
  8
DETAIL
  6
CONTINUOUS
 62
     5
 10
153.44219625068311
 20
-142.12404789624199
 30
0.0
 11
131.30034805265041
 21
-142.12404789624199
 31
0.0
  0
LINE
  8
DETAIL
  6
CONTINUOUS
 62
     5
 10
-152.83521654558811
 20
-142.12404789624199
 30
0.0
 11
-128.86126834755211
 21
-142.12404789624199
 31
0.0
  0
LINE
  8
DETAIL
  6
CONTINUOUS
 62
     5
 10
-143.47829589735099
 20
-72.263430698620809
 30
0.0
 11
-143.8287590757491
 21
-72.285482478260064
 31
0.0
  0
LINE
  8
DETAIL
  6
CONTINUOUS
 62
     5
 10
-148.5871505536679
 20
-72.543714360963563
 30
0.0
 11
-143.8287590757491
 21
-72.285482478260064
 31
0.0
  0
LINE
  8
DETAIL
  6
CONTINUOUS
 62
     5
 10
-141.50575584735179
 20
-123.3090421002014
 30
0.0
 11
-127.28615874459589
 21
-123.3090421002014
 31
0.0
  0
LINE
  8
DETAIL
  6
CONTINUOUS
 62
     5
 10
129.72523844969419
 20
-123.3090421002014
 30
0.0
 11
142.11273555244679
 21
-123.3090421002014
 31
0.0
  0
LINE
  8
DETAIL
  6
CONTINUOUS
 62
     5
 10
-140.19072914745169
 20
-120.88130050020141
 30
0.0
 11
-141.50575584735179
 21
-120.88130050020141
 31
0.0
  0
LINE
  8
DETAIL
  6
CONTINUOUS
 62
     5
 10
141.00002065264829
 20
-120.88130050020141
 30
0.0
 11
142.11273555244679
 21
-120.88130050020141
 31
0.0
  0
LINE
  8
DETAIL
  6
CONTINUOUS
 62
     5
 10
-198.9999629474523
 20
-119.26280609999939
 30
0.0
 11
-140.19072914745169
 21
-119.26280609999939
 31
0.0
  0
LINE
  8
DETAIL
  6
CONTINUOUS
 62
     5
 10
141.00002065264829
 20
-119.26280609999939
 30
0.0
 11
199.00004265254941
 21
-119.26280609999939
 31
0.0
  0
LINE
  8
DETAIL
  6
CONTINUOUS
 62
     5
 10
-142.66904869755399
 20
-115.722352173608
 30
0.0
 11
-140.19072914745169
 21
-115.722352173608
 31
0.0
  0
LINE
  8
DETAIL
  6
CONTINUOUS
 62
     5
 10
-142.66904869755399
 20
-112.6876751736079
 30
0.0
 11
-140.19072914745169
 21
-112.6876751736079
 31
0.0
  0
LINE
  8
DETAIL
  6
CONTINUOUS
 62
     5
 10
-145.09679029755441
 20
-88.916038673405396
 30
0.0
 11
-201.57224149745119
 21
-88.916038673405396
 31
0.0
  0
LINE
  8
DETAIL
  6
CONTINUOUS
 62
     5
 10
-143.47829589735099
 20
-84.262867273506572
 30
0.0
 11
-142.66904869755399
 21
-84.262867273506572
 31
0.0
  0
LINE
  8
DETAIL
  6
CONTINUOUS
 62
     5
 10
-144.28754309745179
 20
-79.609695873607734
 30
0.0
 11
-143.47829589735099
 21
-79.609695873607734
 31
0.0
  0
LINE
  8
DETAIL
  6
CONTINUOUS
 62
     5
 10
-140.19072914745169
 20
-77.687731199999462
 30
0.0
 11
-141.60691174755169
 21
-77.687731199999462
 31
0.0
  0
LINE
  8
DETAIL
  6
CONTINUOUS
 62
     5
 10
-141.60691174755169
 20
-76.018658849999369
 30
0.0
 11
-142.66904869755399
 21
-76.018658849999369
 31
0.0
  0
LINE
  8
DETAIL
  6
CONTINUOUS
 62
     5
 10
-141.60691174755169
 20
-72.275890550100698
 30
0.0
 11
-142.66904869755399
 21
-72.275890550100698
 31
0.0
  0
LINE
  8
DETAIL
  6
CONTINUOUS
 62
     5
 10
-143.47829589735099
 20
-72.275890550100698
 30
0.0
 11
-143.50535269481131
 21
-72.275890550100698
 31
0.0
  0
LINE
  8
DETAIL
  6
CONTINUOUS
 62
     5
 10
-140.19072914745169
 20
-70.606818200100179
 30
0.0
 11
-141.60691174755169
 21
-70.606818200100179
 31
0.0
  0
LINE
  8
DETAIL
  6
CONTINUOUS
 62
     5
 10
-143.47829589735099
 20
-69.089482273506533
 30
0.0
 11
-142.66904869755399
 21
-69.089482273506533
 31
0.0
  0
LINE
  8
DETAIL
  6
CONTINUOUS
 62
     5
 10
98.121212852446646
 20
-34.494161900100828
 30
0.0
 11
85.999999252650014
 21
-34.494161900100828
 31
0.0
  0
LINE
  8
DETAIL
  6
CONTINUOUS
 62
     5
 10
-105.000040547453
 20
-34.494161900100828
 30
0.0
 11
-117.3408541475537
 21
-34.494161900100828
 31
0.0
  0
LINE
  8
DETAIL
  6
CONTINUOUS
 62
     5
 10
-105.000040547453
 20
-28.00862529999927
 30
0.0
 11
85.999999252649104
 21
-28.00862529999927
 31
0.0
  0
LINE
  8
DETAIL
  6
CONTINUOUS
 62
     5
 10
-148.5871505536679
 20
-75.750835039136064
 30
0.0
 11
-143.47829589735099
 21
-76.031118701782603
 31
0.0
  0
LINE
  8
DETAIL
  6
CONTINUOUS
 62
     5
 10
-140.4472269686803
 20
-254.804206313213
 30
0.0
 11
-133.82998183243669
 21
-259.1014955508399
 31
0.0
  0
LINE
  8
DETAIL
  6
CONTINUOUS
 62
     5
 10
-138.65982910777259
 20
-255.00003940020181
 30
0.0
 11
-133.38923421835261
 21
-258.42280374196298
 31
0.0
  0
LINE
  8
DETAIL
  6
CONTINUOUS
 62
     5
 10
-140.19072914745169
 20
-3.6416123999990759
 30
0.0
 11
-140.99993582429761
 21
-3.6416123999990759
 31
0.0
  0
LINE
  8
DETAIL
  6
CONTINUOUS
 62
     5
 10
-140.39304094755329
 20
-2.8323652002020481
 30
0.0
 11
-139.17917014755491
 21
-2.8323652002020481
 31
0.0
  0
LINE
  8
DETAIL
  6
CONTINUOUS
 62
     5
 10
139.78614985264991
 20
-2.8323652002020481
 30
0.0
 11
141.00002065264829
 21
-2.8323652002020481
 31
0.0
  0
LINE
  8
DETAIL
  6
CONTINUOUS
 62
     5
 10
-138.9768583474515
 20
0.0000000000002274
 30
0.0
 11
139.78614985264991
 21
0.0000000000002274
 31
0.0
  0
LINE
  8
DETAIL
  6
CONTINUOUS
 62
     5
 10
-120.3755311475534
 20
-226.89268370010021
 30
0.0
 11
-117.3408541475537
 21
-229.92736070010031
 31
0.0
  0
LINE
  8
DETAIL
  6
CONTINUOUS
 62
     5
 10
-175.1517064481659
 20
-166.85640159928539
 30
0.0
 11
-196.92601154663589
 21
-142.57949650081471
 31
0.0
  0
LINE
  8
DETAIL
  6
CONTINUOUS
 62
     5
 10
-119.55714606705899
 20
-147.49444008039359
 30
0.0
 11
-115.3177361474509
 21
-151.73384999999939
 31
0.0
  0
LINE
  8
DETAIL
  6
CONTINUOUS
 62
     5
 10
101.15588985244629
 20
-177.02282500020169
 30
0.0
 11
96.098094852649396
 21
-171.9650300001006
 31
0.0
  0
LINE
  8
DETAIL
  6
CONTINUOUS
 62
     5
 10
-133.38923421835261
 20
3.422764341762786
 30
0.0
 11
-133.82998183243669
 21
4.1014561506383416
 31
0.0
  0
LINE
  8
DETAIL
  6
CONTINUOUS
 62
     5
 10
-115.5833545678024
 20
-159.06817417224761
 30
0.0
 11
-115.729369477348
 21
-158.722137837118
 31
0.0
  0
LINE
  8
DETAIL
  6
CONTINUOUS
 62
     5
 10
-117.4398499601166
 20
-154.3128720613652
 30
0.0
 11
-117.50429546550821
 21
-154.1585356553758
 31
0.0
  0
LINE
  8
DETAIL
  6
CONTINUOUS
 62
     5
 10
-115.729369477348
 20
-158.722137837118
 30
0.0
 11
-115.87021240478769
 21
-158.38066440742679
 31
0.0
  0
LINE
  8
DETAIL
  6
CONTINUOUS
 62
     5
 10
-115.87021240478769
 20
-158.38066440742679
 30
0.0
 11
-115.9389031957062
 21
-158.2111968855431
 31
0.0
  0
LINE
  8
DETAIL
  6
CONTINUOUS
 62
     5
 10
-115.9389031957062
 20
-158.2111968855431
 30
0.0
 11
-116.00631419201549
 21
-158.04268013342579
 31
0.0
  0
LINE
  8
DETAIL
  6
CONTINUOUS
 62
     5
 10
-117.50429546550821
 20
-154.1585356553758
 30
0.0
 11
-117.565828834161
 21
-154.0027088785439
 31
0.0
  0
LINE
  8
DETAIL
  6
CONTINUOUS
 62
     5
 10
-116.00631419201549
 20
-158.04268013342579
 30
0.0
 11
-116.0723650039135
 21
-157.8752372469819
 31
0.0
  0
LINE
  8
DETAIL
  6
CONTINUOUS
 62
     5
 10
-117.4398499601166
 20
-153.6935010690934
 30
0.0
 11
-117.71028334132011
 21
-153.00273739279899
 31
0.0
  0
LINE
  8
DETAIL
  6
CONTINUOUS
 62
     5
 10
-116.0723650039135
 20
-157.8752372469819
 30
0.0
 11
-116.1369187601822
 21
-157.70881286095599
 31
0.0
  0
LINE
  8
DETAIL
  6
CONTINUOUS
 62
     5
 10
-116.1369187601822
 20
-157.70881286095599
 30
0.0
 11
-116.199787460152
 21
-157.54354799588029
 31
0.0
  0
LINE
  8
DETAIL
  6
CONTINUOUS
 62
     5
 10
-117.71028334132011
 20
-153.00273739279899
 30
0.0
 11
-117.9758265095688
 21
-152.2998487209959
 31
0.0
  0
LINE
  8
DETAIL
  6
CONTINUOUS
 62
     5
 10
-117.565828834161
 20
-154.0027088785439
 30
0.0
 11
-117.6244500660696
 21
-153.84716188466811
 31
0.0
  0
LINE
  8
DETAIL
  6
CONTINUOUS
 62
     5
 10
-117.0659852287326
 20
-155.37546239999921
 30
0.0
 11
-117.21655983151049
 21
-154.97247329139529
 31
0.0
  0
LINE
  8
DETAIL
  6
CONTINUOUS
 62
     5
 10
-116.199787460152
 20
-157.54354799588029
 30
0.0
 11
-116.2610441011593
 21
-157.37897659121771
 31
0.0
  0
LINE
  8
DETAIL
  6
CONTINUOUS
 62
     5
 10
-117.21655983151049
 20
-154.97247329139529
 30
0.0
 11
-117.2663415579291
 21
-154.83794943454649
 31
0.0
  0
LINE
  8
DETAIL
  6
CONTINUOUS
 62
     5
 10
-203.19073589735089
 20
-228.91580427360779
 30
0.0
 11
-203.19073589735089
 21
-90.534533073607946
 31
0.0
  0
LINE
  8
DETAIL
  6
CONTINUOUS
 62
     5
 10
-198.9999629474523
 20
-137.57253490142719
 30
0.0
 11
-198.9999629474523
 21
-119.26280609999939
 31
0.0
  0
LINE
  8
DETAIL
  6
CONTINUOUS
 62
     5
 10
101.15588985244629
 20
-37.528838900100467
 30
0.0
 11
98.121212852446646
 21
-34.494161900100828
 31
0.0
  0
LINE
  8
DETAIL
  6
CONTINUOUS
 62
     5
 10
-117.2428851649902
 20
-154.2310140345464
 30
0.0
 11
-117.39089539105321
 21
-153.82807718004619
 31
0.0
  0
LINE
  8
DETAIL
  6
CONTINUOUS
 62
     5
 10
-117.9758265095688
 20
-152.2998487209959
 30
0.0
 11
-118.2373567499299
 21
-151.58241901167429
 31
0.0
  0
LINE
  8
DETAIL
  6
CONTINUOUS
 62
     5
 10
-117.39089539105321
 20
-153.82807718004619
 30
0.0
 11
-117.4398499601166
 21
-153.6935010690934
 31
0.0
  0
LINE
  8
DETAIL
  6
CONTINUOUS
 62
     5
 10
-116.2610441011593
 20
-157.37897659121771
 30
0.0
 11
-116.3206487304697
 21
-157.214836342235
 31
0.0
  0
LINE
  8
DETAIL
  6
CONTINUOUS
 62
     5
 10
-117.6244500660696
 20
-153.84716188466811
 30
0.0
 11
-117.68015916063
 21
-153.6935010690934
 31
0.0
  0
LINE
  8
DETAIL
  6
CONTINUOUS
 62
     5
 10
-117.2428851649902
 20
-154.2310140345464
 30
0.0
 11
-117.2015861215796
 21
-154.34499154279069
 31
0.0
  0
LINE
  8
DETAIL
  6
CONTINUOUS
 62
     5
 10
-117.2663415579291
 20
-154.83794943454649
 30
0.0
 11
-117.3074382314762
 21
-154.7238746779542
 31
0.0
  0
LINE
  8
DETAIL
  6
CONTINUOUS
 62
     5
 10
-116.3206487304697
 20
-157.214836342235
 30
0.0
 11
-116.3787521976237
 21
-157.05065700327461
 31
0.0
  0
LINE
  8
DETAIL
  6
CONTINUOUS
 62
     5
 10
-118.2373567499299
 20
-151.58241901167429
 30
0.0
 11
-118.4922422069076
 21
-150.85769639056051
 31
0.0
  0
LINE
  8
DETAIL
  6
CONTINUOUS
 62
     5
 10
-116.3787521976237
 20
-157.05065700327461
 30
0.0
 11
-116.4354827237939
 21
-156.88586866503081
 31
0.0
  0
LINE
  8
DETAIL
  6
CONTINUOUS
 62
     5
 10
-117.2015861215796
 20
-154.34499154279069
 30
0.0
 11
-117.15833645121801
 21
-154.47095649768309
 31
0.0
  0
LINE
  8
DETAIL
  6
CONTINUOUS
 62
     5
 10
-118.4922422069076
 20
-150.85769639056051
 30
0.0
 11
-118.7384871479308
 21
-150.13044575695929
 31
0.0
  0
LINE
  8
DETAIL
  6
CONTINUOUS
 62
     5
 10
-117.3074382314762
 20
-154.7238746779542
 30
0.0
 11
-117.3500551898933
 21
-154.59786753042891
 31
0.0
  0
LINE
  8
DETAIL
  6
CONTINUOUS
 62
     5
 10
-116.4354827237939
 20
-156.88586866503081
 30
0.0
 11
-116.49086823894049
 21
-156.72050801340919
 31
0.0
  0
LINE
  8
DETAIL
  6
CONTINUOUS
 62
     5
 10
-117.15833645121801
 20
-154.47095649768309
 30
0.0
 11
-117.11313615360361
 21
-154.60827619213501
 31
0.0
  0
LINE
  8
DETAIL
  6
CONTINUOUS
 62
     5
 10
-118.7384871479308
 20
-150.13044575695929
 30
0.0
 11
-118.975060490814
 21
-149.40570075024681
 31
0.0
  0
LINE
  8
DETAIL
  6
CONTINUOUS
 62
     5
 10
-116.49086823894049
 20
-156.72050801340919
 30
0.0
 11
-116.5449653164151
 21
-156.554337551858
 31
0.0
  0
LINE
  8
DETAIL
  6
CONTINUOUS
 62
     5
 10
-117.3500551898933
 20
-154.59786753042891
 30
0.0
 11
-117.3941924325691
 21
-154.46057623387759
 31
0.0
  0
LINE
  8
DETAIL
  6
CONTINUOUS
 62
     5
 10
-117.11313615360361
 20
-154.60827619213501
 30
0.0
 11
-117.0659852287326
 21
-154.75609140772741
 31
0.0
  0
LINE
  8
DETAIL
  6
CONTINUOUS
 62
     5
 10
-116.5449653164151
 20
-156.554337551858
 30
0.0
 11
-116.59781624626611
 21
-156.38760991723601
 31
0.0
  0
LINE
  8
DETAIL
  6
CONTINUOUS
 62
     5
 10
-118.975060490814
 20
-149.40570075024681
 30
0.0
 11
-119.2001740885471
 21
-148.6894611769101
 31
0.0
  0
LINE
  8
DETAIL
  6
CONTINUOUS
 62
     5
 10
-117.3941924325691
 20
-154.46057623387759
 30
0.0
 11
-117.4398499601166
 21
-154.3128720613652
 31
0.0
  0
LINE
  8
DETAIL
  6
CONTINUOUS
 62
     5
 10
-116.59781624626611
 20
-156.38760991723601
 30
0.0
 11
-116.6494449881784
 21
-156.22053704683481
 31
0.0
  0
LINE
  8
DETAIL
  6
CONTINUOUS
 62
     5
 10
-119.2001740885471
 20
-148.6894611769101
 30
0.0
 11
-119.41410340392299
 21
-147.9835934370451
 31
0.0
  0
LINE
  8
DETAIL
  6
CONTINUOUS
 62
     5
 10
-116.6494449881784
 20
-156.22053704683481
 30
0.0
 11
-116.6999631084082
 21
-156.0530035422041
 31
0.0
  0
LINE
  8
DETAIL
  6
CONTINUOUS
 62
     5
 10
-116.6999631084082
 20
-156.0530035422041
 30
0.0
 11
-116.7494549424509
 21
-155.88510893225271
 31
0.0
  0
LINE
  8
DETAIL
  6
CONTINUOUS
 62
     5
 10
-119.41410340392299
 20
-147.9835934370451
 30
0.0
 11
-119.6156456830731
 21
-147.29439288524301
 31
0.0
  0
LINE
  8
DETAIL
  6
CONTINUOUS
 62
     5
 10
-117.0659852287326
 20
-154.75609140772741
 30
0.0
 11
-117.0214467656433
 21
-154.90956726034599
 31
0.0
  0
LINE
  8
DETAIL
  6
CONTINUOUS
 62
     5
 10
-116.7494549424509
 20
-155.88510893225271
 30
0.0
 11
-116.7980261422845
 21
-155.71642037250439
 31
0.0
  0
LINE
  8
DETAIL
  6
CONTINUOUS
 62
     5
 10
-119.6156456830731
 20
-147.29439288524301
 30
0.0
 11
-119.8074474295709
 21
-146.61457246603121
 31
0.0
  0
LINE
  8
DETAIL
  6
CONTINUOUS
 62
     5
 10
-116.7980261422845
 20
-155.71642037250439
 30
0.0
 11
-116.84582719177619
 21
-155.54648823671619
 31
0.0
  0
LINE
  8
DETAIL
  6
CONTINUOUS
 62
     5
 10
-117.0214467656433
 20
-154.90956726034599
 30
0.0
 11
-116.9777377280288
 21
-155.06507872513319
 31
0.0
  0
LINE
  8
DETAIL
  6
CONTINUOUS
 62
     5
 10
-116.9777377280288
 20
-155.06507872513319
 30
0.0
 11
-116.84582719177619
 21
-155.54648823671619
 31
0.0
  0
LINE
  8
DETAIL
  6
CONTINUOUS
 62
     5
 10
-119.8074474295709
 20
-146.61457246603121
 30
0.0
 11
-119.99122900241581
 21
-145.94096772748139
 31
0.0
  0
LINE
  8
DETAIL
  6
CONTINUOUS
 62
     5
 10
-119.99122900241581
 20
-145.94096772748139
 30
0.0
 11
-120.16856608086439
 21
-145.2675062099058
 31
0.0
  0
LINE
  8
DETAIL
  6
CONTINUOUS
 62
     5
 10
-120.16856608086439
 20
-145.2675062099058
 30
0.0
 11
-120.34129123321959
 21
-144.58891352936081
 31
0.0
  0
LINE
  8
DETAIL
  6
CONTINUOUS
 62
     5
 10
-120.34129123321959
 20
-144.58891352936081
 30
0.0
 11
-120.5103541519356
 21
-143.89963100395309
 31
0.0
  0
LINE
  8
DETAIL
  6
CONTINUOUS
 62
     5
 10
-120.5103541519356
 20
-143.89963100395309
 30
0.0
 11
-120.6773402879307
 21
-143.1933583176999
 31
0.0
  0
LINE
  8
DETAIL
  6
CONTINUOUS
 62
     5
 10
-120.6773402879307
 20
-143.1933583176999
 30
0.0
 11
-120.8421749356485
 21
-142.46704598619891
 31
0.0
  0
LINE
  8
DETAIL
  6
CONTINUOUS
 62
     5
 10
-120.8421749356485
 20
-142.46704598619891
 30
0.0
 11
-121.0062432288005
 21
-141.71215214568679
 31
0.0
  0
LINE
  8
DETAIL
  6
CONTINUOUS
 62
     5
 10
-121.0062432288005
 20
-141.71215214568679
 30
0.0
 11
-121.16675110324189
 21
-140.9388536191689
 31
0.0
  0
LINE
  8
DETAIL
  6
CONTINUOUS
 62
     5
 10
-122.3737385059367
 20
-133.0665310615143
 30
0.0
 11
-122.456322556468
 21
-132.27271788298569
 31
0.0
  0
LINE
  8
DETAIL
  6
CONTINUOUS
 62
     5
 10
-122.456322556468
 20
-132.27271788298569
 30
0.0
 11
-122.53215396178619
 21
-131.47682632943929
 31
0.0
  0
LINE
  8
DETAIL
  6
CONTINUOUS
 62
     5
 10
-122.53215396178619
 20
-131.47682632943929
 30
0.0
 11
-122.6009510568319
 21
-130.67891388129991
 31
0.0
  0
LINE
  8
DETAIL
  6
CONTINUOUS
 62
     5
 10
-122.6009510568319
 20
-130.67891388129991
 30
0.0
 11
-122.6628077302603
 21
-129.87896137852729
 31
0.0
  0
LINE
  8
DETAIL
  6
CONTINUOUS
 62
     5
 10
-150.12956011448199
 20
-233.56897567350671
 30
0.0
 11
-150.12956011448199
 21
-230.53429867350701
 31
0.0
  0
LINE
  8
DETAIL
  6
CONTINUOUS
 62
     5
 10
-146.51297289735069
 20
-233.56897567350671
 30
0.0
 11
-146.51297289735069
 21
-230.53429867350701
 31
0.0
  0
LINE
  8
DETAIL
  6
CONTINUOUS
 62
     5
 10
-145.50141389745201
 20
-233.56897567350671
 30
0.0
 11
-145.50141389745201
 21
-230.53429867350701
 31
0.0
  0
LINE
  8
DETAIL
  6
CONTINUOUS
 62
     5
 10
-145.09679029755441
 20
-228.91580427360779
 30
0.0
 11
-145.09679029755441
 21
-230.53429867350701
 31
0.0
  0
LINE
  8
DETAIL
  6
CONTINUOUS
 62
     5
 10
-144.28754309745179
 20
-239.84064147360749
 30
0.0
 11
-144.28754309745179
 21
-231.34354587360741
 31
0.0
  0
LINE
  8
DETAIL
  6
CONTINUOUS
 62
     5
 10
-144.28754309745179
 20
-228.91580427360779
 30
0.0
 11
-144.28754309745179
 21
-168.9303530001005
 31
0.0
  0
LINE
  8
DETAIL
  6
CONTINUOUS
 62
     5
 10
-144.28754309745179
 20
-88.106791473607458
 30
0.0
 11
-144.28754309745179
 21
-79.609695873607734
 31
0.0
  0
LINE
  8
DETAIL
  6
CONTINUOUS
 62
     5
 10
-143.47829589735099
 20
-250.36085507340539
 30
0.0
 11
-143.47829589735099
 21
-168.9303530001005
 31
0.0
  0
LINE
  8
DETAIL
  6
CONTINUOUS
 62
     5
 10
-143.47829589735099
 20
-119.26280609999939
 30
0.0
 11
-143.47829589735099
 21
-69.089482273506533
 31
0.0
  0
LINE
  8
DETAIL
  6
CONTINUOUS
 62
     5
 10
-142.66904869755399
 20
-250.36085507340539
 30
0.0
 11
-142.66904869755399
 21
-168.9303530001005
 31
0.0
  0
LINE
  8
DETAIL
  6
CONTINUOUS
 62
     5
 10
-142.66904869755399
 20
-119.26280609999939
 30
0.0
 11
-142.66904869755399
 21
-69.089482273506533
 31
0.0
  0
LINE
  8
DETAIL
  6
CONTINUOUS
 62
     5
 10
-141.60691174755169
 20
-248.8434954368802
 30
0.0
 11
-141.60691174755169
 21
-236.70480599999951
 31
0.0
  0
LINE
  8
DETAIL
  6
CONTINUOUS
 62
     5
 10
-141.60691174755169
 20
-77.687731199999462
 30
0.0
 11
-141.60691174755169
 21
-70.606874348604606
 31
0.0
  0
LINE
  8
DETAIL
  6
CONTINUOUS
 62
     5
 10
-141.50575584735179
 20
-123.3090421002014
 30
0.0
 11
-141.50575584735179
 21
-119.26280609999939
 31
0.0
  0
LINE
  8
DETAIL
  6
CONTINUOUS
 62
     5
 10
-141.15171019755229
 20
-192.19621257360791
 30
0.0
 11
-141.15171019755229
 21
-185.11529957340531
 31
0.0
  0
LINE
  8
DETAIL
  6
CONTINUOUS
 62
     5
 10
-140.99997634755249
 20
-251.3584270002016
 30
0.0
 11
-140.99997634755249
 21
-248.8435165734052
 31
0.0
  0
LINE
  8
DETAIL
  6
CONTINUOUS
 62
     5
 10
-140.99997634755249
 20
-236.70480599999951
 30
0.0
 11
-140.99997634755249
 21
-206.76266217360791
 31
0.0
  0
LINE
  8
DETAIL
  6
CONTINUOUS
 62
     5
 10
-140.99997634755249
 20
-203.72798517360769
 30
0.0
 11
-140.99997634755249
 21
-190.78002997350649
 31
0.0
  0
LINE
  8
DETAIL
  6
CONTINUOUS
 62
     5
 10
-140.99997634755249
 20
-186.5314821735067
 30
0.0
 11
-140.99997634755249
 21
-183.09218157360809
 31
0.0
  0
LINE
  8
DETAIL
  6
CONTINUOUS
 62
     5
 10
-140.99997634755249
 20
-180.05750457360801
 30
0.0
 11
-140.99997634755249
 21
-170.59942792350671
 31
0.0
  0
LINE
  8
DETAIL
  6
CONTINUOUS
 62
     5
 10
-140.99997634755249
 20
-119.26280609999939
 30
0.0
 11
-140.99997634755249
 21
-115.722352173608
 31
0.0
  0
LINE
  8
DETAIL
  6
CONTINUOUS
 62
     5
 10
-140.99997634755249
 20
-112.6876751736079
 30
0.0
 11
-140.99997634755249
 21
-77.687731199999462
 31
0.0
  0
LINE
  8
DETAIL
  6
CONTINUOUS
 62
     5
 10
-140.99997634755249
 20
-70.606818200100179
 30
0.0
 11
-140.99997634755249
 21
-3.6416123999990759
 31
0.0
  0
LINE
  8
DETAIL
  6
CONTINUOUS
 62
     5
 10
-140.39304094755329
 20
-3.6416123999990759
 30
0.0
 11
-140.39304094755329
 21
-2.8323652002020481
 31
0.0
  0
LINE
  8
DETAIL
  6
CONTINUOUS
 62
     5
 10
-140.19072914745169
 20
-2.8323652002020481
 30
0.0
 11
-140.19072914745169
 21
-123.3090421002014
 31
0.0
  0
LINE
  8
DETAIL
  6
CONTINUOUS
 62
     5
 10
-140.19072914745169
 20
-168.9303530001005
 30
0.0
 11
-140.19072914745169
 21
-252.16767419999911
 31
0.0
  0
LINE
  8
DETAIL
  6
CONTINUOUS
 62
     5
 10
-139.17917014755491
 20
-254.19079220010011
 30
0.0
 11
-139.17917014755491
 21
-252.16767419999911
 31
0.0
  0
LINE
  8
DETAIL
  6
CONTINUOUS
 62
     5
 10
-139.17917014755491
 20
-2.8323652002020481
 30
0.0
 11
-139.17917014755491
 21
-2.4277415999993082
 31
0.0
  0
LINE
  8
DETAIL
  6
CONTINUOUS
 62
     5
 10
-140.4472269686803
 20
-0.1958330869881593
 30
0.0
 11
-133.82998183243669
 21
4.1014561506383416
 31
0.0
  0
LINE
  8
DETAIL
  6
CONTINUOUS
 62
     5
 10
-138.65982910777259
 20
0.0000000000002274
 30
0.0
 11
-133.38923421835261
 21
3.422764341762786
 31
0.0
  0
LINE
  8
DETAIL
  6
CONTINUOUS
 62
     5
 10
-121.16675110324189
 20
-140.9388536191689
 30
0.0
 11
-121.3218323858755
 21
-140.15175427536749
 31
0.0
  0
LINE
  8
DETAIL
  6
CONTINUOUS
 62
     5
 10
-121.3218323858755
 20
-140.15175427536749
 30
0.0
 11
-121.47008854003521
 21
-139.35903111488301
 31
0.0
  0
LINE
  8
DETAIL
  6
CONTINUOUS
 62
     5
 10
-121.47008854003521
 20
-139.35903111488301
 30
0.0
 11
-121.6091425988207
 21
-138.57156276194539
 31
0.0
  0
LINE
  8
DETAIL
  6
CONTINUOUS
 62
     5
 10
-121.6091425988207
 20
-138.57156276194539
 30
0.0
 11
-121.7400636825851
 21
-137.78584821560869
 31
0.0
  0
LINE
  8
DETAIL
  6
CONTINUOUS
 62
     5
 10
-121.7400636825851
 20
-137.78584821560869
 30
0.0
 11
-121.8629035562362
 21
-137.0028962058457
 31
0.0
  0
LINE
  8
DETAIL
  6
CONTINUOUS
 62
     5
 10
-121.8629035562362
 20
-137.0028962058457
 30
0.0
 11
-121.97833731918131
 21
-136.22005616473939
 31
0.0
  0
LINE
  8
DETAIL
  6
CONTINUOUS
 62
     5
 10
-121.97833731918131
 20
-136.22005616473939
 30
0.0
 11
-122.0870503668766
 21
-135.43487795902209
 31
0.0
  0
LINE
  8
DETAIL
  6
CONTINUOUS
 62
     5
 10
-122.0870503668766
 20
-135.43487795902209
 30
0.0
 11
-122.1890635760747
 21
-134.6477690150198
 31
0.0
  0
LINE
  8
DETAIL
  6
CONTINUOUS
 62
     5
 10
-122.1890635760747
 20
-134.6477690150198
 30
0.0
 11
-122.28467046620339
 21
-133.85823863729709
 31
0.0
  0
LINE
  8
DETAIL
  6
CONTINUOUS
 62
     5
 10
-122.28467046620339
 20
-133.85823863729709
 30
0.0
 11
-122.3737385059367
 21
-133.0665310615143
 31
0.0
  0
LINE
  8
DETAIL
  6
CONTINUOUS
 62
     5
 10
-120.3755311475534
 20
-37.528838900100467
 30
0.0
 11
-120.3755311475534
 21
-144.44931476517041
 31
0.0
  0
LINE
  8
DETAIL
  6
CONTINUOUS
 62
     5
 10
-120.3755311475534
 20
-177.02282500020169
 30
0.0
 11
-120.3755311475534
 21
-226.89268370010021
 31
0.0
  0
LINE
  8
DETAIL
  6
CONTINUOUS
 62
     5
 10
-117.4398499601166
 20
-154.3128720613652
 30
0.0
 11
-117.4398499601166
 21
-153.6935010690934
 31
0.0
  0
LINE
  8
DETAIL
  6
CONTINUOUS
 62
     5
 10
-117.0659852287326
 20
-155.37546239999921
 30
0.0
 11
-117.0659852287326
 21
-154.75609140772741
 31
0.0
  0
LINE
  8
DETAIL
  6
CONTINUOUS
 62
     5
 10
-112.2830591474512
 20
-151.73384999999939
 30
0.0
 11
-112.2830591474512
 21
-171.9650300001006
 31
0.0
  0
LINE
  8
DETAIL
  6
CONTINUOUS
 62
     5
 10
-105.000040547453
 20
-227.7947371002013
 30
0.0
 11
-105.000040547453
 21
-28.00862529999927
 31
0.0
  0
LINE
  8
DETAIL
  6
CONTINUOUS
 62
     5
 10
-84.970955999999205
 20
-160.18451176293431
 30
0.0
 11
-84.970955999999205
 21
-94.815568637367718
 31
0.0
  0
LINE
  8
DETAIL
  6
CONTINUOUS
 62
     5
 10
-117.3408541475537
 20
-34.494161900100828
 30
0.0
 11
-120.3755311475534
 21
-37.528838900100467
 31
0.0
  0
LINE
  8
DETAIL
  6
CONTINUOUS
 62
     5
 10
-133.38923421835261
 20
-258.42280374196298
 30
0.0
 11
-133.82998183243669
 21
-259.1014955508399
 31
0.0
  0
LINE
  8
DETAIL
  6
CONTINUOUS
 62
     5
 10
-115.3177361474509
 20
-171.9650300001006
 30
0.0
 11
-120.3755311475534
 21
-177.02282500020169
 31
0.0
  0
LINE
  8
DETAIL
  6
CONTINUOUS
 62
     5
 10
84.97095600000101
 20
-94.815568637367718
 30
0.0
 11
84.97095600000101
 21
-160.18451176293431
 31
0.0
  0
LINE
  8
DETAIL
  6
CONTINUOUS
 62
     5
 10
85.999999252650014
 20
-28.00862529999927
 30
0.0
 11
85.999999252650014
 21
-227.7947371002013
 31
0.0
  0
LINE
  8
DETAIL
  6
CONTINUOUS
 62
     5
 10
93.063417852649764
 20
-171.9650300001006
 30
0.0
 11
93.063417852649764
 21
-151.73384999999939
 31
0.0
  0
LINE
  8
DETAIL
  6
CONTINUOUS
 62
     5
 10
101.15588985244629
 20
-226.89268370010021
 30
0.0
 11
101.15588985244629
 21
-177.02282500020169
 31
0.0
  0
LINE
  8
DETAIL
  6
CONTINUOUS
 62
     5
 10
101.15588985244629
 20
-146.67605500020159
 30
0.0
 11
101.15588985244629
 21
-37.528838900100467
 31
0.0
  0
LINE
  8
DETAIL
  6
CONTINUOUS
 62
     5
 10
117.0659649338277
 20
-155.37546239999921
 30
0.0
 11
117.0659649338277
 21
-154.75609140772741
 31
0.0
  0
LINE
  8
DETAIL
  6
CONTINUOUS
 62
     5
 10
117.4398296652116
 20
-154.3128720613652
 30
0.0
 11
117.4398296652116
 21
-153.6935010690934
 31
0.0
  0
LINE
  8
DETAIL
  6
CONTINUOUS
 62
     5
 10
139.78614985264991
 20
-2.4277415999993082
 30
0.0
 11
139.78614985264991
 21
-2.8323652002020481
 31
0.0
  0
LINE
  8
DETAIL
  6
CONTINUOUS
 62
     5
 10
139.78614985264991
 20
-252.5722978002018
 30
0.0
 11
139.78614985264991
 21
-252.16767419999911
 31
0.0
  0
LINE
  8
DETAIL
  6
CONTINUOUS
 62
     5
 10
141.00002065264829
 20
-252.16767419999911
 30
0.0
 11
141.00002065264829
 21
-168.9303530001005
 31
0.0
  0
LINE
  8
DETAIL
  6
CONTINUOUS
 62
     5
 10
141.00002065264829
 20
-123.3090421002014
 30
0.0
 11
141.00002065264829
 21
-2.8323652002020481
 31
0.0
  0
LINE
  8
DETAIL
  6
CONTINUOUS
 62
     5
 10
142.11273555244679
 20
-123.3090421002014
 30
0.0
 11
142.11273555244679
 21
-119.26280609999939
 31
0.0
  0
LINE
  8
DETAIL
  6
CONTINUOUS
 62
     5
 10
122.60093076192879
 20
-130.67891388129991
 30
0.0
 11
122.66278743535899
 21
-129.87896137852729
 31
0.0
  0
LINE
  8
DETAIL
  6
CONTINUOUS
 62
     5
 10
122.5321336668849
 20
-131.47682632943929
 30
0.0
 11
122.60093076192879
 21
-130.67891388129991
 31
0.0
  0
LINE
  8
DETAIL
  6
CONTINUOUS
 62
     5
 10
122.456302261563
 20
-132.27271788298569
 30
0.0
 11
122.5321336668849
 21
-131.47682632943929
 31
0.0
  0
LINE
  8
DETAIL
  6
CONTINUOUS
 62
     5
 10
122.3737182110317
 20
-133.0665310615143
 30
0.0
 11
122.456302261563
 21
-132.27271788298569
 31
0.0
  0
LINE
  8
DETAIL
  6
CONTINUOUS
 62
     5
 10
122.284650171302
 20
-133.85823863729709
 30
0.0
 11
122.3737182110317
 21
-133.0665310615143
 31
0.0
  0
LINE
  8
DETAIL
  6
CONTINUOUS
 62
     5
 10
122.1890432811733
 20
-134.6477690150198
 30
0.0
 11
122.284650171302
 21
-133.85823863729709
 31
0.0
  0
LINE
  8
DETAIL
  6
CONTINUOUS
 62
     5
 10
122.0870300719716
 20
-135.43487795902209
 30
0.0
 11
122.1890432811733
 21
-134.6477690150198
 31
0.0
  0
LINE
  8
DETAIL
  6
CONTINUOUS
 62
     5
 10
121.9783170242781
 20
-136.22005616473939
 30
0.0
 11
122.0870300719716
 21
-135.43487795902209
 31
0.0
  0
LINE
  8
DETAIL
  6
CONTINUOUS
 62
     5
 10
121.86288326133131
 20
-137.0028962058457
 30
0.0
 11
121.9783170242781
 21
-136.22005616473939
 31
0.0
  0
LINE
  8
DETAIL
  6
CONTINUOUS
 62
     5
 10
121.7400433876801
 20
-137.78584821560869
 30
0.0
 11
121.86288326133131
 21
-137.0028962058457
 31
0.0
  0
LINE
  8
DETAIL
  6
CONTINUOUS
 62
     5
 10
121.60912230391931
 20
-138.57156276194539
 30
0.0
 11
121.7400433876801
 21
-137.78584821560869
 31
0.0
  0
LINE
  8
DETAIL
  6
CONTINUOUS
 62
     5
 10
121.47006824513031
 20
-139.35903111488301
 30
0.0
 11
121.60912230391931
 21
-138.57156276194539
 31
0.0
  0
LINE
  8
DETAIL
  6
CONTINUOUS
 62
     5
 10
121.3218120909705
 20
-140.15175427536749
 30
0.0
 11
121.47006824513031
 21
-139.35903111488301
 31
0.0
  0
LINE
  8
DETAIL
  6
CONTINUOUS
 62
     5
 10
121.16673080833699
 20
-140.9388536191689
 30
0.0
 11
121.3218120909705
 21
-140.15175427536749
 31
0.0
  0
LINE
  8
DETAIL
  6
CONTINUOUS
 62
     5
 10
96.098094852649396
 20
-151.73384999999939
 30
0.0
 11
101.15588985244629
 21
-146.67605500020159
 31
0.0
  0
LINE
  8
DETAIL
  6
CONTINUOUS
 62
     5
 10
199.00004265254941
 20
-137.57253490142719
 30
0.0
 11
199.00004265254941
 21
-119.26280609999939
 31
0.0
  0
LINE
  8
DETAIL
  6
CONTINUOUS
 62
     5
 10
121.0062229338955
 20
-141.71215214568679
 30
0.0
 11
121.16673080833699
 21
-140.9388536191689
 31
0.0
  0
LINE
  8
DETAIL
  6
CONTINUOUS
 62
     5
 10
120.8421546410509
 20
-142.46704598619891
 30
0.0
 11
121.0062229338955
 21
-141.71215214568679
 31
0.0
  0
LINE
  8
DETAIL
  6
CONTINUOUS
 62
     5
 10
120.6773199930294
 20
-143.1933583176999
 30
0.0
 11
120.8421546410509
 21
-142.46704598619891
 31
0.0
  0
LINE
  8
DETAIL
  6
CONTINUOUS
 62
     5
 10
120.5103338570307
 20
-143.89963100395309
 30
0.0
 11
120.6773199930294
 21
-143.1933583176999
 31
0.0
  0
LINE
  8
DETAIL
  6
CONTINUOUS
 62
     5
 10
120.34127093831469
 20
-144.58891352936081
 30
0.0
 11
120.5103338570307
 21
-143.89963100395309
 31
0.0
  0
LINE
  8
DETAIL
  6
CONTINUOUS
 62
     5
 10
120.1685457859612
 20
-145.2675062099058
 30
0.0
 11
120.34127093831469
 21
-144.58891352936081
 31
0.0
  0
LINE
  8
DETAIL
  6
CONTINUOUS
 62
     5
 10
119.9912087075127
 20
-145.94096772748139
 30
0.0
 11
120.1685457859612
 21
-145.2675062099058
 31
0.0
  0
LINE
  8
DETAIL
  6
CONTINUOUS
 62
     5
 10
119.8074271346659
 20
-146.61457246603121
 30
0.0
 11
119.9912087075127
 21
-145.94096772748139
 31
0.0
  0
LINE
  8
DETAIL
  6
CONTINUOUS
 62
     5
 10
116.9777174331239
 20
-155.06507872513319
 30
0.0
 11
116.845806896873
 21
-155.54648823671619
 31
0.0
  0
LINE
  8
DETAIL
  6
CONTINUOUS
 62
     5
 10
117.02142647073831
 20
-154.90956726034599
 30
0.0
 11
116.9777174331239
 21
-155.06507872513319
 31
0.0
  0
LINE
  8
DETAIL
  6
CONTINUOUS
 62
     5
 10
116.7980058473813
 20
-155.71642037250439
 30
0.0
 11
116.845806896873
 21
-155.54648823671619
 31
0.0
  0
LINE
  8
DETAIL
  6
CONTINUOUS
 62
     5
 10
119.6156253881682
 20
-147.29439288524301
 30
0.0
 11
119.8074271346659
 21
-146.61457246603121
 31
0.0
  0
LINE
  8
DETAIL
  6
CONTINUOUS
 62
     5
 10
116.749434647546
 20
-155.88510893225271
 30
0.0
 11
116.7980058473813
 21
-155.71642037250439
 31
0.0
  0
LINE
  8
DETAIL
  6
CONTINUOUS
 62
     5
 10
117.0659649338277
 20
-154.75609140772741
 30
0.0
 11
117.02142647073831
 21
-154.90956726034599
 31
0.0
  0
LINE
  8
DETAIL
  6
CONTINUOUS
 62
     5
 10
119.4140831090199
 20
-147.9835934370451
 30
0.0
 11
119.6156253881682
 21
-147.29439288524301
 31
0.0
  0
LINE
  8
DETAIL
  6
CONTINUOUS
 62
     5
 10
116.6999428135032
 20
-156.0530035422041
 30
0.0
 11
116.749434647546
 21
-155.88510893225271
 31
0.0
  0
LINE
  8
DETAIL
  6
CONTINUOUS
 62
     5
 10
116.6494246932734
 20
-156.22053704683481
 30
0.0
 11
116.6999428135032
 21
-156.0530035422041
 31
0.0
  0
LINE
  8
DETAIL
  6
CONTINUOUS
 62
     5
 10
119.2001537936421
 20
-148.6894611769101
 30
0.0
 11
119.4140831090199
 21
-147.9835934370451
 31
0.0
  0
LINE
  8
DETAIL
  6
CONTINUOUS
 62
     5
 10
116.597795951363
 20
-156.38760991723601
 30
0.0
 11
116.6494246932734
 21
-156.22053704683481
 31
0.0
  0
LINE
  8
DETAIL
  6
CONTINUOUS
 62
     5
 10
117.3941721376677
 20
-154.46057623387759
 30
0.0
 11
117.4398296652116
 21
-154.3128720613652
 31
0.0
  0
LINE
  8
DETAIL
  6
CONTINUOUS
 62
     5
 10
118.9750401959091
 20
-149.40570075024681
 30
0.0
 11
119.2001537936421
 21
-148.6894611769101
 31
0.0
  0
LINE
  8
DETAIL
  6
CONTINUOUS
 62
     5
 10
116.5449450215101
 20
-156.554337551858
 30
0.0
 11
116.597795951363
 21
-156.38760991723601
 31
0.0
  0
LINE
  8
DETAIL
  6
CONTINUOUS
 62
     5
 10
117.11311585869861
 20
-154.60827619213501
 30
0.0
 11
117.0659649338277
 21
-154.75609140772741
 31
0.0
  0
LINE
  8
DETAIL
  6
CONTINUOUS
 62
     5
 10
117.3500348949901
 20
-154.59786753042891
 30
0.0
 11
117.3941721376677
 21
-154.46057623387759
 31
0.0
  0
LINE
  8
DETAIL
  6
CONTINUOUS
 62
     5
 10
116.4908479440373
 20
-156.72050801340919
 30
0.0
 11
116.5449450215101
 21
-156.554337551858
 31
0.0
  0
LINE
  8
DETAIL
  6
CONTINUOUS
 62
     5
 10
118.7384668530276
 20
-150.13044575695929
 30
0.0
 11
118.9750401959091
 21
-149.40570075024681
 31
0.0
  0
LINE
  8
DETAIL
  6
CONTINUOUS
 62
     5
 10
117.15831615631301
 20
-154.47095649768309
 30
0.0
 11
117.11311585869861
 21
-154.60827619213501
 31
0.0
  0
LINE
  8
DETAIL
  6
CONTINUOUS
 62
     5
 10
116.43546242889261
 20
-156.88586866503081
 30
0.0
 11
116.4908479440373
 21
-156.72050801340919
 31
0.0
  0
LINE
  8
DETAIL
  6
CONTINUOUS
 62
     5
 10
117.30741793657489
 20
-154.7238746779542
 30
0.0
 11
117.3500348949901
 21
-154.59786753042891
 31
0.0
  0
LINE
  8
DETAIL
  6
CONTINUOUS
 62
     5
 10
118.4922219120044
 20
-150.85769639056051
 30
0.0
 11
118.7384668530276
 21
-150.13044575695929
 31
0.0
  0
LINE
  8
DETAIL
  6
CONTINUOUS
 62
     5
 10
117.2015658266764
 20
-154.34499154279069
 30
0.0
 11
117.15831615631301
 21
-154.47095649768309
 31
0.0
  0
LINE
  8
DETAIL
  6
CONTINUOUS
 62
     5
 10
116.3787319027188
 20
-157.05065700327461
 30
0.0
 11
116.43546242889261
 21
-156.88586866503081
 31
0.0
  0
LINE
  8
DETAIL
  6
CONTINUOUS
 62
     5
 10
118.2373364550249
 20
-151.58241901167429
 30
0.0
 11
118.4922219120044
 21
-150.85769639056051
 31
0.0
  0
LINE
  8
DETAIL
  6
CONTINUOUS
 62
     5
 10
116.3206284355647
 20
-157.214836342235
 30
0.0
 11
116.3787319027188
 21
-157.05065700327461
 31
0.0
  0
LINE
  8
DETAIL
  6
CONTINUOUS
 62
     5
 10
117.26632126302771
 20
-154.83794943454649
 30
0.0
 11
117.30741793657489
 21
-154.7238746779542
 31
0.0
  0
LINE
  8
DETAIL
  6
CONTINUOUS
 62
     5
 10
117.24286487008889
 20
-154.2310140345464
 30
0.0
 11
117.2015658266764
 21
-154.34499154279069
 31
0.0
  0
LINE
  8
DETAIL
  6
CONTINUOUS
 62
     5
 10
117.6244297711664
 20
-153.84716188466811
 30
0.0
 11
117.6801388660288
 21
-153.6935010690934
 31
0.0
  0
LINE
  8
DETAIL
  6
CONTINUOUS
 62
     5
 10
116.2610238062562
 20
-157.37897659121771
 30
0.0
 11
116.3206284355647
 21
-157.214836342235
 31
0.0
  0
LINE
  8
DETAIL
  6
CONTINUOUS
 62
     5
 10
117.9758062146675
 20
-152.2998487209959
 30
0.0
 11
118.2373364550249
 21
-151.58241901167429
 31
0.0
  0
LINE
  8
DETAIL
  6
CONTINUOUS
 62
     5
 10
117.2923926984358
 20
-154.0968336627723
 30
0.0
 11
117.4398296652116
 21
-153.6935010690934
 31
0.0
  0
LINE
  8
DETAIL
  6
CONTINUOUS
 62
     5
 10
117.24286487008889
 20
-154.2310140345464
 30
0.0
 11
117.2923926984358
 21
-154.0968336627723
 31
0.0
  0
LINE
  8
DETAIL
  6
CONTINUOUS
 62
     5
 10
117.1163613720082
 20
-155.24122977412179
 30
0.0
 11
117.26632126302771
 21
-154.83794943454649
 31
0.0
  0
LINE
  8
DETAIL
  6
CONTINUOUS
 62
     5
 10
116.1997671652489
 20
-157.54354799588029
 30
0.0
 11
116.2610238062562
 21
-157.37897659121771
 31
0.0
  0
LINE
  8
DETAIL
  6
CONTINUOUS
 62
     5
 10
117.0659649338277
 20
-155.37546239999921
 30
0.0
 11
117.1163613720082
 21
-155.24122977412179
 31
0.0
  0
LINE
  8
DETAIL
  6
CONTINUOUS
 62
     5
 10
117.5658085392579
 20
-154.0027088785439
 30
0.0
 11
117.6244297711664
 21
-153.84716188466811
 31
0.0
  0
LINE
  8
DETAIL
  6
CONTINUOUS
 62
     5
 10
117.71026304641509
 20
-153.00273739279899
 30
0.0
 11
117.9758062146675
 21
-152.2998487209959
 31
0.0
  0
LINE
  8
DETAIL
  6
CONTINUOUS
 62
     5
 10
116.1368984652772
 20
-157.70881286095599
 30
0.0
 11
116.1997671652489
 21
-157.54354799588029
 31
0.0
  0
LINE
  8
DETAIL
  6
CONTINUOUS
 62
     5
 10
116.0723447090086
 20
-157.8752372469819
 30
0.0
 11
116.1368984652772
 21
-157.70881286095599
 31
0.0
  0
LINE
  8
DETAIL
  6
CONTINUOUS
 62
     5
 10
117.4398296652116
 20
-153.6935010690934
 30
0.0
 11
117.71026304641509
 21
-153.00273739279899
 31
0.0
  0
LINE
  8
DETAIL
  6
CONTINUOUS
 62
     5
 10
116.00629389711411
 20
-158.04268013342579
 30
0.0
 11
116.0723447090086
 21
-157.8752372469819
 31
0.0
  0
LINE
  8
DETAIL
  6
CONTINUOUS
 62
     5
 10
117.5042751706069
 20
-154.1585356553758
 30
0.0
 11
117.5658085392579
 21
-154.0027088785439
 31
0.0
  0
LINE
  8
DETAIL
  6
CONTINUOUS
 62
     5
 10
115.9388829008012
 20
-158.2111968855431
 30
0.0
 11
116.00629389711411
 21
-158.04268013342579
 31
0.0
  0
LINE
  8
DETAIL
  6
CONTINUOUS
 62
     5
 10
115.80039021629
 20
-158.55089786843311
 30
0.0
 11
115.9388829008012
 21
-158.2111968855431
 31
0.0
  0
LINE
  8
DETAIL
  6
CONTINUOUS
 62
     5
 10
115.656988225549
 20
-158.89458564154049
 30
0.0
 11
115.80039021629
 21
-158.55089786843311
 31
0.0
  0
LINE
  8
DETAIL
  6
CONTINUOUS
 62
     5
 10
117.4398296652116
 20
-154.3128720613652
 30
0.0
 11
117.5042751706069
 21
-154.1585356553758
 31
0.0
  0
LINE
  8
DETAIL
  6
CONTINUOUS
 62
     5
 10
115.5833342732012
 20
-159.06817417224761
 30
0.0
 11
115.656988225549
 21
-158.89458564154049
 31
0.0
  0
LINE
  8
DETAIL
  6
CONTINUOUS
 62
     5
 10
98.121212852446646
 20
-229.92736070010031
 30
0.0
 11
101.15588985244629
 21
-226.89268370010021
 31
0.0
  0
LINE
  8
DETAIL
  6
CONTINUOUS
 62
     5
 10
175.15168615326269
 20
-166.85640159928539
 30
0.0
 11
196.92609125173479
 21
-142.57949650081471
 31
0.0
  0
ARC
  8
DETAIL
  6
CONTINUOUS
 62
     5
 10
-127.6779455675005
 20
-128.49646884373851
 30
0.0
 40
5.2022007971782838
 50
344.58838966628622
 51
85.680865329311089
  0
ARC
  8
DETAIL
  6
CONTINUOUS
 62
     5
 10
-191.91904994755259
 20
-137.57253490142719
 30
0.0
 40
7.0809129998988443
 50
180.0
 51
224.99999999998161
  0
ARC
  8
DETAIL
  6
CONTINUOUS
 62
     5
 10
-170.14474484877701
 20
-161.84944000020161
 30
0.0
 40
7.0809129998988443
 50
224.99999999998161
 51
270.0
  0
ARC
  8
DETAIL
  6
CONTINUOUS
 62
     5
 10
-122.0951814473492
 20
-161.84944000020161
 30
0.0
 40
7.0809129998988443
 50
270.0
 51
23.12780847020402
  0
ARC
  8
DETAIL
  6
CONTINUOUS
 62
     5
 10
-128.86126834755211
 20
-147.1818344999995
 30
0.0
 40
5.0577866037568322
 50
269.99999884581092
 51
90.0
  0
ARC
  8
DETAIL
  6
CONTINUOUS
 62
     5
 10
-152.83521664755341
 20
-147.1818344999995
 30
0.0
 40
5.0577866037568322
 50
89.999998845706784
 51
270.0
  0
ARC
  8
DETAIL
  6
CONTINUOUS
 62
     5
 10
-159.06766289755339
 20
-230.53429867350701
 30
0.0
 40
3.0346769999999998
 50
180.0
 51
270.0
  0
CIRCLE
  8
DETAIL
  6
CONTINUOUS
 62
     5
 10
-181.27138294734959
 20
-143.54022209999931
 30
0.0
 40
3.0346769999999998
  0
ARC
  8
DETAIL
  6
CONTINUOUS
 62
     5
 10
-148.48551294734989
 20
-240.23352289188031
 30
0.0
 40
1.6184943998988439
 50
180.41765135980091
 51
266.39959201749087
  0
ARC
  8
DETAIL
  6
CONTINUOUS
 62
     5
 10
-148.48551294734989
 20
-240.2570021083209
 30
0.0
 40
1.6184943998988439
 50
93.600407982509083
 51
179.58234863811461
  0
ARC
  8
DETAIL
  6
CONTINUOUS
 62
     5
 10
-145.09679029755441
 20
-231.34354587360741
 30
0.0
 40
1.6184943998988439
 50
0.0
 51
90.0
  0
ARC
  8
DETAIL
  6
CONTINUOUS
 62
     5
 10
-201.57224149745119
 20
-228.91580427360779
 30
0.0
 40
1.6184943998988439
 50
180.0
 51
270.0
  0
ARC
  8
DETAIL
  6
CONTINUOUS
 62
     5
 10
-139.78610554755409
 20
-253.78616860020111
 30
0.0
 40
1.2138708
 50
90.0
 51
236.99999999998931
  0
ARC
  8
DETAIL
  6
CONTINUOUS
 62
     5
 10
-138.9768583474515
 20
-253.78616860020111
 30
0.0
 40
1.2138708
 50
99.618315368587787
 51
270.0
  0
ARC
  8
DETAIL
  6
CONTINUOUS
 62
     5
 10
-103.7861697474509
 20
-227.7947371002013
 30
0.0
 40
1.2138708
 50
180.0
 51
270.0
  0
ARC
  8
DETAIL
  6
CONTINUOUS
 62
     5
 10
-145.09679029755441
 20
-231.34354587360741
 30
0.0
 40
0.8092472001011558
 50
0.0
 51
90.0
  0
ARC
  8
DETAIL
  6
CONTINUOUS
 62
     5
 10
-138.9768583474515
 20
-253.78616860020111
 30
0.0
 40
0.4046235998988441
 50
120.0440213496895
 51
239.95597865037831
  0
ARC
  8
DETAIL
  6
CONTINUOUS
 62
     5
 10
-31.859866117244561
 20
-123.3090421002014
 30
0.0
 40
91.040310000000005
 50
200.62329653160231
 51
203.127808470204
  0
ARC
  8
DETAIL
  6
CONTINUOUS
 62
     5
 10
-31.859866117244561
 20
-123.3090421002014
 30
0.0
 40
91.040310000000005
 50
184.13834422029879
 51
199.49638078009119
  0
ARC
  8
DETAIL
  6
CONTINUOUS
 62
     5
 10
-148.48551294734989
 20
-74.13553509198141
 30
0.0
 40
1.6184943998988439
 50
180.41765135980091
 51
266.39959201749087
  0
ARC
  8
DETAIL
  6
CONTINUOUS
 62
     5
 10
-148.48551294734989
 20
-74.159014308421547
 30
0.0
 40
1.6184943998988439
 50
93.600407982509083
 51
179.58234863811461
  0
ARC
  8
DETAIL
  6
CONTINUOUS
 62
     5
 10
-201.57224149745119
 20
-90.534533073607946
 30
0.0
 40
1.6184943998988439
 50
90.0
 51
180.0
  0
ARC
  8
DETAIL
  6
CONTINUOUS
 62
     5
 10
-139.78610554755409
 20
-1.2138707999990861
 30
0.0
 40
1.2138708
 50
123.0000000000108
 51
270.0
  0
ARC
  8
DETAIL
  6
CONTINUOUS
 62
     5
 10
-138.96766235653291
 20
-1.22306679091821
 30
0.0
 40
1.223101361824886
 50
90.430787217446465
 51
260.04192939623539
  0
ARC
  8
DETAIL
  6
CONTINUOUS
 62
     5
 10
-145.09679029755441
 20
-88.106791473607458
 30
0.0
 40
0.8092472001011558
 50
270.0
 51
0.0
  0
ARC
  8
DETAIL
  6
CONTINUOUS
 62
     5
 10
170.1447245538757
 20
-161.84944000020161
 30
0.0
 40
7.0809129998988443
 50
270.0
 51
315.00000000001842
  0
ARC
  8
DETAIL
  6
CONTINUOUS
 62
     5
 10
191.91912965264959
 20
-137.57253490142719
 30
0.0
 40
7.0809129998988443
 50
315.00000000001842
 51
0.0
  0
ARC
  8
DETAIL
  6
CONTINUOUS
 62
     5
 10
129.72523844969419
 20
-130.3899551001002
 30
0.0
 40
7.0809129998988443
 50
90.0
 51
175.86165577970121
  0
ARC
  8
DETAIL
  6
CONTINUOUS
 62
     5
 10
122.0951611524479
 20
-161.84944000020161
 30
0.0
 40
7.0809129998988443
 50
156.872191529796
 51
270.0
  0
ARC
  8
DETAIL
  6
CONTINUOUS
 62
     5
 10
153.4421963526502
 20
-147.1818344999995
 30
0.0
 40
5.0577866037568322
 50
270.0
 51
90.000001154293216
  0
ARC
  8
DETAIL
  6
CONTINUOUS
 62
     5
 10
131.30034805265041
 20
-147.1818344999995
 30
0.0
 40
5.0577866037568322
 50
90.0
 51
270.00000115418908
  0
ARC
  8
DETAIL
  6
CONTINUOUS
 62
     5
 10
2.0231078526494461
 20
-252.49924076123401
 30
0.0
 40
2.703110438765254
 50
247.77695615911441
 51
292.22304384088562
  0
ARC
  8
DETAIL
  6
CONTINUOUS
 62
     5
 10
139.78614985264991
 20
-253.78616860020111
 30
0.0
 40
1.2138708
 50
270.0
 51
90.0
  0
ARC
  8
DETAIL
  6
CONTINUOUS
 62
     5
 10
84.786128452649791
 20
-227.7947371002013
 30
0.0
 40
1.2138708
 50
270.0
 51
0.0
  0
ARC
  8
DETAIL
  6
CONTINUOUS
 62
     5
 10
0.0
 20
-127.5000401999994
 30
0.0
 40
91.040310000000005
 50
201.03946978130389
 51
338.96053021869608
  0
ARC
  8
DETAIL
  6
CONTINUOUS
 62
     5
 10
0.0
 20
-127.5000401999994
 30
0.0
 40
91.040310000000005
 50
21.03946978130389
 51
158.96053021869611
  0
ARC
  8
DETAIL
  6
CONTINUOUS
 62
     5
 10
31.859845822343232
 20
-123.3090421002014
 30
0.0
 40
91.040310000000005
 50
340.50361921990878
 51
355.86165577970121
  0
ARC
  8
DETAIL
  6
CONTINUOUS
 62
     5
 10
31.859845822343232
 20
-123.3090421002014
 30
0.0
 40
91.040310000000005
 50
336.872191529796
 51
339.37670346839769
  0
CIRCLE
  8
DETAIL
  6
CONTINUOUS
 62
     5
 10
0.0
 20
-127.5000401999994
 30
0.0
 40
80.0
  0
CIRCLE
  8
DETAIL
  6
CONTINUOUS
 62
     5
 10
0.0
 20
-127.5000401999994
 30
0.0
 40
71.0
  0
ARC
  8
DETAIL
  6
CONTINUOUS
 62
     5
 10
139.78614985264991
 20
-1.2138707999990861
 30
0.0
 40
1.2138708
 50
270.0
 51
90.0
  0
LINE
  8
DETAIL
  6
CONTINUOUS
 62
     5
 10
-148.58715055354421
 20
-243.69949973460069
 30
0.0
 11
-143.47829589735099
 21
-243.43167592350599
 31
0.0
  0
LINE
  8
DETAIL
  6
CONTINUOUS
 62
     5
 10
-148.58715055354421
 20
-246.90662041307749
 30
0.0
 11
-143.4782958972273
 21
-247.1869040754197
 31
0.0
  0
ARC
  8
DETAIL
  6
CONTINUOUS
 62
     5
 10
-148.4855129472262
 20
-245.29132046561861
 30
0.0
 40
1.6184943998988439
 50
180.41765135980091
 51
266.39959201749087
  0
ARC
  8
DETAIL
  6
CONTINUOUS
 62
     5
 10
-148.4855129472262
 20
-245.3147996820596
 30
0.0
 40
1.6184943998988439
 50
93.600407982509083
 51
179.58234863811461
  0
LINE
  8
SIZE
  6
CONTINUOUS
 62
    30
 10
141.00002065264829
 20
17.167634799797948
 30
0.0
 11
141.00002065264829
 21
157.62701656796091
 31
0.0
  0
LINE
  8
SIZE
  6
CONTINUOUS
 62
    30
 10
-140.99997634755249
 20
16.358387600000921
 30
0.0
 11
-140.99997634755249
 21
157.62701656796091
 31
0.0
  0
LINE
  8
SIZE
  6
CONTINUOUS
 62
    30
 10
129.00002065264829
 20
137.62701656796091
 30
0.0
 11
-128.99997634755249
 21
137.62701656796091
 31
0.0
  0
CIRCLE
  8
SIZE
  6
CONTINUOUS
 62
    30
 10
141.00002065264829
 20
137.62701656796091
 30
0.0
 40
6.0
  0
LINE
  8
SIZE
  6
CONTINUOUS
 62
    30
 10
141.00002065264829
 20
137.62701656796091
 30
0.0
 11
129.00002065264829
 21
137.62701656796091
 31
0.0
  0
CIRCLE
  8
SIZE
  6
CONTINUOUS
 62
    30
 10
-140.99997634755249
 20
137.62701656796091
 30
0.0
 40
6.0
  0
LINE
  8
SIZE
  6
CONTINUOUS
 62
    30
 10
-140.99997634755249
 20
137.62701656796091
 30
0.0
 11
-128.99997634755249
 21
137.62701656796091
 31
0.0
  0
TEXT
  8
SIZE
  6
CONTINUOUS
 62
    30
 10
-74.057120704594936
 20
162.62701656796091
 30
0.0
 40
64.0
  1
282
 41
0.9
 72
     1
 11
0.0000221525478992
 21
162.62701656796091
 31
0.0
  0
POINT
  8
DEFPOINTS
  6
CONTINUOUS
 62
    30
 10
141.00002065264829
 20
-2.8323652002020481
 30
0.0
  0
POINT
  8
DEFPOINTS
  6
CONTINUOUS
 62
    30
 10
-140.99997634755249
 20
-3.6416123999990759
 30
0.0
  0
POINT
  8
DEFPOINTS
  6
CONTINUOUS
 62
    30
 10
-140.99997634755249
 20
137.62701656796091
 30
0.0
  0
LINE
  8
SIZE
  6
CONTINUOUS
 62
    30
 10
199.00004265254941
 20
-99.262806099999352
 30
0.0
 11
199.00004265254941
 21
285.62701656796088
 31
0.0
  0
LINE
  8
SIZE
  6
CONTINUOUS
 62
    30
 10
-198.9999629474523
 20
-99.262806099999352
 30
0.0
 11
-198.9999629474523
 21
285.62701656796088
 31
0.0
  0
LINE
  8
SIZE
  6
CONTINUOUS
 62
    30
 10
187.00004265254941
 20
265.62701656796088
 30
0.0
 11
-186.9999629474523
 21
265.62701656796088
 31
0.0
  0
CIRCLE
  8
SIZE
  6
CONTINUOUS
 62
    30
 10
199.00004265254941
 20
265.62701656796088
 30
0.0
 40
6.0
  0
LINE
  8
SIZE
  6
CONTINUOUS
 62
    30
 10
199.00004265254941
 20
265.62701656796088
 30
0.0
 11
187.00004265254941
 21
265.62701656796088
 31
0.0
  0
CIRCLE
  8
SIZE
  6
CONTINUOUS
 62
    30
 10
-198.9999629474523
 20
265.62701656796088
 30
0.0
 40
6.0
  0
LINE
  8
SIZE
  6
CONTINUOUS
 62
    30
 10
-198.9999629474523
 20
265.62701656796088
 30
0.0
 11
-186.9999629474523
 21
265.62701656796088
 31
0.0
  0
TEXT
  8
SIZE
  6
CONTINUOUS
 62
    30
 10
-74.05710300459387
 20
290.62701656796088
 30
0.0
 40
64.0
  1
398
 41
0.9
 72
     1
 11
0.00003985254898
 21
290.62701656796088
 31
0.0
  0
POINT
  8
DEFPOINTS
  6
CONTINUOUS
 62
    30
 10
199.00004265254941
 20
-119.26280609999939
 30
0.0
  0
POINT
  8
DEFPOINTS
  6
CONTINUOUS
 62
    30
 10
-198.9999629474523
 20
-119.26280609999939
 30
0.0
  0
POINT
  8
DEFPOINTS
  6
CONTINUOUS
 62
    30
 10
-198.9999629474523
 20
265.62701656796088
 30
0.0
  0
LINE
  8
SIZE
  6
CONTINUOUS
 62
    30
 10
141.00002065264829
 20
-272.16767419999911
 30
0.0
 11
141.00002065264829
 21
-486.65095501885372
 31
0.0
  0
LINE
  8
SIZE
  6
CONTINUOUS
 62
    30
 10
85.999999252650014
 20
-247.7947371002013
 30
0.0
 11
85.999999252649999
 21
-486.65095501885372
 31
0.0
  0
LINE
  8
SIZE
  6
CONTINUOUS
 62
    30
 10
73.999999252649999
 20
-466.65095501885372
 30
0.0
 11
61.999999252650007
 21
-466.65095501885372
 31
0.0
  0
LINE
  8
SIZE
  6
CONTINUOUS
 62
    30
 10
153.00002065264829
 20
-466.65095501885372
 30
0.0
 11
310.08926350979078
 21
-466.65095501885372
 31
0.0
  0
LINE
  8
SIZE
  6
CONTINUOUS
 62
    30
 10
85.999999252649999
 20
-466.65095501885372
 30
0.0
 11
141.00002065264829
 21
-466.65095501885372
 31
0.0
  0
CIRCLE
  8
SIZE
  6
CONTINUOUS
 62
    30
 10
85.999999252649999
 20
-466.65095501885372
 30
0.0
 40
6.0
  0
LINE
  8
SIZE
  6
CONTINUOUS
 62
    30
 10
85.999999252649999
 20
-466.65095501885372
 30
0.0
 11
73.999999252649999
 21
-466.65095501885372
 31
0.0
  0
CIRCLE
  8
SIZE
  6
CONTINUOUS
 62
    30
 10
141.00002065264829
 20
-466.65095501885372
 30
0.0
 40
6.0
  0
LINE
  8
SIZE
  6
CONTINUOUS
 62
    30
 10
141.00002065264829
 20
-466.65095501885372
 30
0.0
 11
153.00002065264829
 21
-466.65095501885372
 31
0.0
  0
TEXT
  8
SIZE
  6
CONTINUOUS
 62
    30
 10
191.83212065264789
 20
-441.65095501885372
 30
0.0
 40
64.0
  1
55
 41
0.9
 72
     1
 11
238.46069208121929
 21
-441.65095501885372
 31
0.0
  0
POINT
  8
DEFPOINTS
  6
CONTINUOUS
 62
    30
 10
141.00002065264829
 20
-252.16767419999911
 30
0.0
  0
POINT
  8
DEFPOINTS
  6
CONTINUOUS
 62
    30
 10
85.999999252650014
 20
-227.7947371002013
 30
0.0
  0
POINT
  8
DEFPOINTS
  6
CONTINUOUS
 62
    30
 10
85.999999252649999
 20
-466.65095501885372
 30
0.0
  0
LINE
  8
SIZE
  6
CONTINUOUS
 62
    30
 10
85.999999252650014
 20
-247.7947371002013
 30
0.0
 11
85.999999252649999
 21
-486.65095501885372
 31
0.0
  0
LINE
  8
SIZE
  6
CONTINUOUS
 62
    30
 10
-105.000040547453
 20
-247.7947371002013
 30
0.0
 11
-105.000040547453
 21
-486.65095501885372
 31
0.0
  0
LINE
  8
SIZE
  6
CONTINUOUS
 62
    30
 10
73.999999252649999
 20
-466.65095501885372
 30
0.0
 11
-93.000040547452983
 21
-466.65095501885372
 31
0.0
  0
CIRCLE
  8
SIZE
  6
CONTINUOUS
 62
    30
 10
85.999999252649999
 20
-466.65095501885372
 30
0.0
 40
6.0
  0
LINE
  8
SIZE
  6
CONTINUOUS
 62
    30
 10
85.999999252649999
 20
-466.65095501885372
 30
0.0
 11
73.999999252649999
 21
-466.65095501885372
 31
0.0
  0
CIRCLE
  8
SIZE
  6
CONTINUOUS
 62
    30
 10
-105.000040547453
 20
-466.65095501885372
 30
0.0
 40
6.0
  0
LINE
  8
SIZE
  6
CONTINUOUS
 62
    30
 10
-105.000040547453
 20
-466.65095501885372
 30
0.0
 11
-93.000040547452997
 21
-466.65095501885372
 31
0.0
  0
TEXT
  8
SIZE
  6
CONTINUOUS
 62
    30
 10
-65.728592075972898
 20
-441.65095501885372
 30
0.0
 40
64.0
  1
191
 41
0.9
 72
     1
 11
-9.5000206474014846
 21
-441.65095501885372
 31
0.0
  0
POINT
  8
DEFPOINTS
  6
CONTINUOUS
 62
    30
 10
85.999999252650014
 20
-227.7947371002013
 30
0.0
  0
POINT
  8
DEFPOINTS
  6
CONTINUOUS
 62
    30
 10
-105.000040547453
 20
-227.7947371002013
 30
0.0
  0
POINT
  8
DEFPOINTS
  6
CONTINUOUS
 62
    30
 10
-105.000040547453
 20
-466.65095501885372
 30
0.0
  0
LINE
  8
SIZE
  6
CONTINUOUS
 62
    30
 10
-203.19073589735089
 20
-248.91580427360779
 30
0.0
 11
-203.19073589735089
 21
-486.65095501885372
 31
0.0
  0
LINE
  8
SIZE
  6
CONTINUOUS
 62
    30
 10
-140.19072914745169
 20
-272.16767419999911
 30
0.0
 11
-140.1907291474518
 21
-486.65095501885372
 31
0.0
  0
LINE
  8
SIZE
  6
CONTINUOUS
 62
    30
 10
-128.19072914745169
 20
-466.65095501885372
 30
0.0
 11
-116.19072914745171
 21
-466.65095501885372
 31
0.0
  0
LINE
  8
SIZE
  6
CONTINUOUS
 62
    30
 10
-215.19073589735089
 20
-466.65095501885372
 30
0.0
 11
-375.23950732592232
 21
-466.65095501885372
 31
0.0
  0
LINE
  8
SIZE
  6
CONTINUOUS
 62
    30
 10
-140.19072914745169
 20
-466.65095501885372
 30
0.0
 11
-203.19073589735089
 21
-466.65095501885372
 31
0.0
  0
CIRCLE
  8
SIZE
  6
CONTINUOUS
 62
    30
 10
-140.19072914745169
 20
-466.65095501885372
 30
0.0
 40
6.0
  0
LINE
  8
SIZE
  6
CONTINUOUS
 62
    30
 10
-140.19072914745169
 20
-466.65095501885372
 30
0.0
 11
-128.19072914745169
 21
-466.65095501885372
 31
0.0
  0
CIRCLE
  8
SIZE
  6
CONTINUOUS
 62
    30
 10
-203.19073589735089
 20
-466.65095501885372
 30
0.0
 40
6.0
  0
LINE
  8
SIZE
  6
CONTINUOUS
 62
    30
 10
-203.19073589735089
 20
-466.65095501885372
 30
0.0
 11
-215.19073589735089
 21
-466.65095501885372
 31
0.0
  0
TEXT
  8
SIZE
  6
CONTINUOUS
 62
    30
 10
-350.23950732592232
 20
-441.65095501885372
 30
0.0
 40
64.0
  1
63
 41
0.9
 72
     1
 11
-303.61093589735083
 21
-441.65095501885372
 31
0.0
  0
POINT
  8
DEFPOINTS
  6
CONTINUOUS
 62
    30
 10
-203.19073589735089
 20
-228.91580427360779
 30
0.0
  0
POINT
  8
DEFPOINTS
  6
CONTINUOUS
 62
    30
 10
-140.19072914745169
 20
-252.16767419999911
 30
0.0
  0
POINT
  8
DEFPOINTS
  6
CONTINUOUS
 62
    30
 10
-140.19072914745169
 20
-466.65095501885372
 30
0.0
  0
LINE
  8
SIZE
  6
CONTINUOUS
 62
    30
 10
-158.97685834745161
 20
-255.0000394002019
 30
0.0
 11
-448.80926905585977
 21
-255.00003940020201
 31
0.0
  0
LINE
  8
SIZE
  6
CONTINUOUS
 62
    30
 10
-158.97685834745161
 20
0.0000000000002242
 30
0.0
 11
-448.80926905585989
 21
0.0000000000001775
 31
0.0
  0
LINE
  8
SIZE
  6
CONTINUOUS
 62
    30
 10
-428.80926905585977
 20
-243.00003940020201
 30
0.0
 11
-428.80926905585989
 21
-11.999999999999821
 31
0.0
  0
CIRCLE
  8
SIZE
  6
CONTINUOUS
 62
    30
 10
-428.80926905585977
 20
-255.00003940020201
 30
0.0
 40
6.0
  0
LINE
  8
SIZE
  6
CONTINUOUS
 62
    30
 10
-428.80926905585977
 20
-255.00003940020201
 30
0.0
 11
-428.80926905585977
 21
-243.00003940020201
 31
0.0
  0
CIRCLE
  8
SIZE
  6
CONTINUOUS
 62
    30
 10
-428.80926905585989
 20
0.0000000000001808
 30
0.0
 40
6.0
  0
LINE
  8
SIZE
  6
CONTINUOUS
 62
    30
 10
-428.80926905585989
 20
0.0000000000001808
 30
0.0
 11
-428.80926905585989
 21
-11.999999999999821
 31
0.0
  0
TEXT
  8
SIZE
  6
CONTINUOUS
 62
    30
 10
-453.80926905585977
 20
-203.84016255724359
 30
0.0
 40
64.0
  1
255
 50
90.0
 41
0.9
 72
     1
 11
-453.80926905585977
 21
-129.78301970010071
 31
0.0
  0
POINT
  8
DEFPOINTS
  6
CONTINUOUS
 62
    30
 10
-138.97685834745161
 20
-255.0000394002019
 30
0.0
  0
POINT
  8
DEFPOINTS
  6
CONTINUOUS
 62
    30
 10
-138.97685834745161
 20
0.0000000000002274
 30
0.0
  0
POINT
  8
DEFPOINTS
  6
CONTINUOUS
 62
    30
 10
-428.80926905585989
 20
0.0000000000001808
 30
0.0
  0
LINE
  8
BASIS
  6
DASHDOT
 62
     6
 10
0.0
 20
58.888305302591782
 30
0.0
 11
0.0
 21
-317.44278090008203
 31
0.0
  0
LINE
  8
BASIS
  6
DASHDOT
 62
     6
 10
-249.2510888316792
 20
-127.5000401999994
 30
0.0
 11
249.2510685367761
 21
-127.5000401999994
 31
0.0
  0
LINE
  8
SIZE
  6
CONTINUOUS
 62
    30
 10
432.83631412558952
 20
4.4327842381237446
 30
0.0
 11
79.393694894382804
 21
-103.30004493148699
 31
0.0
  0
LINE
  8
SIZE
  6
CONTINUOUS
 62
    30
 10
-79.393715189284123
 20
-151.70002839142811
 30
0.0
 11
-90.872323147139326
 21
-155.198822376484
 31
0.0
  0
TEXT
  8
SIZE
  6
CONTINUOUS
 62
    30
 10
206.95620244596719
 20
-38.282149305092389
 30
0.0
 40
64.0
  1
φ142
 50
16.951743347653739
 41
0.9
 72
     1
 11
311.11637065781889
 21
-6.5330930292709164
 31
0.0
  0
LINE
  8
SIZE
  6
CONTINUOUS
 62
    30
 10
-67.915107231428919
 20
-148.20123440637221
 30
0.0
 11
67.915086936527601
 21
-106.79883891654291
 31
0.0
  0
CIRCLE
  8
SIZE
  6
CONTINUOUS
 62
    30
 10
-67.915107231428919
 20
-148.20123440637221
 30
0.0
 40
6.0
  0
LINE
  8
SIZE
  6
CONTINUOUS
 62
    30
 10
-67.915107231428919
 20
-148.20123440637221
 30
0.0
 11
-79.393715189284109
 21
-151.70002839142811
 31
0.0
  0
CIRCLE
  8
SIZE
  6
CONTINUOUS
 62
    30
 10
67.915086936527601
 20
-106.79883891654291
 30
0.0
 40
6.0
  0
LINE
  8
SIZE
  6
CONTINUOUS
 62
    30
 10
67.915086936527601
 20
-106.79883891654291
 30
0.0
 11
79.393694894382762
 21
-103.30004493148699
 31
0.0
  0
POINT
  8
DEFPOINTS
  6
CONTINUOUS
 62
    30
 10
67.915086936527601
 20
-106.79883891654291
 30
0.0
  0
POINT
  8
DEFPOINTS
  6
CONTINUOUS
 62
    30
 10
-67.915107231428919
 20
-148.20123440637221
 30
0.0
  0
LINE
  8
SIZE
  6
CONTINUOUS
 62
    30
 10
450.56875841083922
 20
-284.61893320713801
 30
0.0
 11
86.869779050665059
 21
-157.79260546430001
 31
0.0
  0
LINE
  8
SIZE
  6
CONTINUOUS
 62
    30
 10
-86.869799345565468
 20
-97.207467858616312
 30
0.0
 11
-98.200641414884927
 21
-93.256263232158659
 31
0.0
  0
TEXT
  8
SIZE
  6
CONTINUOUS
 62
    30
 10
243.0234322425525
 20
-185.76890545954711
 30
0.0
 40
64.0
  1
φ160
 50
340.7757054087611
 41
0.9
 72
     1
 11
345.84273056300572
 21
-221.62326515563149
 31
0.0
  0
LINE
  8
SIZE
  6
CONTINUOUS
 62
    30
 10
-75.538957276246009
 20
-101.15867248507401
 30
0.0
 11
75.538936981345628
 21
-153.84140083784229
 31
0.0
  0
CIRCLE
  8
SIZE
  6
CONTINUOUS
 62
    30
 10
-75.538957276246009
 20
-101.15867248507401
 30
0.0
 40
6.0
  0
LINE
  8
SIZE
  6
CONTINUOUS
 62
    30
 10
-75.538957276246009
 20
-101.15867248507401
 30
0.0
 11
-86.869799345565468
 21
-97.207467858616354
 31
0.0
  0
CIRCLE
  8
SIZE
  6
CONTINUOUS
 62
    30
 10
75.538936981345628
 20
-153.84140083784229
 30
0.0
 40
6.0
  0
LINE
  8
SIZE
  6
CONTINUOUS
 62
    30
 10
75.538936981345628
 20
-153.84140083784229
 30
0.0
 11
86.869779050665059
 21
-157.79260546430001
 31
0.0
  0
POINT
  8
DEFPOINTS
  6
CONTINUOUS
 62
    30
 10
75.538936981345628
 20
-153.84140083784229
 30
0.0
  0
POINT
  8
DEFPOINTS
  6
CONTINUOUS
 62
    30
 10
-75.538957276246009
 20
-101.15867248507401
 30
0.0
  0
LINE
  8
BASIS
  6
DASHDOT
 62
     6
 10
198.99997279990021
 20
-119.26280609999939
 30
0.0
 11
158.99997279990021
 21
-119.26280609999939
 31
0.0
  0
LINE
  8
BASIS
  6
DASHDOT
 62
     6
 10
-158.99997279989839
 20
-119.26280609999939
 30
0.0
 11
-198.99997279989839
 21
-119.26280609999939
 31
0.0
  0
LINE
  8
BASIS
  6
DASHDOT
 62
     6
 10
-178.99997279989839
 20
-99.262806099999352
 30
0.0
 11
-178.99997279989839
 21
-139.26280609999941
 31
0.0
  0
LINE
  8
BASIS
  6
DASHDOT
 62
     6
 10
178.99997279990021
 20
-99.262806099999352
 30
0.0
 11
178.99997279990021
 21
-139.26280609999941
 31
0.0
  0
CIRCLE
  8
FIX
  6
CONTINUOUS
 62
    11
 10
178.99997279990021
 20
-119.26280609999939
 30
0.0
 40
5.5
  0
CIRCLE
  8
FIX
  6
CONTINUOUS
 62
    11
 10
-178.99997279989839
 20
-119.26280609999939
 30
0.0
 40
5.5
  0
LINE
  8
SIZE
  6
CONTINUOUS
 62
    30
 10
178.99997279990021
 20
-159.26280609999941
 30
0.0
 11
178.99997279990021
 21
-614.65095501885355
 31
0.0
  0
LINE
  8
SIZE
  6
CONTINUOUS
 62
    30
 10
-178.99997279989839
 20
-159.26280609999941
 30
0.0
 11
-178.99997279989839
 21
-614.65095501885355
 31
0.0
  0
LINE
  8
SIZE
  6
CONTINUOUS
 62
    30
 10
166.99997279990021
 20
-594.65095501885355
 30
0.0
 11
-166.99997279989839
 21
-594.65095501885355
 31
0.0
  0
CIRCLE
  8
SIZE
  6
CONTINUOUS
 62
    30
 10
178.99997279990021
 20
-594.65095501885355
 30
0.0
 40
6.0
  0
LINE
  8
SIZE
  6
CONTINUOUS
 62
    30
 10
178.99997279990021
 20
-594.65095501885355
 30
0.0
 11
166.99997279990021
 21
-594.65095501885355
 31
0.0
  0
CIRCLE
  8
SIZE
  6
CONTINUOUS
 62
    30
 10
-178.99997279989839
 20
-594.65095501885355
 30
0.0
 40
6.0
  0
LINE
  8
SIZE
  6
CONTINUOUS
 62
    30
 10
-178.99997279989839
 20
-594.65095501885355
 30
0.0
 11
-166.99997279989839
 21
-594.65095501885355
 31
0.0
  0
TEXT
  8
SIZE
  6
CONTINUOUS
 62
    30
 10
-74.057142857141926
 20
-569.65095501885355
 30
0.0
 40
64.0
  1
358
 41
0.9
 72
     1
 11
0.0000000000009095
 21
-569.65095501885355
 31
0.0
  0
POINT
  8
DEFPOINTS
  6
CONTINUOUS
 62
    30
 10
178.99997279990021
 20
-139.26280609999941
 30
0.0
  0
POINT
  8
DEFPOINTS
  6
CONTINUOUS
 62
    30
 10
-178.99997279989839
 20
-139.26280609999941
 30
0.0
  0
POINT
  8
DEFPOINTS
  6
CONTINUOUS
 62
    30
 10
-178.99997279989839
 20
-594.65095501885355
 30
0.0
  0
CIRCLE
  8
DETAIL
  6
CONTINUOUS
 62
     5
 10
181.27138294734959
 20
-143.54022209999931
 30
0.0
 40
3.0346769999999998
  0
LINE
  8
OUTLINE
  6
CONTINUOUS
 62
     3
 10
-148.5871505536679
 20
-238.6417021608622
 30
0.0
 11
-144.28752988957879
 21
-238.40225578739501
 31
0.0
  0
LINE
  8
OUTLINE
  6
CONTINUOUS
 62
     3
 10
-138.6598291077735
 20
-255.00003940020159
 30
0.0
 11
139.78614985264991
 21
-255.00003940020159
 31
0.0
  0
LINE
  8
OUTLINE
  6
CONTINUOUS
 62
     3
 10
-139.78610554755409
 20
-252.57229780020211
 30
0.0
 11
-139.17917014755491
 21
-252.57229780020211
 31
0.0
  0
LINE
  8
OUTLINE
  6
CONTINUOUS
 62
     3
 10
141.00002065264829
 20
-252.16767419999891
 30
0.0
 11
139.78614985264991
 21
-252.16767419999891
 31
0.0
  0
LINE
  8
OUTLINE
  6
CONTINUOUS
 62
     3
 10
-140.19072914745169
 20
-252.16767419999891
 30
0.0
 11
-139.17917014755491
 21
-252.16767419999891
 31
0.0
  0
LINE
  8
OUTLINE
  6
CONTINUOUS
 62
     3
 10
-140.19072914745169
 20
-251.3584270002018
 30
0.0
 11
-140.99993582429761
 21
-251.3584270002018
 31
0.0
  0
LINE
  8
OUTLINE
  6
CONTINUOUS
 62
     3
 10
-143.47829589735099
 20
-250.36085507340519
 30
0.0
 11
-142.66904869755399
 21
-250.36085507340519
 31
0.0
  0
LINE
  8
OUTLINE
  6
CONTINUOUS
 62
     3
 10
-140.99997634755351
 20
-248.84351657340591
 30
0.0
 11
-141.60691174755169
 21
-248.8435165734054
 31
0.0
  0
LINE
  8
OUTLINE
  6
CONTINUOUS
 62
     3
 10
-141.60691174755169
 20
-247.1744442234058
 30
0.0
 11
-142.66904869755399
 21
-247.1744442234058
 31
0.0
  0
LINE
  8
OUTLINE
  6
CONTINUOUS
 62
     3
 10
-159.06766289755339
 20
-233.5689756735064
 30
0.0
 11
-144.28754309745179
 21
-233.5689756735064
 31
0.0
  0
LINE
  8
OUTLINE
  6
CONTINUOUS
 62
     3
 10
-201.57224149745119
 20
-230.53429867350681
 30
0.0
 11
-162.10233989755309
 21
-230.53429867350681
 31
0.0
  0
LINE
  8
OUTLINE
  6
CONTINUOUS
 62
     3
 10
-148.5871505536679
 20
-241.84882283933891
 30
0.0
 11
-143.47829589735099
 21
-242.12910650168121
 31
0.0
  0
LINE
  8
OUTLINE
  6
CONTINUOUS
 62
     3
 10
141.00002065264829
 20
-168.93035300010021
 30
0.0
 11
170.1447245538757
 21
-168.93035300010069
 31
0.0
  0
LINE
  8
OUTLINE
  6
CONTINUOUS
 62
     3
 10
-143.47829589735099
 20
-72.26343069862105
 30
0.0
 11
-143.8287590757491
 21
-72.285482478259809
 31
0.0
  0
LINE
  8
OUTLINE
  6
CONTINUOUS
 62
     3
 10
-148.5871505536679
 20
-72.543714360963364
 30
0.0
 11
-143.8287590757491
 21
-72.285482478259809
 31
0.0
  0
LINE
  8
OUTLINE
  6
CONTINUOUS
 62
     3
 10
141.00002065264829
 20
-119.26280609999959
 30
0.0
 11
199.00004265254941
 21
-119.26280609999959
 31
0.0
  0
LINE
  8
OUTLINE
  6
CONTINUOUS
 62
     3
 10
-145.09679029755441
 20
-88.916038673405623
 30
0.0
 11
-201.57224149745119
 21
-88.916038673405623
 31
0.0
  0
LINE
  8
OUTLINE
  6
CONTINUOUS
 62
     3
 10
-144.28754309745179
 20
-79.609695873607976
 30
0.0
 11
-143.47829589735099
 21
-79.609695873607976
 31
0.0
  0
LINE
  8
OUTLINE
  6
CONTINUOUS
 62
     3
 10
-141.60691174755169
 20
-72.275890550100485
 30
0.0
 11
-142.66904869755399
 21
-72.275890550100485
 31
0.0
  0
LINE
  8
OUTLINE
  6
CONTINUOUS
 62
     3
 10
-143.47829589735099
 20
-72.275890550100485
 30
0.0
 11
-143.50535269481131
 21
-72.275890550100485
 31
0.0
  0
LINE
  8
OUTLINE
  6
CONTINUOUS
 62
     3
 10
-140.99997634755249
 20
-70.606818200099951
 30
0.0
 11
-141.60691174755169
 21
-70.606818200099951
 31
0.0
  0
LINE
  8
OUTLINE
  6
CONTINUOUS
 62
     3
 10
-143.47829589735099
 20
-69.089482273506292
 30
0.0
 11
-142.66904869755399
 21
-69.089482273506292
 31
0.0
  0
LINE
  8
OUTLINE
  6
CONTINUOUS
 62
     3
 10
-148.5871505536679
 20
-75.750835039136291
 30
0.0
 11
-143.47829589735099
 21
-76.031118701782376
 31
0.0
  0
LINE
  8
OUTLINE
  6
CONTINUOUS
 62
     3
 10
-140.4472269686803
 20
-254.8042063132132
 30
0.0
 11
-133.82998183243669
 21
-259.10149555083967
 31
0.0
  0
LINE
  8
OUTLINE
  6
CONTINUOUS
 62
     3
 10
-138.65982910777259
 20
-255.00003940020159
 30
0.0
 11
-133.38923421835261
 21
-258.42280374196321
 31
0.0
  0
LINE
  8
OUTLINE
  6
CONTINUOUS
 62
     3
 10
-140.39304094755329
 20
-3.6416123999983938
 30
0.0
 11
-140.99993582429761
 21
-3.641612399998849
 31
0.0
  0
LINE
  8
OUTLINE
  6
CONTINUOUS
 62
     3
 10
-140.39304094755329
 20
-2.8323652002018211
 30
0.0
 11
-139.17917014755491
 21
-2.8323652002018211
 31
0.0
  0
LINE
  8
OUTLINE
  6
CONTINUOUS
 62
     3
 10
139.78614985264991
 20
-2.8323652002018211
 30
0.0
 11
141.00002065264829
 21
-2.8323652002018211
 31
0.0
  0
LINE
  8
OUTLINE
  6
CONTINUOUS
 62
     3
 10
-138.65982910777259
 20
0.0
 30
0.0
 11
139.78614985264991
 21
0.0
 31
0.0
  0
LINE
  8
OUTLINE
  6
CONTINUOUS
 62
     3
 10
-133.38923421835261
 20
3.4227643417625591
 30
0.0
 11
-133.82998183243669
 21
4.1014561506381133
 31
0.0
  0
LINE
  8
OUTLINE
  6
CONTINUOUS
 62
     3
 10
-203.19073589735089
 20
-228.91580427360799
 30
0.0
 11
-203.19073589735089
 21
-90.534533073608131
 31
0.0
  0
LINE
  8
OUTLINE
  6
CONTINUOUS
 62
     3
 10
-144.2875430974527
 20
-238.40225652294291
 30
0.0
 11
-144.2875430974527
 21
-233.5689756735064
 31
0.0
  0
LINE
  8
OUTLINE
  6
CONTINUOUS
 62
     3
 10
-144.28754309745179
 20
-88.106791473607714
 30
0.0
 11
-144.28754309745179
 21
-79.609695873607976
 31
0.0
  0
LINE
  8
OUTLINE
  6
CONTINUOUS
 62
     3
 10
-143.47829589735099
 20
-250.36085507340519
 30
0.0
 11
-143.47829589735099
 21
-247.1869040754132
 31
0.0
  0
LINE
  8
OUTLINE
  6
CONTINUOUS
 62
     3
 10
-143.47829589735099
 20
-243.4316759235071
 30
0.0
 11
-143.47829589735099
 21
-242.12910650168081
 31
0.0
  0
LINE
  8
OUTLINE
  6
CONTINUOUS
 62
     3
 10
-143.47829589735011
 20
-79.609695873607976
 30
0.0
 11
-143.47829589735011
 21
-76.031118701782376
 31
0.0
  0
LINE
  8
OUTLINE
  6
CONTINUOUS
 62
     3
 10
-143.47829589735099
 20
-72.275890550100939
 30
0.0
 11
-143.47829589735099
 21
-69.089482273506292
 31
0.0
  0
LINE
  8
OUTLINE
  6
CONTINUOUS
 62
     3
 10
-142.66904869755399
 20
-250.36085507340519
 30
0.0
 11
-142.66904869755399
 21
-247.1744442234062
 31
0.0
  0
LINE
  8
OUTLINE
  6
CONTINUOUS
 62
     3
 10
-142.66904869755399
 20
-72.275890550100939
 30
0.0
 11
-142.66904869755399
 21
-69.089482273506292
 31
0.0
  0
LINE
  8
OUTLINE
  6
CONTINUOUS
 62
     3
 10
-141.60691174755169
 20
-248.8434954368804
 30
0.0
 11
-141.60691174755081
 21
-247.1744442234058
 31
0.0
  0
LINE
  8
OUTLINE
  6
CONTINUOUS
 62
     3
 10
-141.60691174755269
 20
-72.275890550100939
 30
0.0
 11
-141.60691174755169
 21
-70.606874348604833
 31
0.0
  0
LINE
  8
OUTLINE
  6
CONTINUOUS
 62
     3
 10
-140.99997634755249
 20
-251.3584270002018
 30
0.0
 11
-140.99997634755249
 21
-248.8435165734054
 31
0.0
  0
LINE
  8
OUTLINE
  6
CONTINUOUS
 62
     3
 10
-140.99997634755249
 20
-70.606818200099951
 30
0.0
 11
-140.99997634755249
 21
-3.641612399998849
 31
0.0
  0
LINE
  8
OUTLINE
  6
CONTINUOUS
 62
     3
 10
-140.39304094755329
 20
-3.641612399998849
 30
0.0
 11
-140.39304094755329
 21
-2.8323652002018211
 31
0.0
  0
LINE
  8
OUTLINE
  6
CONTINUOUS
 62
     3
 10
-140.1907291474536
 20
-251.3584270002018
 30
0.0
 11
-140.19072914745169
 21
-252.16767419999891
 31
0.0
  0
LINE
  8
OUTLINE
  6
CONTINUOUS
 62
     3
 10
-139.17917014755491
 20
-252.57229780020211
 30
0.0
 11
-139.17917014755491
 21
-252.16767419999891
 31
0.0
  0
LINE
  8
OUTLINE
  6
CONTINUOUS
 62
     3
 10
-139.17917014755491
 20
-2.8323652002018211
 30
0.0
 11
-139.17917014755491
 21
-2.427741599999536
 31
0.0
  0
LINE
  8
OUTLINE
  6
CONTINUOUS
 62
     3
 10
-140.4472269686803
 20
-0.1958330869883866
 30
0.0
 11
-133.82998183243669
 21
4.1014561506381133
 31
0.0
  0
LINE
  8
OUTLINE
  6
CONTINUOUS
 62
     3
 10
-138.65982910777259
 20
0.0
 30
0.0
 11
-133.38923421835261
 21
3.4227643417625591
 31
0.0
  0
LINE
  8
OUTLINE
  6
CONTINUOUS
 62
     3
 10
-133.38923421835261
 20
-258.42280374196321
 30
0.0
 11
-133.82998183243669
 21
-259.10149555083967
 31
0.0
  0
LINE
  8
OUTLINE
  6
CONTINUOUS
 62
     3
 10
139.78614985264991
 20
-2.427741599999536
 30
0.0
 11
139.78614985264991
 21
-2.8323652002018211
 31
0.0
  0
LINE
  8
OUTLINE
  6
CONTINUOUS
 62
     3
 10
139.78614985264991
 20
-252.57229780020211
 30
0.0
 11
139.78614985264991
 21
-252.16767419999891
 31
0.0
  0
LINE
  8
OUTLINE
  6
CONTINUOUS
 62
     3
 10
141.00002065264829
 20
-252.16767419999891
 30
0.0
 11
141.00002065264829
 21
-168.93035300010069
 31
0.0
  0
LINE
  8
OUTLINE
  6
CONTINUOUS
 62
     3
 10
141.00002065264829
 20
-119.26280609999959
 30
0.0
 11
141.00002065264829
 21
-2.8323652002018211
 31
0.0
  0
LINE
  8
OUTLINE
  6
CONTINUOUS
 62
     3
 10
199.00004265254941
 20
-137.57253490142739
 30
0.0
 11
199.00004265254941
 21
-119.26280609999959
 31
0.0
  0
LINE
  8
OUTLINE
  6
CONTINUOUS
 62
     3
 10
175.15168615326269
 20
-166.85640159928519
 30
0.0
 11
196.92609125173479
 21
-142.57949650081451
 31
0.0
  0
ARC
  8
OUTLINE
  6
CONTINUOUS
 62
     3
 10
-159.06766289755339
 20
-230.53429867350681
 30
0.0
 40
3.0346769999999998
 50
180.0
 51
270.0
  0
ARC
  8
OUTLINE
  6
CONTINUOUS
 62
     3
 10
-148.48551294734989
 20
-240.23352289188011
 30
0.0
 40
1.6184943998988439
 50
180.41765135980091
 51
266.39959201749087
  0
ARC
  8
OUTLINE
  6
CONTINUOUS
 62
     3
 10
-148.48551294734989
 20
-240.2570021083211
 30
0.0
 40
1.6184943998988439
 50
93.600407982509083
 51
179.58234863811461
  0
ARC
  8
OUTLINE
  6
CONTINUOUS
 62
     3
 10
-201.57224149745119
 20
-228.91580427360799
 30
0.0
 40
1.6184943998988439
 50
180.0
 51
270.0
  0
ARC
  8
OUTLINE
  6
CONTINUOUS
 62
     3
 10
-139.78610554755409
 20
-253.78616860020139
 30
0.0
 40
1.2138708
 50
90.0
 51
236.99999999998931
  0
ARC
  8
OUTLINE
  6
CONTINUOUS
 62
     3
 10
-148.48551294734989
 20
-74.135535091981197
 30
0.0
 40
1.6184943998988439
 50
180.41765135980091
 51
266.39959201749087
  0
ARC
  8
OUTLINE
  6
CONTINUOUS
 62
     3
 10
-148.48551294734989
 20
-74.15901430842132
 30
0.0
 40
1.6184943998988439
 50
93.600407982509083
 51
179.58234863811461
  0
ARC
  8
OUTLINE
  6
CONTINUOUS
 62
     3
 10
-201.57224149745119
 20
-90.534533073608131
 30
0.0
 40
1.6184943998988439
 50
90.0
 51
180.0
  0
ARC
  8
OUTLINE
  6
CONTINUOUS
 62
     3
 10
-139.78610554755409
 20
-1.213870799999313
 30
0.0
 40
1.2138708
 50
123.0000000000108
 51
270.0
  0
ARC
  8
OUTLINE
  6
CONTINUOUS
 62
     3
 10
-145.09679029755441
 20
-88.106791473607714
 30
0.0
 40
0.8092472001011558
 50
270.0
 51
0.0
  0
ARC
  8
OUTLINE
  6
CONTINUOUS
 62
     3
 10
170.1447245538757
 20
-161.84944000020189
 30
0.0
 40
7.0809129998988443
 50
270.0
 51
315.00000000001842
  0
ARC
  8
OUTLINE
  6
CONTINUOUS
 62
     3
 10
191.91912965264959
 20
-137.57253490142739
 30
0.0
 40
7.0809129998988443
 50
315.00000000001842
 51
0.0
  0
ARC
  8
OUTLINE
  6
CONTINUOUS
 62
     3
 10
2.0231078526494461
 20
-252.4992407612342
 30
0.0
 40
2.703110438765254
 50
247.77695615911441
 51
292.22304384088562
  0
ARC
  8
OUTLINE
  6
CONTINUOUS
 62
     3
 10
139.78614985264991
 20
-253.78616860020139
 30
0.0
 40
1.2138708
 50
270.0
 51
90.0
  0
ARC
  8
OUTLINE
  6
CONTINUOUS
 62
     3
 10
139.78614985264991
 20
-1.213870799999313
 30
0.0
 40
1.2138708
 50
270.0
 51
90.0
  0
LINE
  8
OUTLINE
  6
CONTINUOUS
 62
     3
 10
-148.58715055354421
 20
-243.69949973460101
 30
0.0
 11
-143.47829589735099
 21
-243.43167592350619
 31
0.0
  0
LINE
  8
OUTLINE
  6
CONTINUOUS
 62
     3
 10
-148.58715055354421
 20
-246.90662041307769
 30
0.0
 11
-143.4782958972273
 21
-247.18690407541999
 31
0.0
  0
ARC
  8
OUTLINE
  6
CONTINUOUS
 62
     3
 10
-148.4855129472262
 20
-245.29132046561881
 30
0.0
 40
1.6184943998988439
 50
180.41765135980091
 51
266.39959201749087
  0
ARC
  8
OUTLINE
  6
CONTINUOUS
 62
     3
 10
-148.4855129472262
 20
-245.31479968205991
 30
0.0
 40
1.6184943998988439
 50
93.600407982509083
 51
179.58234863811461
  0
LINE
  8
DETAIL
  6
CONTINUOUS
 62
     5
 10
-139.17917014755491
 20
-2.4277453025624709
 30
0.0
 11
-139.78611169015579
 21
-2.4277453025624709
 31
0.0
  0
LINE
  8
OUTLINE
  6
CONTINUOUS
 62
     3
 10
-139.7861129810999
 20
-2.4277373929890018
 30
0.0
 11
-139.17917014755491
 21
-2.427741599999536
 31
0.0
  0
TEXT
  8
NOTE
  6
CONTINUOUS
 62
     4
 10
-75.461513732193453
 20
-159.26599266207521
 30
0.0
 40
64.0
  1
DA1
 41
0.9
  0
TEXT
  8
ETC
  6
CONTINUOUS
 62
    61
 10
339.47614798368431
 20
392.56466712617942
 30
0.0
 40
64.0
  1
BFS-40SSUA2_2
 41
0.9
  0
TEXT
  8
ETC
  6
CONTINUOUS
 62
    61
 10
335.29015398368477
 20
274.60935711134829
 30
0.0
 40
64.0
  1
産業扇
 41
0.9
  0
TEXT
  8
ETC
  6
CONTINUOUS
 62
    61
 10
385.99155223223988
 20
166.46058422512311
 30
0.0
 40
40.0
  1
BFS-40SSUA2
 41
0.9
  0
POINT
  8
ARRANGE
  6
CONTINUOUS
 62
     1
 10
0.0
 20
0.0
 30
0.0
  0
CIRCLE
  8
ARRANGE
  6
CONTINUOUS
 62
     1
 10
0.0
 20
0.0
 30
0.0
 40
40.0
  0
LINE
  8
SIZE
  6
CONTINUOUS
 62
    30
 10
-158.65982910777259
 20
-0.0000000000000032
 30
0.0
 11
-320.80926905585977
 21
-0.0000000000000293
 31
0.0
  0
LINE
  8
SIZE
  6
CONTINUOUS
 62
    30
 10
-125.000040547453
 20
-28.008625299999281
 30
0.0
 11
-320.80926905585977
 21
-28.008625299999309
 31
0.0
  0
LINE
  8
SIZE
  6
CONTINUOUS
 62
    30
 10
-300.80926905585977
 20
-40.008625299999302
 30
0.0
 11
-300.80926905585977
 21
-52.008625299999323
 31
0.0
  0
LINE
  8
SIZE
  6
CONTINUOUS
 62
    30
 10
-300.80926905585977
 20
11.99999999999998
 30
0.0
 11
-300.80926905585989
 21
167.2571428571429
 31
0.0
  0
LINE
  8
SIZE
  6
CONTINUOUS
 62
    30
 10
-300.80926905585977
 20
-28.008625299999309
 30
0.0
 11
-300.80926905585977
 21
-0.0000000000000261
 31
0.0
  0
CIRCLE
  8
SIZE
  6
CONTINUOUS
 62
    30
 10
-300.80926905585977
 20
-28.008625299999309
 30
0.0
 40
6.0
  0
LINE
  8
SIZE
  6
CONTINUOUS
 62
    30
 10
-300.80926905585977
 20
-28.008625299999309
 30
0.0
 11
-300.80926905585977
 21
-40.008625299999302
 31
0.0
  0
CIRCLE
  8
SIZE
  6
CONTINUOUS
 62
    30
 10
-300.80926905585977
 20
-0.0000000000000261
 30
0.0
 40
6.0
  0
LINE
  8
SIZE
  6
CONTINUOUS
 62
    30
 10
-300.80926905585977
 20
-0.0000000000000261
 30
0.0
 11
-300.80926905585977
 21
11.99999999999997
 31
0.0
  0
TEXT
  8
SIZE
  6
CONTINUOUS
 62
    30
 10
-325.80926905585977
 20
49.000000000000128
 30
0.0
 40
64.0
  1
28
 50
90.0
 41
0.9
 72
     1
 11
-325.80926905585977
 21
95.628571428571547
 31
0.0
  0
POINT
  8
DEFPOINTS
  6
CONTINUOUS
 62
    30
 10
-138.65982910777259
 20
0.0
 30
0.0
  0
POINT
  8
DEFPOINTS
  6
CONTINUOUS
 62
    30
 10
-105.000040547453
 20
-28.008625299999281
 30
0.0
  0
POINT
  8
DEFPOINTS
  6
CONTINUOUS
 62
    30
 10
-300.80926905585977
 20
-28.008625299999309
 30
0.0
  0
LINE
  8
SIZE
  6
CONTINUOUS
 62
    30
 10
-125.000040547453
 20
-28.008625299999281
 30
0.0
 11
-320.80926905586028
 21
-28.008625299999309
 31
0.0
  0
LINE
  8
SIZE
  6
CONTINUOUS
 62
    30
 10
-123.786169747451
 20
-229.00860790020141
 30
0.0
 11
-320.80926905586023
 21
-229.0086079002015
 31
0.0
  0
LINE
  8
SIZE
  6
CONTINUOUS
 62
    30
 10
-300.80926905586028
 20
-40.008625299999302
 30
0.0
 11
-300.80926905586023
 21
-217.00860790020141
 31
0.0
  0
CIRCLE
  8
SIZE
  6
CONTINUOUS
 62
    30
 10
-300.80926905586028
 20
-28.008625299999309
 30
0.0
 40
6.0
  0
LINE
  8
SIZE
  6
CONTINUOUS
 62
    30
 10
-300.80926905586028
 20
-28.008625299999309
 30
0.0
 11
-300.80926905586028
 21
-40.008625299999302
 31
0.0
  0
CIRCLE
  8
SIZE
  6
CONTINUOUS
 62
    30
 10
-300.80926905586023
 20
-229.00860790020141
 30
0.0
 40
6.0
  0
LINE
  8
SIZE
  6
CONTINUOUS
 62
    30
 10
-300.80926905586023
 20
-229.00860790020141
 30
0.0
 11
-300.80926905586023
 21
-217.00860790020141
 31
0.0
  0
TEXT
  8
SIZE
  6
CONTINUOUS
 62
    30
 10
-325.80926905586023
 20
-190.222902314386
 30
0.0
 40
64.0
  1
201
 50
90.0
 41
0.9
 72
     1
 11
-325.80926905586023
 21
-128.50861660010031
 31
0.0
  0
POINT
  8
DEFPOINTS
  6
CONTINUOUS
 62
    30
 10
-105.000040547453
 20
-28.008625299999281
 30
0.0
  0
POINT
  8
DEFPOINTS
  6
CONTINUOUS
 62
    30
 10
-103.786169747451
 20
-229.00860790020141
 30
0.0
  0
POINT
  8
DEFPOINTS
  6
CONTINUOUS
 62
    30
 10
-300.80926905586023
 20
-229.00860790020141
 30
0.0
  0
TEXT
  8
NOTE
  6
CONTINUOUS
 62
     4
 10
371.02153395770449
 20
-452.96550857066802
 30
0.0
 40
64.0
  1
%%uAH 4
 41
0.9
  0
LINE
  8
NOTE
  6
CONTINUOUS
 62
     4
 10
370.93153395770452
 20
-465.76550857066798
 30
0.0
 11
584.96439110056156
 21
-465.76550857066798
 31
0.0
  0
LINE
  8
NOTE
  6
CONTINUOUS
 62
     4
 10
186.97917298431651
 20
-151.41638599053431
 30
0.0
 11
178.99997279990021
 21
-119.26280609999939
 31
0.0
  0
LINE
  8
NOTE
  6
CONTINUOUS
 62
     4
 10
178.99997279990021
 20
-119.26280609999939
 30
0.0
 11
201.98698875670411
 21
-143.1189883754943
 31
0.0
  0
LINE
  8
NOTE
  6
CONTINUOUS
 62
     4
 10
178.99997279990021
 20
-119.26280609999939
 30
0.0
 11
209.96618894112049
 21
-175.27256826602931
 31
0.0
  0
LINE
  8
NOTE
  6
CONTINUOUS
 62
     4
 10
209.96618894112049
 20
-175.2725682660292
 30
0.0
 11
370.57153395770462
 21
-465.76550857066798
 31
0.0
  0
LINE
  8
NOTE
  6
CONTINUOUS
 62
     4
 10
370.57153395770462
 20
-465.76550857066798
 30
0.0
 11
370.93153395770452
 21
-465.76550857066798
 31
0.0
  0
ENDSEC
  0
EOF
