  0
SECTION
  2
HEADER
  9
$ACADVER
  1
AC1009
  9
$DWGCODEPAGE
  3
dos932
  9
$INSBASE
 10
0.0
 20
0.0
 30
0.0
  9
$EXTMIN
 10
-543.59908104226417
 20
-565.27317521853524
 30
0.0
  9
$EXTMAX
 10
1121.519716091057
 20
1041.918243164502
 30
0.0
  9
$LIMMIN
 10
-2970.0
 20
-2100.0
  9
$LIMMAX
 10
2970.0
 20
2100.0
  9
$ORTHOMODE
 70
     1
  9
$REGENMODE
 70
     1
  9
$FILLMODE
 70
     1
  9
$QTEXTMODE
 70
     0
  9
$MIRRTEXT
 70
     0
  9
$LTSCALE
 40
20.0
  9
$ATTMODE
 70
     1
  9
$TEXTSIZE
 40
64.0
  9
$TRACEWID
 40
0.05
  9
$TEXTSTYLE
  7
STANDARD
  9
$CLAYER
  8
SIZE
  9
$CELTYPE
  6
CONTINUOUS
  9
$CECOLOR
 62
     7
  9
$DIMSCALE
 40
1.0
  9
$DIMASZ
 40
12.0
  9
$DIMEXO
 40
20.0
  9
$DIMDLI
 40
200.0
  9
$DIMRND
 40
0.0
  9
$DIMDLE
 40
0.0
  9
$DIMEXE
 40
20.0
  9
$DIMTP
 40
0.0
  9
$DIMTM
 40
0.0
  9
$DIMTXT
 40
64.0
  9
$DIMCEN
 40
0.09
  9
$DIMTSZ
 40
0.0
  9
$DIMTOL
 70
     0
  9
$DIMLIM
 70
     0
  9
$DIMTIH
 70
     0
  9
$DIMTOH
 70
     0
  9
$DIMSE1
 70
     0
  9
$DIMSE2
 70
     0
  9
$DIMTAD
 70
     1
  9
$DIMZIN
 70
     8
  9
$DIMBLK
  1

  9
$DIMASO
 70
     1
  9
$DIMSHO
 70
     0
  9
$DIMPOST
  1

  9
$DIMAPOST
  1

  9
$DIMALT
 70
     0
  9
$DIMALTD
 70
     2
  9
$DIMALTF
 40
25.399999999999999
  9
$DIMLFAC
 40
1.0
  9
$DIMTOFL
 70
     1
  9
$DIMTVP
 40
0.0
  9
$DIMTIX
 70
     1
  9
$DIMSOXD
 70
     0
  9
$DIMSAH
 70
     0
  9
$DIMBLK1
  1

  9
$DIMBLK2
  1

  9
$DIMSTYLE
  2
STANDARD
  9
$DIMCLRD
 70
     7
  9
$DIMCLRE
 70
     7
  9
$DIMCLRT
 70
     7
  9
$DIMTFAC
 40
1.0
  9
$DIMGAP
 40
25.0
  9
$LUNITS
 70
     2
  9
$LUPREC
 70
     4
  9
$SKETCHINC
 40
0.1
  9
$FILLETRAD
 40
3.0
  9
$AUNITS
 70
     1
  9
$AUPREC
 70
     3
  9
$MENU
  1
ACAD
  9
$ELEVATION
 40
0.0
  9
$PELEVATION
 40
0.0
  9
$THICKNESS
 40
50.0
  9
$LIMCHECK
 70
     0
  9
$CHAMFERA
 40
0.0
  9
$CHAMFERB
 40
0.0
  9
$SKPOLY
 70
     0
  9
$TDCREATE
 40
2453019.623009259
  9
$TDUPDATE
 40
2459292.389932928
  9
$TDINDWG
 40
1.7155483912
  9
$TDUSRTIMER
 40
1.7155483912
  9
$USRTIMER
 70
     1
  9
$ANGBASE
 50
0.0
  9
$ANGDIR
 70
     0
  9
$PDMODE
 70
     3
  9
$PDSIZE
 40
-2.0
  9
$PLINEWID
 40
0.0
  9
$SPLFRAME
 70
     0
  9
$SPLINETYPE
 70
     6
  9
$SPLINESEGS
 70
     8
  9
$SURFTAB1
 70
     6
  9
$SURFTAB2
 70
     6
  9
$SURFTYPE
 70
     6
  9
$SURFU
 70
     6
  9
$SURFV
 70
     6
  9
$UCSNAME
  2

  9
$UCSORG
 10
0.0
 20
0.0
 30
0.0
  9
$UCSXDIR
 10
1.0
 20
0.0
 30
0.0
  9
$UCSYDIR
 10
0.0
 20
1.0
 30
0.0
  9
$PUCSNAME
  2

  9
$PUCSORG
 10
0.0
 20
0.0
 30
0.0
  9
$PUCSXDIR
 10
1.0
 20
0.0
 30
0.0
  9
$PUCSYDIR
 10
0.0
 20
1.0
 30
0.0
  9
$USERI1
 70
     0
  9
$USERI2
 70
     0
  9
$USERI3
 70
     0
  9
$USERI4
 70
     0
  9
$USERI5
 70
     0
  9
$USERR1
 40
20.0
  9
$USERR2
 40
0.0
  9
$USERR3
 40
0.0
  9
$USERR4
 40
0.0
  9
$USERR5
 40
0.0
  9
$WORLDVIEW
 70
     1
  9
$SHADEDGE
 70
     3
  9
$SHADEDIF
 70
    70
  9
$TILEMODE
 70
     1
  9
$MAXACTVP
 70
    48
  9
$PINSBASE
 10
0.0
 20
0.0
 30
0.0
  9
$PLIMCHECK
 70
     0
  9
$PEXTMIN
 10
-100000000000000000000.0
 20
-100000000000000000000.0
 30
-100000000000000000000.0
  9
$PEXTMAX
 10
100000000000000000000.0
 20
100000000000000000000.0
 30
100000000000000000000.0
  9
$PLIMMIN
 10
0.0
 20
0.0
  9
$PLIMMAX
 10
12.0
 20
9.0
  9
$UNITMODE
 70
     0
  9
$VISRETAIN
 70
     0
  9
$PLINEGEN
 70
     0
  9
$PSLTSCALE
 70
     0
  9
$TREEDEPTH
 70
  3020
  9
$ATTDIA
 70
     0
  9
$ATTREQ
 70
     1
  9
$BLIPMODE
 70
     1
  9
$COORDS
 70
     1
  9
$DRAGMODE
 70
     2
  9
$OSMODE
 70
     0
  9
$HANDLING
 70
     0
  9
$HANDSEED
  5
385
  0
ENDSEC
  0
SECTION
  2
TABLES
  0
TABLE
  2
LTYPE
 70
     2
  0
LTYPE
  2
CONTINUOUS
 70
     0
  3
実線
 72
    65
 73
     0
 40
0.0
  0
LTYPE
  2
DASHDOT
 70
     0
  3
____ _ ____ _ ____ _ ____ _ ____ _ ____ _ ____
 72
    65
 73
     4
 40
5.5
 49
4.0
 49
-0.6
 49
0.3
 49
-0.6
  0
ENDTAB
  0
TABLE
  2
LAYER
 70
    12
  0
LAYER
  2
SIZE
 70
     0
 62
    30
  6
CONTINUOUS
  0
LAYER
  2
BASIS
 70
     0
 62
     6
  6
DASHDOT
  0
LAYER
  2
OUTLINE
 70
     0
 62
     3
  6
CONTINUOUS
  0
LAYER
  2
DETAIL
 70
     0
 62
     5
  6
CONTINUOUS
  0
LAYER
  2
ARRANGE
 70
     0
 62
     1
  6
CONTINUOUS
  0
LAYER
  2
DEFPOINTS
 70
     0
 62
     7
  6
CONTINUOUS
  0
LAYER
  2
ETC
 70
     0
 62
    61
  6
CONTINUOUS
  0
LAYER
  2
FIX
 70
     0
 62
    11
  6
CONTINUOUS
  0
LAYER
  2
NOTE
 70
     0
 62
     4
  6
CONTINUOUS
  0
LAYER
  2
0
 70
    64
 62
     7
  6
CONTINUOUS
  0
LAYER
  2
SERVICESPACE
 70
    64
 62
     2
  6
DASHDOT
  0
LAYER
  2
SYMBOLLINE
 70
    64
 62
    15
  6
CONTINUOUS
  0
ENDTAB
  0
TABLE
  2
STYLE
 70
     1
  0
STYLE
  2
STANDARD
 70
     0
 40
64.0
 41
0.9
 50
0.0
 71
     0
 42
64.0
  3
SIMPLEX.shx
  4
BIGFONT.shx
  0
ENDTAB
  0
TABLE
  2
APPID
 70
    20
  0
APPID
  2
ACAD
 70
     0
  0
APPID
  2
ACADANNOTATIVE
 70
     0
  0
APPID
  2
AUTOCAD_POSTSCRIPT_FIGURE
 70
     0
  0
APPID
  2
ACAD_EXEMPT_FROM_CAD_STANDARDS
 70
     0
  0
APPID
  2
ACAD_PSEXT
 70
     0
  0
APPID
  2
ACAUTHENVIRON
 70
     0
  0
APPID
  2
GENIUS_GENOENT_13
 70
     0
  0
APPID
  2
GENIUS_GENCFG_13
 70
     0
  0
APPID
  2
GENIUS_GENCFG0_13
 70
     0
  0
APPID
  2
GENIUS_GENCFG1_13
 70
     0
  0
APPID
  2
GENIUS_GENCFG2_13
 70
     0
  0
APPID
  2
GENIUS_GENCFG3_13
 70
     0
  0
APPID
  2
GENIUS_GENCFG4_13
 70
     0
  0
APPID
  2
GENIUS_GEVCFG0_13
 70
     0
  0
APPID
  2
CONTENTBLOCKICON
 70
     0
  0
APPID
  2
CONTENTBLOCKDESCRIPTION
 70
     0
  0
APPID
  2
ACAD_NAV_VCDISPLAY
 70
     0
  0
APPID
  2
ACAD_MLEADERVER
 70
     0
  0
APPID
  2
ACDBDYNAMICBLOCKTRUENAME
 70
     0
  0
APPID
  2
ACDBDYNAMICBLOCKGUID
 70
     0
  0
ENDTAB
  0
TABLE
  2
DIMSTYLE
 70
     1
  0
DIMSTYLE
  2
STANDARD
 70
     0
  3

  4

  5

  6

  7

 40
1.0
 41
12.0
 42
20.0
 43
200.0
 44
20.0
 45
0.0
 46
0.0
 47
0.0
 48
0.0
140
64.0
141
0.09
142
0.0
143
25.399999999999999
144
1.0
145
0.0
146
1.0
147
25.0
 71
     0
 72
     0
 73
     0
 74
     0
 75
     0
 76
     0
 77
     1
 78
     8
170
     0
171
     2
172
     1
173
     0
174
     1
175
     0
176
     7
177
     7
178
     7
  0
ENDTAB
  0
TABLE
  2
VIEW
 70
     1
  0
VIEW
  2
ALL
 70
     0
 40
4282.6198079999986
 10
0.0
 20
41.309904000000003
 41
5940.0
 11
0.0
 21
0.0
 31
1.0
 12
0.0
 22
0.0
 32
0.0
 42
50.0
 43
0.0
 44
0.0
 50
0.0
 71
     0
  0
ENDTAB
  0
TABLE
  2
UCS
 70
     0
  0
ENDTAB
  0
TABLE
  2
VPORT
 70
     1
  0
VPORT
  2
*ACTIVE
 70
     0
 10
0.0
 20
0.0
 11
1.0
 21
1.0
 12
293.84847837072329
 22
238.2431130835821
 13
0.0
 23
0.0
 14
1.0
 24
1.0
 15
0.0
 25
0.0
 16
0.0
 26
0.0
 36
1.0
 17
0.0
 27
0.0
 37
0.0
 40
1618.2784919497631
 41
1.767337807606264
 42
50.0
 43
0.0
 44
0.0
 50
0.0
 51
0.0
 71
     0
 72
  1000
 73
     1
 74
     3
 75
     0
 76
     0
 77
     0
 78
     0
  0
ENDTAB
  0
ENDSEC
  0
SECTION
  2
BLOCKS
  0
ENDSEC
  0
SECTION
  2
ENTITIES
  0
LINE
  8
DETAIL
  6
CONTINUOUS
 62
     5
 10
-70.999757397194131
 20
306.0
 30
0.0
 11
70.999757397195935
 21
306.0
 31
0.0
  0
LINE
  8
DETAIL
  6
CONTINUOUS
 62
     5
 10
-70.999989000100882
 20
297.90752799989968
 30
0.0
 11
70.999989000102687
 21
297.90752799989968
 31
0.0
  0
LINE
  8
DETAIL
  6
CONTINUOUS
 62
     5
 10
-80.000020000100449
 20
244.46244199990051
 30
0.0
 11
80.000020000102268
 21
244.46244199990051
 31
0.0
  0
LINE
  8
DETAIL
  6
CONTINUOUS
 62
     5
 10
-198.9999527999997
 20
239.00002339990041
 30
0.0
 11
-115.84804901347979
 21
239.00002339990041
 31
0.0
  0
LINE
  8
DETAIL
  6
CONTINUOUS
 62
     5
 10
116.7554490131788
 20
239.00002339990041
 30
0.0
 11
198.99995280000081
 21
239.00002339990041
 31
0.0
  0
LINE
  8
DETAIL
  6
CONTINUOUS
 62
     5
 10
-115.2338750812787
 20
237.9884644
 30
0.0
 11
-113.1821528888668
 21
237.9884644
 31
0.0
  0
LINE
  8
DETAIL
  6
CONTINUOUS
 62
     5
 10
114.0895528888686
 20
237.9884644
 30
0.0
 11
116.1412750812806
 21
237.9884644
 31
0.0
  0
LINE
  8
DETAIL
  6
CONTINUOUS
 62
     5
 10
-142.1127456998984
 20
237.3815290000008
 30
0.0
 11
-115.6077398126627
 21
237.3815290000008
 31
0.0
  0
LINE
  8
DETAIL
  6
CONTINUOUS
 62
     5
 10
116.51513981266361
 20
237.3815290000008
 30
0.0
 11
142.11274569990019
 21
237.3815290000008
 31
0.0
  0
LINE
  8
DETAIL
  6
CONTINUOUS
 62
     5
 10
-139.78616000010061
 20
236.80921719989919
 30
0.0
 11
-132.50293520010109
 21
236.80921719989919
 31
0.0
  0
LINE
  8
DETAIL
  6
CONTINUOUS
 62
     5
 10
132.502935200102
 20
236.80921719989919
 30
0.0
 11
139.7861600001024
 21
236.80921719989919
 31
0.0
  0
LINE
  8
DETAIL
  6
CONTINUOUS
 62
     5
 10
-90.115609996964835
 20
236.60690539979939
 30
0.0
 11
90.115609996966654
 21
236.60690539979939
 31
0.0
  0
LINE
  8
DETAIL
  6
CONTINUOUS
 62
     5
 10
106.502865800001
 20
236.02525897500121
 30
0.0
 11
114.089558300001
 21
236.02525897500121
 31
0.0
  0
LINE
  8
DETAIL
  6
CONTINUOUS
 62
     5
 10
-139.78616000010061
 20
235.99996999980019
 30
0.0
 11
139.7861600001024
 21
235.99996999980019
 31
0.0
  0
LINE
  8
DETAIL
  6
CONTINUOUS
 62
     5
 10
141.00003080010259
 20
233.97685200000109
 30
0.0
 11
139.7861600001024
 21
233.97685200000109
 31
0.0
  0
LINE
  8
DETAIL
  6
CONTINUOUS
 62
     5
 10
-139.78616000010061
 20
233.97685200000109
 30
0.0
 11
-141.0000308001008
 21
233.97685200000109
 31
0.0
  0
LINE
  8
DETAIL
  6
CONTINUOUS
 62
     5
 10
-141.0000308001008
 20
233.47107249989989
 30
0.0
 11
-142.1127456998984
 21
233.47107249989989
 31
0.0
  0
LINE
  8
DETAIL
  6
CONTINUOUS
 62
     5
 10
141.00003080010259
 20
233.47107249989989
 30
0.0
 11
142.11274569990019
 21
233.47107249989989
 31
0.0
  0
LINE
  8
DETAIL
  6
CONTINUOUS
 62
     5
 10
-115.7923399186175
 20
238.99271256378839
 30
0.0
 11
-115.84804901347979
 21
239.00002339990041
 31
0.0
  0
LINE
  8
DETAIL
  6
CONTINUOUS
 62
     5
 10
-115.1027479687427
 20
236.00736638952691
 30
0.0
 11
-115.0606977820798
 21
235.99996999980019
 31
0.0
  0
LINE
  8
DETAIL
  6
CONTINUOUS
 62
     5
 10
-115.733718686708
 20
238.97021230804839
 30
0.0
 11
-115.7923399186175
 21
238.99271256378839
 31
0.0
  0
LINE
  8
DETAIL
  6
CONTINUOUS
 62
     5
 10
-115.1456275805767
 20
236.03001040398291
 30
0.0
 11
-115.1027479687427
 21
236.00736638952691
 31
0.0
  0
LINE
  8
DETAIL
  6
CONTINUOUS
 62
     5
 10
-115.67218531835989
 20
238.93177638527649
 30
0.0
 11
-115.733718686708
 21
238.97021230804839
 31
0.0
  0
LINE
  8
DETAIL
  6
CONTINUOUS
 62
     5
 10
-141.0000308001008
 20
198.49990439980041
 30
0.0
 11
-173.43639829999941
 21
198.49990439980041
 31
0.0
  0
LINE
  8
DETAIL
  6
CONTINUOUS
 62
     5
 10
-184.56354730010031
 20
198.49990439980041
 30
0.0
 11
-198.9999527999997
 21
198.49990439980041
 31
0.0
  0
LINE
  8
DETAIL
  6
CONTINUOUS
 62
     5
 10
141.00003080010259
 20
198.49990439980041
 30
0.0
 11
173.4363983000012
 21
198.49990439980041
 31
0.0
  0
LINE
  8
DETAIL
  6
CONTINUOUS
 62
     5
 10
184.5635473001021
 20
198.49990439980041
 30
0.0
 11
198.99995280000081
 21
198.49990439980041
 31
0.0
  0
LINE
  8
DETAIL
  6
CONTINUOUS
 62
     5
 10
-115.6077398126627
 20
238.87682284942511
 30
0.0
 11
-115.67218531835989
 21
238.93177638527649
 31
0.0
  0
LINE
  8
DETAIL
  6
CONTINUOUS
 62
     5
 10
-115.1893366181894
 20
236.06847541868359
 30
0.0
 11
-115.1456275805767
 21
236.03001040398291
 31
0.0
  0
LINE
  8
DETAIL
  6
CONTINUOUS
 62
     5
 10
-130.44212823110681
 20
237.3815290000008
 30
0.0
 11
-129.90461526565471
 21
236.47401603424581
 31
0.0
  0
LINE
  8
DETAIL
  6
CONTINUOUS
 62
     5
 10
-115.2338750812787
 20
236.12317055027549
 30
0.0
 11
-115.1893366181894
 21
236.06847541868359
 31
0.0
  0
LINE
  8
DETAIL
  6
CONTINUOUS
 62
     5
 10
116.6997399186193
 20
238.99271256378839
 30
0.0
 11
116.7554490131788
 21
239.00002339990041
 31
0.0
  0
LINE
  8
DETAIL
  6
CONTINUOUS
 62
     5
 10
-141.0000308001008
 20
169.4393877998987
 30
0.0
 11
-139.78616000010061
 21
169.4393877998987
 31
0.0
  0
LINE
  8
DETAIL
  6
CONTINUOUS
 62
     5
 10
-139.78616000010061
 20
167.21395799999979
 30
0.0
 11
-141.60696620010091
 21
167.21395799999979
 31
0.0
  0
LINE
  8
DETAIL
  6
CONTINUOUS
 62
     5
 10
-115.2810260061497
 20
236.19335056401499
 30
0.0
 11
-115.2338750812787
 21
236.12317055027549
 31
0.0
  0
LINE
  8
DETAIL
  6
CONTINUOUS
 62
     5
 10
116.18842600615061
 20
-142.19339206421481
 30
0.0
 11
116.1412750812806
 21
-142.12321205047351
 31
0.0
  0
LINE
  8
DETAIL
  6
CONTINUOUS
 62
     5
 10
-115.5620822851179
 20
238.8067026081977
 30
0.0
 11
-115.6077398126627
 21
238.87682284942511
 31
0.0
  0
LINE
  8
DETAIL
  6
CONTINUOUS
 62
     5
 10
116.4694822851188
 20
-144.8066441083993
 30
0.0
 11
116.51513981266361
 21
-144.87676434962489
 31
0.0
  0
LINE
  8
DETAIL
  6
CONTINUOUS
 62
     5
 10
116.2336263037669
 20
-142.2763460009044
 30
0.0
 11
116.18842600615061
 21
-142.19339206421481
 31
0.0
  0
LINE
  8
DETAIL
  6
CONTINUOUS
 62
     5
 10
-115.32622630376591
 20
236.27630450070461
 30
0.0
 11
-115.2810260061497
 21
236.19335056401499
 31
0.0
  0
LINE
  8
DETAIL
  6
CONTINUOUS
 62
     5
 10
116.4253450424421
 20
-144.72372436068511
 30
0.0
 11
116.4694822851188
 21
-144.8066441083993
 31
0.0
  0
LINE
  8
DETAIL
  6
CONTINUOUS
 62
     5
 10
116.2768759741293
 20
-142.3704458312875
 30
0.0
 11
116.2336263037669
 21
-142.2763460009044
 31
0.0
  0
LINE
  8
DETAIL
  6
CONTINUOUS
 62
     5
 10
116.38272808402689
 20
-144.6296108563493
 30
0.0
 11
116.4253450424421
 21
-144.72372436068511
 31
0.0
  0
LINE
  8
DETAIL
  6
CONTINUOUS
 62
     5
 10
116.3181750172371
 20
-142.4740575344438
 30
0.0
 11
116.2768759741293
 21
-142.3704458312875
 31
0.0
  0
LINE
  8
DETAIL
  6
CONTINUOUS
 62
     5
 10
116.3416314104788
 20
-144.52591886565281
 30
0.0
 11
116.38272808402689
 21
-144.6296108563493
 31
0.0
  0
LINE
  8
DETAIL
  6
CONTINUOUS
 62
     5
 10
116.1412750812806
 20
-143.9884059002016
 30
0.0
 11
116.2918496840593
 21
-144.39139500880631
 31
0.0
  0
LINE
  8
DETAIL
  6
CONTINUOUS
 62
     5
 10
116.2918496840593
 20
-144.39139500880631
 30
0.0
 11
116.3416314104788
 21
-144.52591886565281
 31
0.0
  0
LINE
  8
DETAIL
  6
CONTINUOUS
 62
     5
 10
116.3181750172371
 20
-142.4740575344438
 30
0.0
 11
116.466185243602
 21
-143.2468943889435
 31
0.0
  0
LINE
  8
DETAIL
  6
CONTINUOUS
 62
     5
 10
116.466185243602
 20
-143.2468943889435
 30
0.0
 11
116.51513981266361
 21
-143.38147050020061
 31
0.0
  0
LINE
  8
DETAIL
  6
CONTINUOUS
 62
     5
 10
116.0101479684408
 20
236.00736638952691
 30
0.0
 11
115.9680977820817
 21
235.99996999980019
 31
0.0
  0
LINE
  8
DETAIL
  6
CONTINUOUS
 62
     5
 10
116.51513981266361
 20
-144.87676434962489
 30
0.0
 11
116.57958531805799
 21
-144.93171788547809
 31
0.0
  0
LINE
  8
DETAIL
  6
CONTINUOUS
 62
     5
 10
116.0967366181912
 20
-142.06851691888349
 30
0.0
 11
116.0530275805786
 21
-142.03005190418091
 31
0.0
  0
LINE
  8
DETAIL
  6
CONTINUOUS
 62
     5
 10
130.44212823110871
 20
-143.38147050020061
 30
0.0
 11
129.90461526565559
 21
-142.4740575344438
 31
0.0
  0
LINE
  8
DETAIL
  6
CONTINUOUS
 62
     5
 10
116.1412750812806
 20
-142.12321205047351
 30
0.0
 11
116.0967366181912
 21
-142.06851691888349
 31
0.0
  0
LINE
  8
DETAIL
  6
CONTINUOUS
 62
     5
 10
-115.5179450424412
 20
238.72378286048539
 30
0.0
 11
-115.5620822851179
 21
238.8067026081977
 31
0.0
  0
LINE
  8
DETAIL
  6
CONTINUOUS
 62
     5
 10
-115.3694759744312
 20
236.3704043310895
 30
0.0
 11
-115.32622630376591
 21
236.27630450070461
 31
0.0
  0
LINE
  8
DETAIL
  6
CONTINUOUS
 62
     5
 10
-115.4753280840259
 20
238.62966935614949
 30
0.0
 11
-115.5179450424412
 21
238.72378286048539
 31
0.0
  0
LINE
  8
DETAIL
  6
CONTINUOUS
 62
     5
 10
-115.410775017539
 20
236.47401603424581
 30
0.0
 11
-115.3694759744312
 21
236.3704043310895
 31
0.0
  0
LINE
  8
DETAIL
  6
CONTINUOUS
 62
     5
 10
-115.43423141047791
 20
238.52597736545491
 30
0.0
 11
-115.4753280840259
 21
238.62966935614949
 31
0.0
  0
LINE
  8
DETAIL
  6
CONTINUOUS
 62
     5
 10
-115.2338750812787
 20
237.9884644
 30
0.0
 11
-115.3844496840575
 21
238.39145350860289
 31
0.0
  0
LINE
  8
DETAIL
  6
CONTINUOUS
 62
     5
 10
-115.3844496840575
 20
238.39145350860289
 30
0.0
 11
-115.43423141047791
 21
238.52597736545491
 31
0.0
  0
LINE
  8
DETAIL
  6
CONTINUOUS
 62
     5
 10
-115.410775017539
 20
236.47401603424581
 30
0.0
 11
-115.5587852436001
 21
236.87695288874559
 31
0.0
  0
LINE
  8
DETAIL
  6
CONTINUOUS
 62
     5
 10
-115.5587852436001
 20
236.87695288874559
 30
0.0
 11
-115.6077398126627
 21
237.3815290000008
 31
0.0
  0
LINE
  8
DETAIL
  6
CONTINUOUS
 62
     5
 10
116.6411186867108
 20
238.97021230804839
 30
0.0
 11
116.6997399186193
 21
238.99271256378839
 31
0.0
  0
LINE
  8
DETAIL
  6
CONTINUOUS
 62
     5
 10
-143.27603855010059
 20
42.811751732959451
 30
0.0
 11
-144.0852857498985
 21
42.811751732959451
 31
0.0
  0
LINE
  8
DETAIL
  6
CONTINUOUS
 62
     5
 10
-202.17923135000001
 20
18.332023932857059
 30
0.0
 11
-144.0852857498985
 21
18.332023932857059
 31
0.0
  0
LINE
  8
DETAIL
  6
CONTINUOUS
 62
     5
 10
-143.27603855009971
 20
18.332023932857059
 30
0.0
 11
-141.6069662001
 21
18.332023932857059
 31
0.0
  0
LINE
  8
DETAIL
  6
CONTINUOUS
 62
     5
 10
-203.79772574989869
 20
15.90428233285661
 30
0.0
 11
-202.17923135000001
 21
15.90428233285661
 31
0.0
  0
LINE
  8
DETAIL
  6
CONTINUOUS
 62
     5
 10
116.0530275805786
 20
-142.03005190418091
 30
0.0
 11
116.0101479684399
 21
-142.00740788972479
 31
0.0
  0
LINE
  8
DETAIL
  6
CONTINUOUS
 62
     5
 10
116.57958531805799
 20
-144.93171788547809
 30
0.0
 11
116.6411186867099
 21
-144.97015380824999
 31
0.0
  0
LINE
  8
DETAIL
  6
CONTINUOUS
 62
     5
 10
116.0530275805786
 20
236.03001040398291
 30
0.0
 11
116.0101479684408
 21
236.00736638952691
 31
0.0
  0
LINE
  8
DETAIL
  6
CONTINUOUS
 62
     5
 10
116.6411186867099
 20
-144.97015380824999
 30
0.0
 11
116.69973991861841
 21
-144.99265406398811
 31
0.0
  0
LINE
  8
DETAIL
  6
CONTINUOUS
 62
     5
 10
116.5795853180589
 20
238.93177638527649
 30
0.0
 11
116.6411186867108
 21
238.97021230804839
 31
0.0
  0
LINE
  8
DETAIL
  6
CONTINUOUS
 62
     5
 10
-139.78616000010149
 20
-71.292037399998435
 30
0.0
 11
-141.60696620010091
 21
-71.292037399998435
 31
0.0
  0
LINE
  8
DETAIL
  6
CONTINUOUS
 62
     5
 10
-203.79772574989869
 20
-71.899038867040659
 30
0.0
 11
-202.17923135000001
 21
-71.899038867040659
 31
0.0
  0
LINE
  8
DETAIL
  6
CONTINUOUS
 62
     5
 10
-140.79771900000009
 20
-73.21399950019962
 30
0.0
 11
-139.78616000010149
 21
-73.21399950019962
 31
0.0
  0
LINE
  8
DETAIL
  6
CONTINUOUS
 62
     5
 10
-140.79771900000009
 20
-74.32678046704109
 30
0.0
 11
-143.27603855010059
 21
-74.32678046704109
 31
0.0
  0
LINE
  8
DETAIL
  6
CONTINUOUS
 62
     5
 10
-144.08528574989759
 20
-74.32678046704109
 30
0.0
 11
-202.17923135000001
 21
-74.32678046704109
 31
0.0
  0
LINE
  8
DETAIL
  6
CONTINUOUS
 62
     5
 10
-144.0852857498985
 20
-88.690918266940344
 30
0.0
 11
-143.27603855010059
 21
-88.690918266940344
 31
0.0
  0
LINE
  8
DETAIL
  6
CONTINUOUS
 62
     5
 10
-140.79771900000009
 20
-104.49994589999839
 30
0.0
 11
-173.43639830000029
 21
-104.49994589999839
 31
0.0
  0
LINE
  8
DETAIL
  6
CONTINUOUS
 62
     5
 10
-184.56354730010031
 20
-104.49994589999839
 30
0.0
 11
-198.9999527999997
 21
-104.49994589999839
 31
0.0
  0
LINE
  8
DETAIL
  6
CONTINUOUS
 62
     5
 10
141.00003080010171
 20
-104.49994589999839
 30
0.0
 11
173.4363983000012
 21
-104.49994589999839
 31
0.0
  0
LINE
  8
DETAIL
  6
CONTINUOUS
 62
     5
 10
184.5635473001021
 20
-104.49994589999839
 30
0.0
 11
198.99995280000081
 21
-104.49994589999839
 31
0.0
  0
LINE
  8
DETAIL
  6
CONTINUOUS
 62
     5
 10
116.69973991861841
 20
-144.99265406398811
 30
0.0
 11
116.75544901317789
 21
-144.9999649000984
 31
0.0
  0
LINE
  8
DETAIL
  6
CONTINUOUS
 62
     5
 10
116.0101479684399
 20
-142.00740788972479
 30
0.0
 11
115.9680977820817
 21
-142.0000115
 31
0.0
  0
LINE
  8
DETAIL
  6
CONTINUOUS
 62
     5
 10
116.51513981266361
 20
238.87682284942511
 30
0.0
 11
116.5795853180589
 21
238.93177638527649
 31
0.0
  0
LINE
  8
DETAIL
  6
CONTINUOUS
 62
     5
 10
-140.79771900000009
 20
-139.47111400009979
 30
0.0
 11
-142.1127456998984
 21
-139.47111400009979
 31
0.0
  0
LINE
  8
DETAIL
  6
CONTINUOUS
 62
     5
 10
141.00003080010171
 20
-139.47111400009979
 30
0.0
 11
142.11274569990019
 21
-139.47111400009979
 31
0.0
  0
LINE
  8
DETAIL
  6
CONTINUOUS
 62
     5
 10
141.00003080010171
 20
-139.97689350019911
 30
0.0
 11
139.7861600001024
 21
-139.97689350019911
 31
0.0
  0
LINE
  8
DETAIL
  6
CONTINUOUS
 62
     5
 10
-140.79771900000009
 20
-139.97689350019911
 30
0.0
 11
-139.78616000010149
 21
-139.97689350019911
 31
0.0
  0
LINE
  8
DETAIL
  6
CONTINUOUS
 62
     5
 10
-139.58384819999989
 20
-142.0000115
 30
0.0
 11
139.7861600001024
 21
-142.0000115
 31
0.0
  0
LINE
  8
DETAIL
  6
CONTINUOUS
 62
     5
 10
139.7861600001024
 20
-143.1791587001008
 30
0.0
 11
132.502935200102
 21
-143.1791587001008
 31
0.0
  0
LINE
  8
DETAIL
  6
CONTINUOUS
 62
     5
 10
99.554899999900059
 20
-143.1791587001008
 30
0.0
 11
86.00000940010159
 21
-143.1791587001008
 31
0.0
  0
LINE
  8
DETAIL
  6
CONTINUOUS
 62
     5
 10
-105.0000303999996
 20
-143.1791587001008
 30
0.0
 11
-118.54342100010039
 21
-143.1791587001008
 31
0.0
  0
LINE
  8
DETAIL
  6
CONTINUOUS
 62
     5
 10
-139.58384819999989
 20
-143.1791587001008
 30
0.0
 11
-132.30062339999949
 21
-143.1791587001008
 31
0.0
  0
LINE
  8
DETAIL
  6
CONTINUOUS
 62
     5
 10
-142.1127456998984
 20
-143.38147050020061
 30
0.0
 11
-118.23995330010079
 21
-143.38147050020061
 31
0.0
  0
LINE
  8
DETAIL
  6
CONTINUOUS
 62
     5
 10
116.51513981266361
 20
-143.38147050020061
 30
0.0
 11
142.11274569990019
 21
-143.38147050020061
 31
0.0
  0
LINE
  8
DETAIL
  6
CONTINUOUS
 62
     5
 10
-118.23995330010079
 20
-143.68493820020021
 30
0.0
 11
-107.0231484001006
 21
-143.68493820020021
 31
0.0
  0
LINE
  8
DETAIL
  6
CONTINUOUS
 62
     5
 10
114.0895528888686
 20
-143.9884059002016
 30
0.0
 11
116.1412750812806
 21
-143.9884059002016
 31
0.0
  0
LINE
  8
DETAIL
  6
CONTINUOUS
 62
     5
 10
-198.9999527999997
 20
-144.9999649000984
 30
0.0
 11
-116.4264932377
 21
-144.9999649000984
 31
0.0
  0
LINE
  8
DETAIL
  6
CONTINUOUS
 62
     5
 10
116.75544901317789
 20
-144.9999649000984
 30
0.0
 11
198.99995280000081
 21
-144.9999649000984
 31
0.0
  0
LINE
  8
DETAIL
  6
CONTINUOUS
 62
     5
 10
130.44212823110959
 20
237.3815290000008
 30
0.0
 11
129.9046152656565
 21
236.47401603424581
 31
0.0
  0
LINE
  8
DETAIL
  6
CONTINUOUS
 62
     5
 10
116.0967366181922
 20
236.06847541868359
 30
0.0
 11
116.0530275805786
 21
236.03001040398291
 31
0.0
  0
LINE
  8
DETAIL
  6
CONTINUOUS
 62
     5
 10
-103.78615959999929
 20
-236.0000457001008
 30
0.0
 11
84.786138600102262
 21
-236.0000457001008
 31
0.0
  0
LINE
  8
DETAIL
  6
CONTINUOUS
 62
     5
 10
-84.04625600000054
 20
-236.02533467499799
 30
0.0
 11
-89.815145399999892
 21
-236.02533467499799
 31
0.0
  0
LINE
  8
DETAIL
  6
CONTINUOUS
 62
     5
 10
83.369956000000457
 20
-236.6069811001
 30
0.0
 11
-84.04625600000054
 21
-236.6069811001
 31
0.0
  0
LINE
  8
DETAIL
  6
CONTINUOUS
 62
     5
 10
116.1412750812806
 20
236.12317055027549
 30
0.0
 11
116.0967366181922
 21
236.06847541868359
 31
0.0
  0
LINE
  8
DETAIL
  6
CONTINUOUS
 62
     5
 10
80.000020000102268
 20
-244.09251770020111
 30
0.0
 11
-80.000020000101344
 21
-244.09251770020111
 31
0.0
  0
LINE
  8
DETAIL
  6
CONTINUOUS
 62
     5
 10
-203.79772574989869
 20
-71.899038867040659
 30
0.0
 11
-203.79772574989869
 21
15.90428233285661
 31
0.0
  0
LINE
  8
DETAIL
  6
CONTINUOUS
 62
     5
 10
-202.17923135000001
 20
-74.32678046704109
 30
0.0
 11
-202.17923135000001
 21
-71.899038867040659
 31
0.0
  0
LINE
  8
DETAIL
  6
CONTINUOUS
 62
     5
 10
-202.17923135000001
 20
18.332023932857059
 30
0.0
 11
-202.17923135000001
 21
15.90428233285661
 31
0.0
  0
LINE
  8
DETAIL
  6
CONTINUOUS
 62
     5
 10
-198.9999527999997
 20
239.00002339990041
 30
0.0
 11
-198.9999527999997
 21
198.49990439980041
 31
0.0
  0
LINE
  8
DETAIL
  6
CONTINUOUS
 62
     5
 10
-198.9999527999997
 20
-104.49994589999839
 30
0.0
 11
-198.9999527999997
 21
-144.9999649000984
 31
0.0
  0
LINE
  8
DETAIL
  6
CONTINUOUS
 62
     5
 10
116.4694822851197
 20
238.8067026081977
 30
0.0
 11
116.51513981266361
 21
238.87682284942511
 31
0.0
  0
LINE
  8
DETAIL
  6
CONTINUOUS
 62
     5
 10
116.1884260061515
 20
236.19335056401499
 30
0.0
 11
116.1412750812806
 21
236.12317055027549
 31
0.0
  0
LINE
  8
DETAIL
  6
CONTINUOUS
 62
     5
 10
70.999989000102687
 20
-297.9076037002003
 30
0.0
 11
-70.999989000101792
 21
-297.9076037002003
 31
0.0
  0
LINE
  8
DETAIL
  6
CONTINUOUS
 62
     5
 10
70.999989000102687
 20
-306.00007569999872
 30
0.0
 11
-70.999989000101792
 21
-306.00007569999872
 31
0.0
  0
LINE
  8
DETAIL
  6
CONTINUOUS
 62
     5
 10
-184.56354730010031
 20
198.49990439980041
 30
0.0
 11
-184.56354730010031
 21
218.49995209990061
 31
0.0
  0
LINE
  8
DETAIL
  6
CONTINUOUS
 62
     5
 10
-184.56354730010031
 20
-104.49994589999839
 30
0.0
 11
-184.56354730010031
 21
-124.4999936001005
 31
0.0
  0
LINE
  8
DETAIL
  6
CONTINUOUS
 62
     5
 10
-173.43639829999941
 20
198.49990439980041
 30
0.0
 11
-173.43639829999941
 21
218.49995209990061
 31
0.0
  0
LINE
  8
DETAIL
  6
CONTINUOUS
 62
     5
 10
-173.43639830000029
 20
-104.49994589999839
 30
0.0
 11
-173.43639830000029
 21
-124.4999936001005
 31
0.0
  0
LINE
  8
DETAIL
  6
CONTINUOUS
 62
     5
 10
-144.0852857498985
 20
-88.690918266940344
 30
0.0
 11
-144.0852857498985
 21
42.811751732959451
 31
0.0
  0
LINE
  8
DETAIL
  6
CONTINUOUS
 62
     5
 10
-143.27603855010059
 20
42.811751732959451
 30
0.0
 11
-143.27603855010059
 21
-88.690918266940344
 31
0.0
  0
LINE
  8
DETAIL
  6
CONTINUOUS
 62
     5
 10
-142.1127456998984
 20
-144.9999649000984
 30
0.0
 11
-142.1127456998984
 21
-139.47111400009979
 31
0.0
  0
LINE
  8
DETAIL
  6
CONTINUOUS
 62
     5
 10
-142.1127456998984
 20
239.00002339990041
 30
0.0
 11
-142.1127456998984
 21
233.47107249989989
 31
0.0
  0
LINE
  8
DETAIL
  6
CONTINUOUS
 62
     5
 10
-141.60696620010091
 20
167.21395799999979
 30
0.0
 11
-141.60696620010091
 21
-71.292037399998435
 31
0.0
  0
LINE
  8
DETAIL
  6
CONTINUOUS
 62
     5
 10
-141.0000308001008
 20
233.97685200000109
 30
0.0
 11
-141.0000308001008
 21
169.4393877998987
 31
0.0
  0
LINE
  8
DETAIL
  6
CONTINUOUS
 62
     5
 10
-140.79771900000009
 20
-73.21399950019962
 30
0.0
 11
-140.79771900000009
 21
-139.97689350019911
 31
0.0
  0
LINE
  8
DETAIL
  6
CONTINUOUS
 62
     5
 10
-139.78616000010149
 20
-140.40064937631701
 30
0.0
 11
-139.78616000010149
 21
-139.97689350019911
 31
0.0
  0
LINE
  8
DETAIL
  6
CONTINUOUS
 62
     5
 10
-139.78616000010061
 20
234.3814755999006
 30
0.0
 11
-139.78616000010061
 21
233.97685200000109
 31
0.0
  0
LINE
  8
DETAIL
  6
CONTINUOUS
 62
     5
 10
-139.78616000010061
 20
169.4393877998987
 30
0.0
 11
-139.78616000010061
 21
167.21395799999979
 31
0.0
  0
LINE
  8
DETAIL
  6
CONTINUOUS
 62
     5
 10
-139.78616000010149
 20
-71.292037399998435
 30
0.0
 11
-139.78616000010149
 21
-73.21399950019962
 31
0.0
  0
LINE
  8
DETAIL
  6
CONTINUOUS
 62
     5
 10
-132.50293520010109
 20
235.99996999980019
 30
0.0
 11
-132.50293520010109
 21
236.80921719989919
 31
0.0
  0
LINE
  8
DETAIL
  6
CONTINUOUS
 62
     5
 10
-132.30062339999949
 20
-142.0000115
 30
0.0
 11
-132.30062339999949
 21
-143.1791587001008
 31
0.0
  0
LINE
  8
DETAIL
  6
CONTINUOUS
 62
     5
 10
-80.000020000100449
 20
244.46244199990051
 30
0.0
 11
-70.999989000100882
 21
297.90752799989968
 31
0.0
  0
LINE
  8
DETAIL
  6
CONTINUOUS
 62
     5
 10
116.425345042443
 20
238.72378286048539
 30
0.0
 11
116.4694822851197
 21
238.8067026081977
 31
0.0
  0
LINE
  8
DETAIL
  6
CONTINUOUS
 62
     5
 10
116.23362630376781
 20
236.27630450070461
 30
0.0
 11
116.1884260061515
 21
236.19335056401499
 31
0.0
  0
LINE
  8
DETAIL
  6
CONTINUOUS
 62
     5
 10
-70.999989000101792
 20
-297.9076037002003
 30
0.0
 11
-80.000020000101344
 21
-244.09251770020111
 31
0.0
  0
LINE
  8
DETAIL
  6
CONTINUOUS
 62
     5
 10
-118.54342100010039
 20
-143.1791587001008
 30
0.0
 11
-118.54342100010039
 21
-142.0000115
 31
0.0
  0
LINE
  8
DETAIL
  6
CONTINUOUS
 62
     5
 10
-118.23995330010079
 20
-143.1791587001008
 30
0.0
 11
-118.23995330010079
 21
-143.68493820020021
 31
0.0
  0
LINE
  8
DETAIL
  6
CONTINUOUS
 62
     5
 10
-115.6077398126627
 20
238.87682284942511
 30
0.0
 11
-115.6077398126627
 21
237.3815290000008
 31
0.0
  0
LINE
  8
DETAIL
  6
CONTINUOUS
 62
     5
 10
-115.2338750812787
 20
237.9884644
 30
0.0
 11
-115.2338750812787
 21
236.12317055027549
 31
0.0
  0
LINE
  8
DETAIL
  6
CONTINUOUS
 62
     5
 10
-113.1821582999992
 20
235.99996999980019
 30
0.0
 11
-113.1821582999992
 21
237.9884644
 31
0.0
  0
LINE
  8
DETAIL
  6
CONTINUOUS
 62
     5
 10
-107.0231484001006
 20
-143.1791587001008
 30
0.0
 11
-107.0231484001006
 21
-143.68493820020021
 31
0.0
  0
LINE
  8
DETAIL
  6
CONTINUOUS
 62
     5
 10
-105.0000303999996
 20
-234.78617490009881
 30
0.0
 11
-105.0000303999996
 21
-142.0000115
 31
0.0
  0
LINE
  8
DETAIL
  6
CONTINUOUS
 62
     5
 10
-89.815145399999892
 20
-236.0000457001008
 30
0.0
 11
-89.815145399999892
 21
-236.02533467499799
 31
0.0
  0
LINE
  8
DETAIL
  6
CONTINUOUS
 62
     5
 10
-90.115609999999847
 20
236.60690539979939
 30
0.0
 11
-90.115609999999847
 21
235.99996999980019
 31
0.0
  0
LINE
  8
DETAIL
  6
CONTINUOUS
 62
     5
 10
-84.04625600000054
 20
-236.6069811001
 30
0.0
 11
-84.04625600000054
 21
-236.0000457001008
 31
0.0
  0
LINE
  8
DETAIL
  6
CONTINUOUS
 62
     5
 10
-80.000020000101344
 20
-244.09251770020111
 30
0.0
 11
-80.000020000101344
 21
-237.2139165000992
 31
0.0
  0
LINE
  8
DETAIL
  6
CONTINUOUS
 62
     5
 10
-80.000020000100449
 20
237.58384079979851
 30
0.0
 11
-80.000020000100449
 21
244.46244199990051
 31
0.0
  0
LINE
  8
DETAIL
  6
CONTINUOUS
 62
     5
 10
-70.999989000101792
 20
-306.00007569999872
 30
0.0
 11
-70.999989000101792
 21
-297.9076037002003
 31
0.0
  0
LINE
  8
DETAIL
  6
CONTINUOUS
 62
     5
 10
-70.999989000100882
 20
297.90752799989968
 30
0.0
 11
-70.999989000100882
 21
306.0
 31
0.0
  0
LINE
  8
DETAIL
  6
CONTINUOUS
 62
     5
 10
116.1916715194602
 20
238.12269702588
 30
0.0
 11
116.3416314104788
 21
238.52597736545491
 31
0.0
  0
LINE
  8
DETAIL
  6
CONTINUOUS
 62
     5
 10
116.1412750812806
 20
237.9884644
 30
0.0
 11
116.1916715194602
 21
238.12269702588
 31
0.0
  0
LINE
  8
DETAIL
  6
CONTINUOUS
 62
     5
 10
116.3416314104788
 20
238.52597736545491
 30
0.0
 11
116.38272808402689
 21
238.62966935614949
 31
0.0
  0
LINE
  8
DETAIL
  6
CONTINUOUS
 62
     5
 10
116.318175017238
 20
236.47401603424581
 30
0.0
 11
116.27687597413021
 21
236.3704043310895
 31
0.0
  0
LINE
  8
DETAIL
  6
CONTINUOUS
 62
     5
 10
116.38272808402689
 20
238.62966935614949
 30
0.0
 11
116.425345042443
 21
238.72378286048539
 31
0.0
  0
LINE
  8
DETAIL
  6
CONTINUOUS
 62
     5
 10
116.27687597413021
 20
236.3704043310895
 30
0.0
 11
116.23362630376781
 21
236.27630450070461
 31
0.0
  0
LINE
  8
DETAIL
  6
CONTINUOUS
 62
     5
 10
-32.68447156293405
 20
236.60690539979939
 30
0.0
 11
-32.68447156293405
 21
235.99996999980019
 31
0.0
  0
LINE
  8
DETAIL
  6
CONTINUOUS
 62
     5
 10
116.3677028458887
 20
236.60819640601721
 30
0.0
 11
116.51513981266361
 21
237.3815290000008
 31
0.0
  0
LINE
  8
DETAIL
  6
CONTINUOUS
 62
     5
 10
116.318175017238
 20
236.47401603424581
 30
0.0
 11
116.3677028458887
 21
236.60819640601721
 31
0.0
  0
LINE
  8
DETAIL
  6
CONTINUOUS
 62
     5
 10
33.354971562936051
 20
236.60690539979939
 30
0.0
 11
33.354971562936051
 21
235.99996999980019
 31
0.0
  0
LINE
  8
DETAIL
  6
CONTINUOUS
 62
     5
 10
70.999989000102687
 20
-306.00007569999872
 30
0.0
 11
70.999989000102687
 21
-297.9076037002003
 31
0.0
  0
LINE
  8
DETAIL
  6
CONTINUOUS
 62
     5
 10
70.999989000102687
 20
297.90752799989968
 30
0.0
 11
70.999989000102687
 21
306.0
 31
0.0
  0
LINE
  8
DETAIL
  6
CONTINUOUS
 62
     5
 10
80.000020000102268
 20
-244.09251770020111
 30
0.0
 11
80.000020000102268
 21
-237.2139165000992
 31
0.0
  0
LINE
  8
DETAIL
  6
CONTINUOUS
 62
     5
 10
80.000020000102268
 20
237.58384079979851
 30
0.0
 11
80.000020000102268
 21
244.46244199990051
 31
0.0
  0
LINE
  8
DETAIL
  6
CONTINUOUS
 62
     5
 10
83.369956000000457
 20
-236.6069811001
 30
0.0
 11
83.369956000000457
 21
-236.0000457001008
 31
0.0
  0
LINE
  8
DETAIL
  6
CONTINUOUS
 62
     5
 10
86.00000940010159
 20
-142.0000115
 30
0.0
 11
86.00000940010159
 21
-234.78617490009881
 31
0.0
  0
LINE
  8
DETAIL
  6
CONTINUOUS
 62
     5
 10
90.115610000000743
 20
236.60690539979939
 30
0.0
 11
90.115610000000743
 21
235.99996999980019
 31
0.0
  0
LINE
  8
DETAIL
  6
CONTINUOUS
 62
     5
 10
96.520222999899488
 20
-143.1791587001008
 30
0.0
 11
96.520222999899488
 21
-142.0000115
 31
0.0
  0
LINE
  8
DETAIL
  6
CONTINUOUS
 62
     5
 10
99.554899999900059
 20
-143.1791587001008
 30
0.0
 11
99.554899999900059
 21
-142.0000115
 31
0.0
  0
LINE
  8
DETAIL
  6
CONTINUOUS
 62
     5
 10
70.999989000102687
 20
-297.9076037002003
 30
0.0
 11
80.000020000102268
 21
-244.09251770020111
 31
0.0
  0
LINE
  8
DETAIL
  6
CONTINUOUS
 62
     5
 10
80.000020000102268
 20
244.46244199990051
 30
0.0
 11
70.999989000102687
 21
297.90752799989968
 31
0.0
  0
LINE
  8
DETAIL
  6
CONTINUOUS
 62
     5
 10
106.502865800001
 20
235.99996999980019
 30
0.0
 11
106.502865800001
 21
236.02525897500121
 31
0.0
  0
LINE
  8
DETAIL
  6
CONTINUOUS
 62
     5
 10
114.089558300001
 20
237.9884644
 30
0.0
 11
114.089558300001
 21
235.99996999980019
 31
0.0
  0
LINE
  8
DETAIL
  6
CONTINUOUS
 62
     5
 10
114.089558300001
 20
-142.0000115
 30
0.0
 11
114.089558300001
 21
-143.9884059002016
 31
0.0
  0
LINE
  8
DETAIL
  6
CONTINUOUS
 62
     5
 10
116.1412750812806
 20
-143.9884059002016
 30
0.0
 11
116.1412750812806
 21
-142.12321205047351
 31
0.0
  0
LINE
  8
DETAIL
  6
CONTINUOUS
 62
     5
 10
116.1412750812806
 20
237.9884644
 30
0.0
 11
116.1412750812806
 21
236.12317055027549
 31
0.0
  0
LINE
  8
DETAIL
  6
CONTINUOUS
 62
     5
 10
116.51513981266361
 20
-144.87676434962489
 30
0.0
 11
116.51513981266361
 21
-143.38147050020061
 31
0.0
  0
LINE
  8
DETAIL
  6
CONTINUOUS
 62
     5
 10
116.51513981266361
 20
238.87682284942511
 30
0.0
 11
116.51513981266361
 21
237.3815290000008
 31
0.0
  0
LINE
  8
DETAIL
  6
CONTINUOUS
 62
     5
 10
132.502935200102
 20
235.99996999980019
 30
0.0
 11
132.502935200102
 21
236.80921719989919
 31
0.0
  0
LINE
  8
DETAIL
  6
CONTINUOUS
 62
     5
 10
132.502935200102
 20
-142.0000115
 30
0.0
 11
132.502935200102
 21
-143.1791587001008
 31
0.0
  0
LINE
  8
DETAIL
  6
CONTINUOUS
 62
     5
 10
139.7861600001024
 20
-140.38151710010041
 30
0.0
 11
139.7861600001024
 21
-139.97689350019911
 31
0.0
  0
LINE
  8
DETAIL
  6
CONTINUOUS
 62
     5
 10
139.7861600001024
 20
235.99996999980019
 30
0.0
 11
139.7861600001024
 21
233.97685200000109
 31
0.0
  0
LINE
  8
DETAIL
  6
CONTINUOUS
 62
     5
 10
141.00003080010171
 20
-139.97689350019911
 30
0.0
 11
141.00003080010259
 21
233.97685200000109
 31
0.0
  0
LINE
  8
DETAIL
  6
CONTINUOUS
 62
     5
 10
142.11274569990019
 20
-144.9999649000984
 30
0.0
 11
142.11274569990019
 21
-139.47111400009979
 31
0.0
  0
LINE
  8
DETAIL
  6
CONTINUOUS
 62
     5
 10
142.11274569990019
 20
239.00002339990041
 30
0.0
 11
142.11274569990019
 21
233.47107249989989
 31
0.0
  0
LINE
  8
DETAIL
  6
CONTINUOUS
 62
     5
 10
173.4363983000012
 20
198.49990439980041
 30
0.0
 11
173.4363983000012
 21
218.49995209990061
 31
0.0
  0
LINE
  8
DETAIL
  6
CONTINUOUS
 62
     5
 10
173.4363983000012
 20
-104.49994589999839
 30
0.0
 11
173.4363983000012
 21
-124.4999936001005
 31
0.0
  0
LINE
  8
DETAIL
  6
CONTINUOUS
 62
     5
 10
184.5635473001021
 20
198.49990439980041
 30
0.0
 11
184.5635473001021
 21
218.49995209990061
 31
0.0
  0
LINE
  8
DETAIL
  6
CONTINUOUS
 62
     5
 10
184.5635473001021
 20
-104.49994589999839
 30
0.0
 11
184.5635473001021
 21
-124.4999936001005
 31
0.0
  0
LINE
  8
DETAIL
  6
CONTINUOUS
 62
     5
 10
198.99995280000081
 20
239.00002339990041
 30
0.0
 11
198.99995280000081
 21
198.49990439980041
 31
0.0
  0
LINE
  8
DETAIL
  6
CONTINUOUS
 62
     5
 10
198.99995280000081
 20
-104.49994589999839
 30
0.0
 11
198.99995280000081
 21
-144.9999649000984
 31
0.0
  0
ARC
  8
DETAIL
  6
CONTINUOUS
 62
     5
 10
-178.99997279989839
 20
218.49995209990061
 30
0.0
 40
5.5635744998988441
 50
0.0
 51
180.0
  0
ARC
  8
DETAIL
  6
CONTINUOUS
 62
     5
 10
-202.17923135000001
 20
15.90428233285661
 30
0.0
 40
1.6184943998988439
 50
90.0
 51
180.0
  0
ARC
  8
DETAIL
  6
CONTINUOUS
 62
     5
 10
-128.76016689989771
 20
237.61846439999999
 30
0.0
 40
1.6184943998988439
 50
224.99999999999079
 51
270.0
  0
ARC
  8
DETAIL
  6
CONTINUOUS
 62
     5
 10
-139.78616000010061
 20
235.595346399899
 30
0.0
 40
1.2138708
 50
90.0
 51
270.0
  0
ARC
  8
DETAIL
  6
CONTINUOUS
 62
     5
 10
-202.17923135000001
 20
15.90428233285661
 30
0.0
 40
0.8092472001011558
 50
90.0
 51
180.0
  0
ARC
  8
DETAIL
  6
CONTINUOUS
 62
     5
 10
-81.01806027689598
 20
237.53931176015041
 30
0.0
 40
1.01901366062944
 50
293.79303803846818
 51
2.504518641208997
  0
ARC
  8
DETAIL
  6
CONTINUOUS
 62
     5
 10
178.99997279990021
 20
218.49995209990061
 30
0.0
 40
5.5635744998988441
 50
0.0
 51
180.0
  0
ARC
  8
DETAIL
  6
CONTINUOUS
 62
     5
 10
128.7601668999005
 20
237.61846439999999
 30
0.0
 40
1.6184943998988439
 50
270.0
 51
315.00000000000921
  0
ARC
  8
DETAIL
  6
CONTINUOUS
 62
     5
 10
139.7861600001024
 20
235.595346399899
 30
0.0
 40
1.2138708
 50
270.0
 51
90.0
  0
ARC
  8
DETAIL
  6
CONTINUOUS
 62
     5
 10
81.018060276897813
 20
237.53931176015041
 30
0.0
 40
1.019013660629702
 50
177.49548135879101
 51
246.20696196153179
  0
ARC
  8
DETAIL
  6
CONTINUOUS
 62
     5
 10
139.7861600001024
 20
235.595346399899
 30
0.0
 40
0.4046235998988441
 50
270.0
 51
90.0
  0
ARC
  8
DETAIL
  6
CONTINUOUS
 62
     5
 10
-178.99997279989839
 20
-124.4999936001005
 30
0.0
 40
5.5635744998988441
 50
180.0
 51
0.0
  0
ARC
  8
DETAIL
  6
CONTINUOUS
 62
     5
 10
-202.17923135000001
 20
-71.899038867040659
 30
0.0
 40
1.6184943998988439
 50
180.0
 51
270.0
  0
ARC
  8
DETAIL
  6
CONTINUOUS
 62
     5
 10
-103.78615959999929
 20
-234.78617490009881
 30
0.0
 40
1.2138708
 50
180.0
 51
270.0
  0
ARC
  8
DETAIL
  6
CONTINUOUS
 62
     5
 10
-139.38480835514201
 20
-141.78033790009869
 30
0.0
 40
1.4129106448582121
 50
98.098320403978448
 51
261.90167959602161
  0
ARC
  8
DETAIL
  6
CONTINUOUS
 62
     5
 10
-202.17923135000001
 20
-71.899038867040659
 30
0.0
 40
0.8092472001011558
 50
180.0
 51
270.0
  0
ARC
  8
DETAIL
  6
CONTINUOUS
 62
     5
 10
-80.606955400101469
 20
-237.2139165000992
 30
0.0
 40
0.6069354
 50
0.0
 51
90.0
  0
ARC
  8
DETAIL
  6
CONTINUOUS
 62
     5
 10
178.99997279990021
 20
-124.4999936001005
 30
0.0
 40
5.5635744998988441
 50
180.0
 51
0.0
  0
ARC
  8
DETAIL
  6
CONTINUOUS
 62
     5
 10
128.76016689989959
 20
-143.6185059002016
 30
0.0
 40
1.6184943998988439
 50
44.999999999990777
 51
90.0
  0
ARC
  8
DETAIL
  6
CONTINUOUS
 62
     5
 10
139.58712015524449
 20
-141.78033790009869
 30
0.0
 40
1.4129106448582121
 50
278.09832040397839
 51
81.90167959602158
  0
ARC
  8
DETAIL
  6
CONTINUOUS
 62
     5
 10
84.786138600102262
 20
-234.78617490009881
 30
0.0
 40
1.2138708
 50
270.0
 51
0.0
  0
ARC
  8
DETAIL
  6
CONTINUOUS
 62
     5
 10
80.606955400101469
 20
-237.2139165000992
 30
0.0
 40
0.6069354
 50
90.0
 51
180.0
  0
LINE
  8
BASIS
  6
DASHDOT
 62
     6
 10
-158.99997279989839
 20
218.49995209990061
 30
0.0
 11
-198.99997279989839
 21
218.49995209990061
 31
0.0
  0
LINE
  8
BASIS
  6
DASHDOT
 62
     6
 10
-178.99997279989839
 20
238.49995209990061
 30
0.0
 11
-178.99997279989839
 21
198.49995209990061
 31
0.0
  0
LINE
  8
BASIS
  6
DASHDOT
 62
     6
 10
198.99997279990021
 20
218.49995209990061
 30
0.0
 11
158.99997279990021
 21
218.49995209990061
 31
0.0
  0
LINE
  8
BASIS
  6
DASHDOT
 62
     6
 10
178.99996656583241
 20
238.49997274325551
 30
0.0
 11
178.99997903396891
 21
198.49993145654571
 31
0.0
  0
LINE
  8
BASIS
  6
DASHDOT
 62
     6
 10
198.99997279990021
 20
-124.4999936001005
 30
0.0
 11
158.99997279990021
 21
-124.4999936001005
 31
0.0
  0
LINE
  8
BASIS
  6
DASHDOT
 62
     6
 10
-158.99997279989839
 20
-124.4999936001005
 30
0.0
 11
-198.99997279989839
 21
-124.4999936001005
 31
0.0
  0
LINE
  8
BASIS
  6
DASHDOT
 62
     6
 10
-178.99997279989839
 20
-104.4999936001005
 30
0.0
 11
-178.99997279989839
 21
-144.49999360010051
 31
0.0
  0
LINE
  8
SIZE
  6
CONTINUOUS
 62
    30
 10
-70.999757397194131
 20
326.0
 30
0.0
 11
-70.999757397194088
 21
460.91824316450169
 31
0.0
  0
LINE
  8
SIZE
  6
CONTINUOUS
 62
    30
 10
70.999989000102687
 20
326.0
 30
0.0
 11
70.999989000102701
 21
460.91824316450169
 31
0.0
  0
LINE
  8
SIZE
  6
CONTINUOUS
 62
    30
 10
-58.999757397194102
 20
440.91824316450169
 30
0.0
 11
58.999989000102701
 21
440.91824316450169
 31
0.0
  0
LINE
  8
SIZE
  6
CONTINUOUS
 62
    30
 10
70.999989000102701
 20
440.91824316450169
 30
0.0
 11
442.40703294952613
 21
440.91824316450169
 31
0.0
  0
CIRCLE
  8
SIZE
  6
CONTINUOUS
 62
    30
 10
-70.999757397194088
 20
440.91824316450169
 30
0.0
 40
6.0
  0
LINE
  8
SIZE
  6
CONTINUOUS
 62
    30
 10
-70.999757397194088
 20
440.91824316450169
 30
0.0
 11
-58.999757397194102
 21
440.91824316450169
 31
0.0
  0
CIRCLE
  8
SIZE
  6
CONTINUOUS
 62
    30
 10
70.999989000102701
 20
440.91824316450169
 30
0.0
 40
6.0
  0
LINE
  8
SIZE
  6
CONTINUOUS
 62
    30
 10
70.999989000102701
 20
440.91824316450169
 30
0.0
 11
58.999989000102701
 21
440.91824316450169
 31
0.0
  0
TEXT
  8
SIZE
  6
CONTINUOUS
 62
    30
 10
211.1441758066691
 20
465.91824316450169
 30
0.0
 40
64.0
  1
φ142
 41
0.9
 72
     1
 11
320.03560437809762
 21
465.91824316450169
 31
0.0
  0
POINT
  8
DEFPOINTS
  6
CONTINUOUS
 62
    30
 10
-70.999757397194131
 20
306.0
 30
0.0
  0
POINT
  8
DEFPOINTS
  6
CONTINUOUS
 62
    30
 10
70.999989000102687
 20
306.0
 30
0.0
  0
POINT
  8
DEFPOINTS
  6
CONTINUOUS
 62
    30
 10
70.999989000102701
 20
440.91824316450169
 30
0.0
  0
LINE
  8
SIZE
  6
CONTINUOUS
 62
    30
 10
-80.000020000100449
 20
264.46244199990048
 30
0.0
 11
-80.000020000100434
 21
588.91824316450175
 31
0.0
  0
LINE
  8
SIZE
  6
CONTINUOUS
 62
    30
 10
80.000020000102268
 20
264.46244199990048
 30
0.0
 11
80.000020000102268
 21
588.91824316450175
 31
0.0
  0
LINE
  8
SIZE
  6
CONTINUOUS
 62
    30
 10
-68.000020000100434
 20
568.91824316450175
 30
0.0
 11
68.000020000102282
 21
568.91824316450175
 31
0.0
  0
LINE
  8
SIZE
  6
CONTINUOUS
 62
    30
 10
80.000020000102268
 20
568.91824316450175
 30
0.0
 11
444.64149987002372
 21
568.91824316450175
 31
0.0
  0
CIRCLE
  8
SIZE
  6
CONTINUOUS
 62
    30
 10
-80.000020000100434
 20
568.91824316450175
 30
0.0
 40
6.0
  0
LINE
  8
SIZE
  6
CONTINUOUS
 62
    30
 10
-80.000020000100434
 20
568.91824316450175
 30
0.0
 11
-68.000020000100434
 21
568.91824316450175
 31
0.0
  0
CIRCLE
  8
SIZE
  6
CONTINUOUS
 62
    30
 10
80.000020000102268
 20
568.91824316450175
 30
0.0
 40
6.0
  0
LINE
  8
SIZE
  6
CONTINUOUS
 62
    30
 10
80.000020000102268
 20
568.91824316450175
 30
0.0
 11
68.000020000102282
 21
568.91824316450175
 31
0.0
  0
TEXT
  8
SIZE
  6
CONTINUOUS
 62
    30
 10
213.37864272716661
 20
593.91824316450175
 30
0.0
 40
64.0
  1
φ160
 41
0.9
 72
     1
 11
322.27007129859521
 21
593.91824316450175
 31
0.0
  0
POINT
  8
DEFPOINTS
  6
CONTINUOUS
 62
    30
 10
-80.000020000100449
 20
244.46244199990051
 30
0.0
  0
POINT
  8
DEFPOINTS
  6
CONTINUOUS
 62
    30
 10
80.000020000102268
 20
244.46244199990051
 30
0.0
  0
POINT
  8
DEFPOINTS
  6
CONTINUOUS
 62
    30
 10
80.000020000102268
 20
568.91824316450175
 30
0.0
  0
LINE
  8
SIZE
  6
CONTINUOUS
 62
    30
 10
141.00003080010171
 20
-159.97689350019911
 30
0.0
 11
141.00003080010171
 21
-565.27317521853524
 31
0.0
  0
LINE
  8
SIZE
  6
CONTINUOUS
 62
    30
 10
86.00000940010159
 20
-254.78617490009881
 30
0.0
 11
86.000009400101561
 21
-565.27317521853524
 31
0.0
  0
LINE
  8
SIZE
  6
CONTINUOUS
 62
    30
 10
74.000009400101561
 20
-545.27317521853513
 30
0.0
 11
62.000009400101582
 21
-545.27317521853513
 31
0.0
  0
LINE
  8
SIZE
  6
CONTINUOUS
 62
    30
 10
153.00003080010171
 20
-545.27317521853513
 30
0.0
 11
310.08927365724412
 21
-545.27317521853513
 31
0.0
  0
LINE
  8
SIZE
  6
CONTINUOUS
 62
    30
 10
86.000009400101561
 20
-545.27317521853513
 30
0.0
 11
141.00003080010171
 21
-545.27317521853513
 31
0.0
  0
CIRCLE
  8
SIZE
  6
CONTINUOUS
 62
    30
 10
86.000009400101561
 20
-545.27317521853513
 30
0.0
 40
6.0
  0
LINE
  8
SIZE
  6
CONTINUOUS
 62
    30
 10
86.000009400101561
 20
-545.27317521853513
 30
0.0
 11
74.000009400101561
 21
-545.27317521853513
 31
0.0
  0
CIRCLE
  8
SIZE
  6
CONTINUOUS
 62
    30
 10
141.00003080010171
 20
-545.27317521853513
 30
0.0
 40
6.0
  0
LINE
  8
SIZE
  6
CONTINUOUS
 62
    30
 10
141.00003080010171
 20
-545.27317521853513
 30
0.0
 11
153.00003080010171
 21
-545.27317521853513
 31
0.0
  0
TEXT
  8
SIZE
  6
CONTINUOUS
 62
    30
 10
191.83213080010131
 20
-520.27317521853513
 30
0.0
 40
64.0
  1
55
 41
0.9
 72
     1
 11
238.46070222867269
 21
-520.27317521853513
 31
0.0
  0
POINT
  8
DEFPOINTS
  6
CONTINUOUS
 62
    30
 10
141.00003080010171
 20
-139.97689350019911
 30
0.0
  0
POINT
  8
DEFPOINTS
  6
CONTINUOUS
 62
    30
 10
86.00000940010159
 20
-234.78617490009881
 30
0.0
  0
POINT
  8
DEFPOINTS
  6
CONTINUOUS
 62
    30
 10
86.000009400101561
 20
-545.27317521853513
 30
0.0
  0
LINE
  8
SIZE
  6
CONTINUOUS
 62
    30
 10
86.00000940010159
 20
-254.78617490009881
 30
0.0
 11
86.000009400101561
 21
-565.27317521853524
 31
0.0
  0
LINE
  8
SIZE
  6
CONTINUOUS
 62
    30
 10
-105.0000303999996
 20
-254.78617490009881
 30
0.0
 11
-105.0000303999996
 21
-565.27317521853524
 31
0.0
  0
LINE
  8
SIZE
  6
CONTINUOUS
 62
    30
 10
74.000009400101561
 20
-545.27317521853513
 30
0.0
 11
-93.000030399999559
 21
-545.27317521853513
 31
0.0
  0
CIRCLE
  8
SIZE
  6
CONTINUOUS
 62
    30
 10
86.000009400101561
 20
-545.27317521853513
 30
0.0
 40
6.0
  0
LINE
  8
SIZE
  6
CONTINUOUS
 62
    30
 10
86.000009400101561
 20
-545.27317521853513
 30
0.0
 11
74.000009400101561
 21
-545.27317521853513
 31
0.0
  0
CIRCLE
  8
SIZE
  6
CONTINUOUS
 62
    30
 10
-105.0000303999996
 20
-545.27317521853513
 30
0.0
 40
6.0
  0
LINE
  8
SIZE
  6
CONTINUOUS
 62
    30
 10
-105.0000303999996
 20
-545.27317521853513
 30
0.0
 11
-93.000030399999602
 21
-545.27317521853513
 31
0.0
  0
TEXT
  8
SIZE
  6
CONTINUOUS
 62
    30
 10
-65.728581928520413
 20
-520.27317521853513
 30
0.0
 40
64.0
  1
191
 41
0.9
 72
     1
 11
-9.5000104999489992
 21
-520.27317521853513
 31
0.0
  0
POINT
  8
DEFPOINTS
  6
CONTINUOUS
 62
    30
 10
86.00000940010159
 20
-234.78617490009881
 30
0.0
  0
POINT
  8
DEFPOINTS
  6
CONTINUOUS
 62
    30
 10
-105.0000303999996
 20
-234.78617490009881
 30
0.0
  0
POINT
  8
DEFPOINTS
  6
CONTINUOUS
 62
    30
 10
-105.0000303999996
 20
-545.27317521853513
 30
0.0
  0
LINE
  8
SIZE
  6
CONTINUOUS
 62
    30
 10
141.00003080010259
 20
253.97685200000109
 30
0.0
 11
141.00003080010271
 21
716.91824316450175
 31
0.0
  0
LINE
  8
SIZE
  6
CONTINUOUS
 62
    30
 10
-141.0000308001008
 20
253.97685200000109
 30
0.0
 11
-141.0000308001008
 21
716.91824316450175
 31
0.0
  0
LINE
  8
SIZE
  6
CONTINUOUS
 62
    30
 10
129.00003080010271
 20
696.91824316450175
 30
0.0
 11
-129.0000308001008
 21
696.91824316450175
 31
0.0
  0
CIRCLE
  8
SIZE
  6
CONTINUOUS
 62
    30
 10
141.00003080010271
 20
696.91824316450175
 30
0.0
 40
6.0
  0
LINE
  8
SIZE
  6
CONTINUOUS
 62
    30
 10
141.00003080010271
 20
696.91824316450175
 30
0.0
 11
129.00003080010271
 21
696.91824316450175
 31
0.0
  0
CIRCLE
  8
SIZE
  6
CONTINUOUS
 62
    30
 10
-141.0000308001008
 20
696.91824316450175
 30
0.0
 40
6.0
  0
LINE
  8
SIZE
  6
CONTINUOUS
 62
    30
 10
-141.0000308001008
 20
696.91824316450175
 30
0.0
 11
-129.0000308001008
 21
696.91824316450175
 31
0.0
  0
TEXT
  8
SIZE
  6
CONTINUOUS
 62
    30
 10
-74.057142857141926
 20
721.91824316450175
 30
0.0
 40
64.0
  1
282
 41
0.9
 72
     1
 11
0.0000000000009095
 21
721.91824316450175
 31
0.0
  0
POINT
  8
DEFPOINTS
  6
CONTINUOUS
 62
    30
 10
141.00003080010259
 20
233.97685200000109
 30
0.0
  0
POINT
  8
DEFPOINTS
  6
CONTINUOUS
 62
    30
 10
-141.0000308001008
 20
233.97685200000109
 30
0.0
  0
POINT
  8
DEFPOINTS
  6
CONTINUOUS
 62
    30
 10
-141.0000308001008
 20
696.91824316450175
 30
0.0
  0
LINE
  8
SIZE
  6
CONTINUOUS
 62
    30
 10
178.9999665658315
 20
258.0607727432556
 30
0.0
 11
178.99996656583161
 21
844.91824316450175
 31
0.0
  0
LINE
  8
SIZE
  6
CONTINUOUS
 62
    30
 10
-178.99997279989839
 20
258.0607520999007
 30
0.0
 11
-178.99997279989839
 21
844.91824316450175
 31
0.0
  0
LINE
  8
SIZE
  6
CONTINUOUS
 62
    30
 10
166.99996656583161
 20
824.91824316450175
 30
0.0
 11
-166.99997279989839
 21
824.91824316450175
 31
0.0
  0
CIRCLE
  8
SIZE
  6
CONTINUOUS
 62
    30
 10
178.99996656583161
 20
824.91824316450175
 30
0.0
 40
6.0
  0
LINE
  8
SIZE
  6
CONTINUOUS
 62
    30
 10
178.99996656583161
 20
824.91824316450175
 30
0.0
 11
166.99996656583161
 21
824.91824316450175
 31
0.0
  0
CIRCLE
  8
SIZE
  6
CONTINUOUS
 62
    30
 10
-178.99997279989839
 20
824.91824316450175
 30
0.0
 40
6.0
  0
LINE
  8
SIZE
  6
CONTINUOUS
 62
    30
 10
-178.99997279989839
 20
824.91824316450175
 30
0.0
 11
-166.99997279989839
 21
824.91824316450175
 31
0.0
  0
TEXT
  8
SIZE
  6
CONTINUOUS
 62
    30
 10
-74.05714597417581
 20
849.91824316450175
 30
0.0
 40
64.0
  1
358
 41
0.9
 72
     1
 11
-0.0000031170329748
 21
849.91824316450175
 31
0.0
  0
POINT
  8
DEFPOINTS
  6
CONTINUOUS
 62
    30
 10
178.9999665658315
 20
238.0607727432556
 30
0.0
  0
POINT
  8
DEFPOINTS
  6
CONTINUOUS
 62
    30
 10
-178.99997279989839
 20
238.0607520999007
 30
0.0
  0
POINT
  8
DEFPOINTS
  6
CONTINUOUS
 62
    30
 10
-178.99997279989839
 20
824.91824316450175
 30
0.0
  0
LINE
  8
SIZE
  6
CONTINUOUS
 62
    30
 10
198.99995280000081
 20
259.00002339990039
 30
0.0
 11
198.99995280000081
 21
972.91824316450163
 31
0.0
  0
LINE
  8
SIZE
  6
CONTINUOUS
 62
    30
 10
-198.9999527999997
 20
259.00002339990039
 30
0.0
 11
-198.9999527999997
 21
972.91824316450163
 31
0.0
  0
LINE
  8
SIZE
  6
CONTINUOUS
 62
    30
 10
186.99995280000081
 20
952.91824316450163
 30
0.0
 11
-186.9999527999997
 21
952.91824316450163
 31
0.0
  0
CIRCLE
  8
SIZE
  6
CONTINUOUS
 62
    30
 10
198.99995280000081
 20
952.91824316450163
 30
0.0
 40
6.0
  0
LINE
  8
SIZE
  6
CONTINUOUS
 62
    30
 10
198.99995280000081
 20
952.91824316450163
 30
0.0
 11
186.99995280000081
 21
952.91824316450163
 31
0.0
  0
CIRCLE
  8
SIZE
  6
CONTINUOUS
 62
    30
 10
-198.9999527999997
 20
952.91824316450163
 30
0.0
 40
6.0
  0
LINE
  8
SIZE
  6
CONTINUOUS
 62
    30
 10
-198.9999527999997
 20
952.91824316450163
 30
0.0
 11
-186.9999527999997
 21
952.91824316450163
 31
0.0
  0
TEXT
  8
SIZE
  6
CONTINUOUS
 62
    30
 10
-74.05714285714285
 20
977.91824316450209
 30
0.0
 40
64.0
  1
398
 41
0.9
 72
     1
 11
0.0
 21
977.91824316450209
 31
0.0
  0
POINT
  8
DEFPOINTS
  6
CONTINUOUS
 62
    30
 10
198.99995280000081
 20
239.00002339990041
 30
0.0
  0
POINT
  8
DEFPOINTS
  6
CONTINUOUS
 62
    30
 10
-198.9999527999997
 20
239.00002339990041
 30
0.0
  0
POINT
  8
DEFPOINTS
  6
CONTINUOUS
 62
    30
 10
-198.9999527999997
 20
952.91824316450163
 30
0.0
  0
LINE
  8
SIZE
  6
CONTINUOUS
 62
    30
 10
218.9999727998985
 20
218.4999520999007
 30
0.0
 11
622.29901877248392
 21
218.49995209990081
 31
0.0
  0
LINE
  8
SIZE
  6
CONTINUOUS
 62
    30
 10
218.9999727998985
 20
-124.49999360010059
 30
0.0
 11
622.29901877248392
 21
-124.4999936001005
 31
0.0
  0
LINE
  8
SIZE
  6
CONTINUOUS
 62
    30
 10
602.29901877248392
 20
206.49995209990081
 30
0.0
 11
602.29901877248392
 21
-112.4999936001005
 31
0.0
  0
CIRCLE
  8
SIZE
  6
CONTINUOUS
 62
    30
 10
602.29901877248392
 20
218.49995209990081
 30
0.0
 40
6.0
  0
LINE
  8
SIZE
  6
CONTINUOUS
 62
    30
 10
602.29901877248392
 20
218.49995209990081
 30
0.0
 11
602.29901877248392
 21
206.49995209990081
 31
0.0
  0
CIRCLE
  8
SIZE
  6
CONTINUOUS
 62
    30
 10
602.29901877248392
 20
-124.4999936001005
 30
0.0
 40
6.0
  0
LINE
  8
SIZE
  6
CONTINUOUS
 62
    30
 10
602.29901877248392
 20
-124.4999936001005
 30
0.0
 11
602.29901877248392
 21
-112.4999936001005
 31
0.0
  0
TEXT
  8
SIZE
  6
CONTINUOUS
 62
    30
 10
577.29901877248392
 20
-27.057163607242909
 30
0.0
 40
64.0
  1
343
 50
90.0
 41
0.9
 72
     1
 11
577.29901877248392
 21
46.999979249899937
 31
0.0
  0
POINT
  8
DEFPOINTS
  6
CONTINUOUS
 62
    30
 10
198.9999727998985
 20
218.4999520999007
 30
0.0
  0
POINT
  8
DEFPOINTS
  6
CONTINUOUS
 62
    30
 10
198.9999727998985
 20
-124.49999360010059
 30
0.0
  0
POINT
  8
DEFPOINTS
  6
CONTINUOUS
 62
    30
 10
602.29901877248392
 20
-124.4999936001005
 30
0.0
  0
LINE
  8
SIZE
  6
CONTINUOUS
 62
    30
 10
218.99995279999999
 20
239.00002339990061
 30
0.0
 11
750.29901877248165
 21
239.00002339990061
 31
0.0
  0
LINE
  8
SIZE
  6
CONTINUOUS
 62
    30
 10
218.99995279999999
 20
-144.99996490009849
 30
0.0
 11
750.29901877248165
 21
-144.9999649000984
 31
0.0
  0
LINE
  8
SIZE
  6
CONTINUOUS
 62
    30
 10
730.29901877248165
 20
227.00002339990061
 30
0.0
 11
730.29901877248165
 21
-132.9999649000984
 31
0.0
  0
CIRCLE
  8
SIZE
  6
CONTINUOUS
 62
    30
 10
730.29901877248165
 20
239.00002339990061
 30
0.0
 40
6.0
  0
LINE
  8
SIZE
  6
CONTINUOUS
 62
    30
 10
730.29901877248165
 20
239.00002339990061
 30
0.0
 11
730.29901877248165
 21
227.00002339990061
 31
0.0
  0
CIRCLE
  8
SIZE
  6
CONTINUOUS
 62
    30
 10
730.29901877248165
 20
-144.9999649000984
 30
0.0
 40
6.0
  0
LINE
  8
SIZE
  6
CONTINUOUS
 62
    30
 10
730.29901877248165
 20
-144.9999649000984
 30
0.0
 11
730.29901877248165
 21
-132.9999649000984
 31
0.0
  0
TEXT
  8
SIZE
  6
CONTINUOUS
 62
    30
 10
705.29901877248165
 20
-28.42854217867156
 30
0.0
 40
64.0
  1
384
 50
90.0
 41
0.9
 72
     1
 11
705.29901877248165
 21
47.000029249899853
 31
0.0
  0
POINT
  8
DEFPOINTS
  6
CONTINUOUS
 62
    30
 10
198.99995279999999
 20
239.00002339990061
 30
0.0
  0
POINT
  8
DEFPOINTS
  6
CONTINUOUS
 62
    30
 10
198.99995279999999
 20
-144.99996490009849
 30
0.0
  0
POINT
  8
DEFPOINTS
  6
CONTINUOUS
 62
    30
 10
730.29901877248165
 20
-144.9999649000984
 30
0.0
  0
LINE
  8
SIZE
  6
CONTINUOUS
 62
    30
 10
-159.78616000010251
 20
235.9999699998003
 30
0.0
 11
-474.59908104226452
 21
235.9999699998003
 31
0.0
  0
LINE
  8
SIZE
  6
CONTINUOUS
 62
    30
 10
-104.7861386001023
 20
-236.00004570010091
 30
0.0
 11
-474.59908104226417
 21
-236.000045700101
 31
0.0
  0
LINE
  8
SIZE
  6
CONTINUOUS
 62
    30
 10
-454.5990810422644
 20
223.9999699998003
 30
0.0
 11
-454.59908104226417
 21
-224.000045700101
 31
0.0
  0
CIRCLE
  8
SIZE
  6
CONTINUOUS
 62
    30
 10
-454.5990810422644
 20
235.9999699998003
 30
0.0
 40
6.0
  0
LINE
  8
SIZE
  6
CONTINUOUS
 62
    30
 10
-454.5990810422644
 20
235.9999699998003
 30
0.0
 11
-454.5990810422644
 21
223.9999699998003
 31
0.0
  0
CIRCLE
  8
SIZE
  6
CONTINUOUS
 62
    30
 10
-454.59908104226417
 20
-236.000045700101
 30
0.0
 40
6.0
  0
LINE
  8
SIZE
  6
CONTINUOUS
 62
    30
 10
-454.59908104226417
 20
-236.000045700101
 30
0.0
 11
-454.59908104226417
 21
-224.000045700101
 31
0.0
  0
TEXT
  8
SIZE
  6
CONTINUOUS
 62
    30
 10
-479.59908104226417
 20
-74.057180707293057
 30
0.0
 40
64.0
  1
472
 50
90.0
 41
0.9
 72
     1
 11
-479.59908104226417
 21
-0.0000378501502168
 31
0.0
  0
POINT
  8
DEFPOINTS
  6
CONTINUOUS
 62
    30
 10
-139.78616000010251
 20
235.9999699998003
 30
0.0
  0
POINT
  8
DEFPOINTS
  6
CONTINUOUS
 62
    30
 10
-84.786138600102305
 20
-236.00004570010091
 30
0.0
  0
POINT
  8
DEFPOINTS
  6
CONTINUOUS
 62
    30
 10
-454.59908104226417
 20
-236.000045700101
 30
0.0
  0
LINE
  8
SIZE
  6
CONTINUOUS
 62
    30
 10
218.99995279999999
 20
239.00002339990061
 30
0.0
 11
878.2990187724821
 21
239.0000233999007
 31
0.0
  0
LINE
  8
SIZE
  6
CONTINUOUS
 62
    30
 10
123.78615959999939
 20
-236.00004570010091
 30
0.0
 11
878.2990187724821
 21
-236.0000457001008
 31
0.0
  0
LINE
  8
SIZE
  6
CONTINUOUS
 62
    30
 10
858.2990187724821
 20
227.0000233999007
 30
0.0
 11
858.2990187724821
 21
-224.0000457001008
 31
0.0
  0
CIRCLE
  8
SIZE
  6
CONTINUOUS
 62
    30
 10
858.2990187724821
 20
239.0000233999007
 30
0.0
 40
6.0
  0
LINE
  8
SIZE
  6
CONTINUOUS
 62
    30
 10
858.2990187724821
 20
239.0000233999007
 30
0.0
 11
858.2990187724821
 21
227.0000233999007
 31
0.0
  0
CIRCLE
  8
SIZE
  6
CONTINUOUS
 62
    30
 10
858.2990187724821
 20
-236.0000457001008
 30
0.0
 40
6.0
  0
LINE
  8
SIZE
  6
CONTINUOUS
 62
    30
 10
858.2990187724821
 20
-236.0000457001008
 30
0.0
 11
858.2990187724821
 21
-224.0000457001008
 31
0.0
  0
TEXT
  8
SIZE
  6
CONTINUOUS
 62
    30
 10
833.29901877248165
 20
-72.557154007244122
 30
0.0
 40
64.0
  1
475
 50
90.0
 41
0.9
 72
     1
 11
833.29901877248165
 21
1.499988849898733
 31
0.0
  0
POINT
  8
DEFPOINTS
  6
CONTINUOUS
 62
    30
 10
198.99995279999999
 20
239.00002339990061
 30
0.0
  0
POINT
  8
DEFPOINTS
  6
CONTINUOUS
 62
    30
 10
103.78615959999939
 20
-236.00004570010091
 30
0.0
  0
POINT
  8
DEFPOINTS
  6
CONTINUOUS
 62
    30
 10
858.2990187724821
 20
-236.0000457001008
 30
0.0
  0
LINE
  8
SIZE
  6
CONTINUOUS
 62
    30
 10
-104.7861386001023
 20
-236.00004570010091
 30
0.0
 11
-474.59908104224547
 21
-236.000045700101
 31
0.0
  0
LINE
  8
SIZE
  6
CONTINUOUS
 62
    30
 10
-90.999989000102715
 20
-306.00007569999877
 30
0.0
 11
-474.59908104224547
 21
-306.00007569999889
 31
0.0
  0
LINE
  8
SIZE
  6
CONTINUOUS
 62
    30
 10
-454.59908104224547
 20
-224.000045700101
 30
0.0
 11
-454.59908104224547
 21
-212.000045700101
 31
0.0
  0
LINE
  8
SIZE
  6
CONTINUOUS
 62
    30
 10
-454.59908104224547
 20
-318.00007569999889
 30
0.0
 11
-454.59908104224542
 21
-474.14141855714331
 31
0.0
  0
LINE
  8
SIZE
  6
CONTINUOUS
 62
    30
 10
-454.59908104224547
 20
-236.000045700101
 30
0.0
 11
-454.59908104224547
 21
-306.00007569999889
 31
0.0
  0
CIRCLE
  8
SIZE
  6
CONTINUOUS
 62
    30
 10
-454.59908104224547
 20
-236.000045700101
 30
0.0
 40
6.0
  0
LINE
  8
SIZE
  6
CONTINUOUS
 62
    30
 10
-454.59908104224547
 20
-236.000045700101
 30
0.0
 11
-454.59908104224547
 21
-224.000045700101
 31
0.0
  0
CIRCLE
  8
SIZE
  6
CONTINUOUS
 62
    30
 10
-454.59908104224547
 20
-306.00007569999889
 30
0.0
 40
6.0
  0
LINE
  8
SIZE
  6
CONTINUOUS
 62
    30
 10
-454.59908104224547
 20
-306.00007569999889
 30
0.0
 11
-454.59908104224547
 21
-318.00007569999889
 31
0.0
  0
TEXT
  8
SIZE
  6
CONTINUOUS
 62
    30
 10
-479.59908104224542
 20
-449.14141855714291
 30
0.0
 40
64.0
  1
70
 50
90.0
 41
0.9
 72
     1
 11
-479.59908104224542
 21
-402.51284712857148
 31
0.0
  0
POINT
  8
DEFPOINTS
  6
CONTINUOUS
 62
    30
 10
-84.786138600102305
 20
-236.00004570010091
 30
0.0
  0
POINT
  8
DEFPOINTS
  6
CONTINUOUS
 62
    30
 10
-70.999989000102715
 20
-306.00007569999877
 30
0.0
  0
POINT
  8
DEFPOINTS
  6
CONTINUOUS
 62
    30
 10
-454.59908104224547
 20
-306.00007569999889
 30
0.0
  0
LINE
  8
SIZE
  6
CONTINUOUS
 62
    30
 10
-159.78616000010251
 20
235.9999699998003
 30
0.0
 11
-474.59908104224559
 21
235.9999699998003
 31
0.0
  0
LINE
  8
SIZE
  6
CONTINUOUS
 62
    30
 10
-90.99975739719595
 20
306.00000000000011
 30
0.0
 11
-474.59908104224559
 21
306.0
 31
0.0
  0
LINE
  8
SIZE
  6
CONTINUOUS
 62
    30
 10
-454.59908104224559
 20
223.9999699998003
 30
0.0
 11
-454.59908104224559
 21
211.9999699998003
 31
0.0
  0
LINE
  8
SIZE
  6
CONTINUOUS
 62
    30
 10
-454.59908104224559
 20
318.0
 30
0.0
 11
-454.59908104224559
 21
473.25714285714292
 31
0.0
  0
LINE
  8
SIZE
  6
CONTINUOUS
 62
    30
 10
-454.59908104224559
 20
235.9999699998003
 30
0.0
 11
-454.59908104224559
 21
306.0
 31
0.0
  0
CIRCLE
  8
SIZE
  6
CONTINUOUS
 62
    30
 10
-454.59908104224559
 20
235.9999699998003
 30
0.0
 40
6.0
  0
LINE
  8
SIZE
  6
CONTINUOUS
 62
    30
 10
-454.59908104224559
 20
235.9999699998003
 30
0.0
 11
-454.59908104224559
 21
223.9999699998003
 31
0.0
  0
CIRCLE
  8
SIZE
  6
CONTINUOUS
 62
    30
 10
-454.59908104224559
 20
306.0
 30
0.0
 40
6.0
  0
LINE
  8
SIZE
  6
CONTINUOUS
 62
    30
 10
-454.59908104224559
 20
306.0
 30
0.0
 11
-454.59908104224559
 21
318.0
 31
0.0
  0
TEXT
  8
SIZE
  6
CONTINUOUS
 62
    30
 10
-479.59908104224542
 20
355.00000000000028
 30
0.0
 40
64.0
  1
70
 50
90.0
 41
0.9
 72
     1
 11
-479.59908104224542
 21
401.62857142857172
 31
0.0
  0
POINT
  8
DEFPOINTS
  6
CONTINUOUS
 62
    30
 10
-139.78616000010251
 20
235.9999699998003
 30
0.0
  0
POINT
  8
DEFPOINTS
  6
CONTINUOUS
 62
    30
 10
-70.999757397195964
 20
306.00000000000011
 30
0.0
  0
POINT
  8
DEFPOINTS
  6
CONTINUOUS
 62
    30
 10
-454.59908104224559
 20
306.0
 30
0.0
  0
LINE
  8
SIZE
  6
CONTINUOUS
 62
    30
 10
-159.78616000010251
 20
235.9999699998003
 30
0.0
 11
-346.59908104226457
 21
235.9999699998003
 31
0.0
  0
LINE
  8
SIZE
  6
CONTINUOUS
 62
    30
 10
-159.78616000010251
 20
-142.00001150000011
 30
0.0
 11
-346.59908104226452
 21
-142.00001150000011
 31
0.0
  0
LINE
  8
SIZE
  6
CONTINUOUS
 62
    30
 10
-326.59908104226457
 20
223.9999699998003
 30
0.0
 11
-326.59908104226452
 21
-130.00001150000011
 31
0.0
  0
CIRCLE
  8
SIZE
  6
CONTINUOUS
 62
    30
 10
-326.59908104226457
 20
235.9999699998003
 30
0.0
 40
6.0
  0
LINE
  8
SIZE
  6
CONTINUOUS
 62
    30
 10
-326.59908104226457
 20
235.9999699998003
 30
0.0
 11
-326.59908104226457
 21
223.9999699998003
 31
0.0
  0
CIRCLE
  8
SIZE
  6
CONTINUOUS
 62
    30
 10
-326.59908104226452
 20
-142.00001150000011
 30
0.0
 40
6.0
  0
LINE
  8
SIZE
  6
CONTINUOUS
 62
    30
 10
-326.59908104226452
 20
-142.00001150000011
 30
0.0
 11
-326.59908104226452
 21
-130.00001150000011
 31
0.0
  0
TEXT
  8
SIZE
  6
CONTINUOUS
 62
    30
 10
-351.59908104226452
 20
-27.05716360724411
 30
0.0
 40
64.0
  1
378
 50
90.0
 41
0.9
 72
     1
 11
-351.59908104226452
 21
46.999979249898729
 31
0.0
  0
POINT
  8
DEFPOINTS
  6
CONTINUOUS
 62
    30
 10
-139.78616000010251
 20
235.9999699998003
 30
0.0
  0
POINT
  8
DEFPOINTS
  6
CONTINUOUS
 62
    30
 10
-139.78616000010251
 20
-142.00001150000011
 30
0.0
  0
POINT
  8
DEFPOINTS
  6
CONTINUOUS
 62
    30
 10
-326.59908104226452
 20
-142.00001150000011
 30
0.0
  0
LINE
  8
SIZE
  6
CONTINUOUS
 62
    30
 10
-140.79771900000009
 20
-159.97689350019911
 30
0.0
 11
-140.7977190000002
 21
-565.27317521853524
 31
0.0
  0
LINE
  8
SIZE
  6
CONTINUOUS
 62
    30
 10
-203.79772574989869
 20
-91.89903886704063
 30
0.0
 11
-203.7977257498988
 21
-565.27317521853524
 31
0.0
  0
LINE
  8
SIZE
  6
CONTINUOUS
 62
    30
 10
-128.7977190000002
 20
-545.27317521853513
 30
0.0
 11
-116.7977190000002
 21
-545.27317521853513
 31
0.0
  0
LINE
  8
SIZE
  6
CONTINUOUS
 62
    30
 10
-215.7977257498988
 20
-545.27317521853513
 30
0.0
 11
-371.05486860704173
 21
-545.27317521853513
 31
0.0
  0
LINE
  8
SIZE
  6
CONTINUOUS
 62
    30
 10
-140.7977190000002
 20
-545.27317521853513
 30
0.0
 11
-203.7977257498988
 21
-545.27317521853513
 31
0.0
  0
CIRCLE
  8
SIZE
  6
CONTINUOUS
 62
    30
 10
-140.7977190000002
 20
-545.27317521853513
 30
0.0
 40
6.0
  0
LINE
  8
SIZE
  6
CONTINUOUS
 62
    30
 10
-140.7977190000002
 20
-545.27317521853513
 30
0.0
 11
-128.7977190000002
 21
-545.27317521853513
 31
0.0
  0
CIRCLE
  8
SIZE
  6
CONTINUOUS
 62
    30
 10
-203.7977257498988
 20
-545.27317521853513
 30
0.0
 40
6.0
  0
LINE
  8
SIZE
  6
CONTINUOUS
 62
    30
 10
-203.7977257498988
 20
-545.27317521853513
 30
0.0
 11
-215.7977257498988
 21
-545.27317521853513
 31
0.0
  0
TEXT
  8
SIZE
  6
CONTINUOUS
 62
    30
 10
-346.05486860704161
 20
-520.27317521853513
 30
0.0
 40
64.0
  1
63
 41
0.9
 72
     1
 11
-299.42629717847018
 21
-520.27317521853513
 31
0.0
  0
POINT
  8
DEFPOINTS
  6
CONTINUOUS
 62
    30
 10
-140.79771900000009
 20
-139.97689350019911
 30
0.0
  0
POINT
  8
DEFPOINTS
  6
CONTINUOUS
 62
    30
 10
-203.79772574989869
 20
-71.899038867040659
 30
0.0
  0
POINT
  8
DEFPOINTS
  6
CONTINUOUS
 62
    30
 10
-203.7977257498988
 20
-545.27317521853513
 30
0.0
  0
LINE
  8
DETAIL
  6
CONTINUOUS
 62
     5
 10
-116.4264954610571
 20
-143.68493820020021
 30
0.0
 11
-116.426495461058
 21
-144.99996871587251
 31
0.0
  0
LINE
  8
BASIS
  6
DASHDOT
 62
     6
 10
0.0
 20
336.2602136656119
 30
0.0
 11
0.0
 21
-366.42612730767792
 31
0.0
  0
LINE
  8
BASIS
  6
DASHDOT
 62
     6
 10
-224.59811114241529
 20
0.0
 30
0.0
 11
224.59811114241529
 21
0.0
 31
0.0
  0
LINE
  8
BASIS
  6
DASHDOT
 62
     6
 10
178.99997279990021
 20
-105.8437936001005
 30
0.0
 11
178.99997279990021
 21
-144.49999360010051
 31
0.0
  0
CIRCLE
  8
FIX
  6
CONTINUOUS
 62
    11
 10
178.99997279990021
 20
-124.4999936001005
 30
0.0
 40
5.5
  0
CIRCLE
  8
FIX
  6
CONTINUOUS
 62
    11
 10
178.99997279990021
 20
218.49995209990061
 30
0.0
 40
5.5
  0
CIRCLE
  8
FIX
  6
CONTINUOUS
 62
    11
 10
-178.99997279989839
 20
218.49995209990061
 30
0.0
 40
5.5
  0
CIRCLE
  8
FIX
  6
CONTINUOUS
 62
    11
 10
-178.99997279989839
 20
-124.4999936001005
 30
0.0
 40
5.5
  0
LINE
  8
OUTLINE
  6
CONTINUOUS
 62
     3
 10
-70.999757397194131
 20
306.0
 30
0.0
 11
70.999757397195935
 21
306.0
 31
0.0
  0
LINE
  8
OUTLINE
  6
CONTINUOUS
 62
     3
 10
-198.9999527999997
 20
239.00002339990061
 30
0.0
 11
-115.84804901347979
 21
239.00002339990061
 31
0.0
  0
LINE
  8
OUTLINE
  6
CONTINUOUS
 62
     3
 10
116.7554490131788
 20
239.00002339990061
 30
0.0
 11
198.99995280000081
 21
239.00002339990061
 31
0.0
  0
LINE
  8
OUTLINE
  6
CONTINUOUS
 62
     3
 10
-115.2338750812787
 20
237.98846440000011
 30
0.0
 11
-113.1821528888668
 21
237.98846440000011
 31
0.0
  0
LINE
  8
OUTLINE
  6
CONTINUOUS
 62
     3
 10
114.0895528888686
 20
237.98846440000011
 30
0.0
 11
116.1412750812806
 21
237.98846440000011
 31
0.0
  0
LINE
  8
OUTLINE
  6
CONTINUOUS
 62
     3
 10
-90.115609996964835
 20
236.60690539979939
 30
0.0
 11
-80.606955400098741
 21
236.60690539979939
 31
0.0
  0
LINE
  8
OUTLINE
  6
CONTINUOUS
 62
     3
 10
80.606955400099665
 20
236.60690539979939
 30
0.0
 11
90.115609996966654
 21
236.60690539979939
 31
0.0
  0
LINE
  8
OUTLINE
  6
CONTINUOUS
 62
     3
 10
106.502865800001
 20
236.02525897500121
 30
0.0
 11
114.089558300001
 21
236.02525897500121
 31
0.0
  0
LINE
  8
OUTLINE
  6
CONTINUOUS
 62
     3
 10
-113.1821582999992
 20
235.99996999980019
 30
0.0
 11
-90.115609999999847
 21
235.99996999980019
 31
0.0
  0
LINE
  8
OUTLINE
  6
CONTINUOUS
 62
     3
 10
90.115610000000743
 20
235.99996999980019
 30
0.0
 11
106.502865800001
 21
235.99996999980041
 31
0.0
  0
LINE
  8
OUTLINE
  6
CONTINUOUS
 62
     3
 10
-115.7923399186175
 20
238.9927125637885
 30
0.0
 11
-115.84804901347979
 21
239.00002339990061
 31
0.0
  0
LINE
  8
OUTLINE
  6
CONTINUOUS
 62
     3
 10
-115.733718686708
 20
238.9702123080485
 30
0.0
 11
-115.7923399186175
 21
238.9927125637885
 31
0.0
  0
LINE
  8
OUTLINE
  6
CONTINUOUS
 62
     3
 10
-115.67218531835989
 20
238.93177638527661
 30
0.0
 11
-115.733718686708
 21
238.9702123080485
 31
0.0
  0
LINE
  8
OUTLINE
  6
CONTINUOUS
 62
     3
 10
-141.0000308001008
 20
198.49990439980041
 30
0.0
 11
-173.43639829999941
 21
198.49990439980041
 31
0.0
  0
LINE
  8
OUTLINE
  6
CONTINUOUS
 62
     3
 10
-184.56354730010031
 20
198.49990439980041
 30
0.0
 11
-198.9999527999997
 21
198.49990439980041
 31
0.0
  0
LINE
  8
OUTLINE
  6
CONTINUOUS
 62
     3
 10
141.00003080010259
 20
198.49990439980041
 30
0.0
 11
173.4363983000012
 21
198.49990439980041
 31
0.0
  0
LINE
  8
OUTLINE
  6
CONTINUOUS
 62
     3
 10
184.5635473001021
 20
198.49990439980041
 30
0.0
 11
198.99995280000081
 21
198.49990439980041
 31
0.0
  0
LINE
  8
OUTLINE
  6
CONTINUOUS
 62
     3
 10
-115.6077398126627
 20
238.87682284942531
 30
0.0
 11
-115.67218531835989
 21
238.93177638527661
 31
0.0
  0
LINE
  8
OUTLINE
  6
CONTINUOUS
 62
     3
 10
116.6997399186193
 20
238.9927125637885
 30
0.0
 11
116.7554490131788
 21
239.00002339990061
 31
0.0
  0
LINE
  8
OUTLINE
  6
CONTINUOUS
 62
     3
 10
-141.0000308001008
 20
169.4393877998987
 30
0.0
 11
-139.78616000010061
 21
169.4393877998987
 31
0.0
  0
LINE
  8
OUTLINE
  6
CONTINUOUS
 62
     3
 10
-139.78616000010061
 20
167.21395799999979
 30
0.0
 11
-141.60696620010091
 21
167.21395799999979
 31
0.0
  0
LINE
  8
OUTLINE
  6
CONTINUOUS
 62
     3
 10
-115.5620822851179
 20
238.80670260819781
 30
0.0
 11
-115.6077398126627
 21
238.87682284942531
 31
0.0
  0
LINE
  8
OUTLINE
  6
CONTINUOUS
 62
     3
 10
116.4694822851188
 20
-144.8066441083993
 30
0.0
 11
116.51513981266361
 21
-144.87676434962489
 31
0.0
  0
LINE
  8
OUTLINE
  6
CONTINUOUS
 62
     3
 10
116.4253450424421
 20
-144.72372436068511
 30
0.0
 11
116.4694822851188
 21
-144.8066441083993
 31
0.0
  0
LINE
  8
OUTLINE
  6
CONTINUOUS
 62
     3
 10
116.38272808402689
 20
-144.62961085634919
 30
0.0
 11
116.4253450424421
 21
-144.72372436068511
 31
0.0
  0
LINE
  8
OUTLINE
  6
CONTINUOUS
 62
     3
 10
116.3416314104788
 20
-144.52591886565281
 30
0.0
 11
116.38272808402689
 21
-144.62961085634919
 31
0.0
  0
LINE
  8
OUTLINE
  6
CONTINUOUS
 62
     3
 10
116.1412750812806
 20
-143.98840590020151
 30
0.0
 11
116.2918496840593
 21
-144.39139500880631
 31
0.0
  0
LINE
  8
OUTLINE
  6
CONTINUOUS
 62
     3
 10
116.2918496840593
 20
-144.39139500880631
 30
0.0
 11
116.3416314104788
 21
-144.52591886565281
 31
0.0
  0
LINE
  8
OUTLINE
  6
CONTINUOUS
 62
     3
 10
116.51513981266361
 20
-144.87676434962489
 30
0.0
 11
116.57958531805799
 21
-144.93171788547809
 31
0.0
  0
LINE
  8
OUTLINE
  6
CONTINUOUS
 62
     3
 10
-115.5179450424412
 20
238.7237828604855
 30
0.0
 11
-115.5620822851179
 21
238.80670260819781
 31
0.0
  0
LINE
  8
OUTLINE
  6
CONTINUOUS
 62
     3
 10
-115.4753280840259
 20
238.62966935614961
 30
0.0
 11
-115.5179450424412
 21
238.7237828604855
 31
0.0
  0
LINE
  8
OUTLINE
  6
CONTINUOUS
 62
     3
 10
-115.43423141047791
 20
238.52597736545499
 30
0.0
 11
-115.4753280840259
 21
238.62966935614961
 31
0.0
  0
LINE
  8
OUTLINE
  6
CONTINUOUS
 62
     3
 10
-115.2338750812787
 20
237.98846440000011
 30
0.0
 11
-115.3844496840575
 21
238.39145350860301
 31
0.0
  0
LINE
  8
OUTLINE
  6
CONTINUOUS
 62
     3
 10
-115.3844496840575
 20
238.39145350860301
 30
0.0
 11
-115.43423141047791
 21
238.52597736545499
 31
0.0
  0
LINE
  8
OUTLINE
  6
CONTINUOUS
 62
     3
 10
116.6411186867108
 20
238.9702123080485
 30
0.0
 11
116.6997399186193
 21
238.9927125637885
 31
0.0
  0
LINE
  8
OUTLINE
  6
CONTINUOUS
 62
     3
 10
-143.27603855010059
 20
42.811751732959451
 30
0.0
 11
-144.0852857498985
 21
42.811751732959451
 31
0.0
  0
LINE
  8
OUTLINE
  6
CONTINUOUS
 62
     3
 10
-202.17923135000001
 20
18.332023932857059
 30
0.0
 11
-144.0852857498985
 21
18.332023932857059
 31
0.0
  0
LINE
  8
OUTLINE
  6
CONTINUOUS
 62
     3
 10
-143.27603855009971
 20
18.332023932857059
 30
0.0
 11
-141.6069662001
 21
18.332023932857059
 31
0.0
  0
LINE
  8
OUTLINE
  6
CONTINUOUS
 62
     3
 10
116.57958531805799
 20
-144.93171788547809
 30
0.0
 11
116.6411186867099
 21
-144.97015380824999
 31
0.0
  0
LINE
  8
OUTLINE
  6
CONTINUOUS
 62
     3
 10
116.6411186867099
 20
-144.97015380824999
 30
0.0
 11
116.69973991861841
 21
-144.99265406398811
 31
0.0
  0
LINE
  8
OUTLINE
  6
CONTINUOUS
 62
     3
 10
116.5795853180589
 20
238.93177638527661
 30
0.0
 11
116.6411186867108
 21
238.9702123080485
 31
0.0
  0
LINE
  8
OUTLINE
  6
CONTINUOUS
 62
     3
 10
-140.79771900000009
 20
-74.32678046704109
 30
0.0
 11
-143.27603855010059
 21
-74.32678046704109
 31
0.0
  0
LINE
  8
OUTLINE
  6
CONTINUOUS
 62
     3
 10
-144.08528574989759
 20
-74.32678046704109
 30
0.0
 11
-202.17923135000001
 21
-74.32678046704109
 31
0.0
  0
LINE
  8
OUTLINE
  6
CONTINUOUS
 62
     3
 10
-144.0852857498985
 20
-88.690918266940344
 30
0.0
 11
-143.27603855010059
 21
-88.690918266940344
 31
0.0
  0
LINE
  8
OUTLINE
  6
CONTINUOUS
 62
     3
 10
-140.79771900000009
 20
-104.49994589999839
 30
0.0
 11
-173.43639830000029
 21
-104.49994589999839
 31
0.0
  0
LINE
  8
OUTLINE
  6
CONTINUOUS
 62
     3
 10
-184.56354730010031
 20
-104.49994589999839
 30
0.0
 11
-198.9999527999997
 21
-104.49994589999839
 31
0.0
  0
LINE
  8
OUTLINE
  6
CONTINUOUS
 62
     3
 10
141.00003080010171
 20
-104.49994589999839
 30
0.0
 11
173.4363983000012
 21
-104.49994589999839
 31
0.0
  0
LINE
  8
OUTLINE
  6
CONTINUOUS
 62
     3
 10
184.5635473001021
 20
-104.49994589999839
 30
0.0
 11
198.99995280000081
 21
-104.49994589999839
 31
0.0
  0
LINE
  8
OUTLINE
  6
CONTINUOUS
 62
     3
 10
116.69973991861841
 20
-144.99265406398811
 30
0.0
 11
116.75544901317789
 21
-144.99996490009829
 31
0.0
  0
LINE
  8
OUTLINE
  6
CONTINUOUS
 62
     3
 10
116.51513981266361
 20
238.87682284942531
 30
0.0
 11
116.5795853180589
 21
238.93177638527661
 31
0.0
  0
LINE
  8
OUTLINE
  6
CONTINUOUS
 62
     3
 10
99.554899999900059
 20
-142.00001150000031
 30
0.0
 11
114.08955830000011
 21
-142.0000115
 31
0.0
  0
LINE
  8
OUTLINE
  6
CONTINUOUS
 62
     3
 10
99.554899999900059
 20
-143.17915870010069
 30
0.0
 11
86.00000940010159
 21
-143.17915870010069
 31
0.0
  0
LINE
  8
OUTLINE
  6
CONTINUOUS
 62
     3
 10
-105.0000303999996
 20
-143.17915870010069
 30
0.0
 11
-107.0231484001006
 21
-143.17915870010069
 31
0.0
  0
LINE
  8
OUTLINE
  6
CONTINUOUS
 62
     3
 10
-116.4264954610571
 20
-143.68493820020009
 30
0.0
 11
-107.0231484001006
 21
-143.68493820020009
 31
0.0
  0
LINE
  8
OUTLINE
  6
CONTINUOUS
 62
     3
 10
114.0895528888686
 20
-143.98840590020151
 30
0.0
 11
116.1412750812806
 21
-143.98840590020151
 31
0.0
  0
LINE
  8
OUTLINE
  6
CONTINUOUS
 62
     3
 10
-198.9999527999997
 20
-144.99996490009829
 30
0.0
 11
-116.4264932377
 21
-144.99996490009829
 31
0.0
  0
LINE
  8
OUTLINE
  6
CONTINUOUS
 62
     3
 10
116.75544901317789
 20
-144.99996490009829
 30
0.0
 11
198.99995280000081
 21
-144.99996490009829
 31
0.0
  0
LINE
  8
OUTLINE
  6
CONTINUOUS
 62
     3
 10
-103.78615959999929
 20
-236.0000457001008
 30
0.0
 11
-89.815145399999892
 21
-236.0000457001006
 31
0.0
  0
LINE
  8
OUTLINE
  6
CONTINUOUS
 62
     3
 10
83.369956000000457
 20
-236.0000457001006
 30
0.0
 11
84.786138600102262
 21
-236.0000457001008
 31
0.0
  0
LINE
  8
OUTLINE
  6
CONTINUOUS
 62
     3
 10
-84.04625600000054
 20
-236.02533467499799
 30
0.0
 11
-89.815145399999892
 21
-236.02533467499799
 31
0.0
  0
LINE
  8
OUTLINE
  6
CONTINUOUS
 62
     3
 10
83.369956000000457
 20
-236.6069811001
 30
0.0
 11
80.606955400101469
 21
-236.60698110010031
 31
0.0
  0
LINE
  8
OUTLINE
  6
CONTINUOUS
 62
     3
 10
-80.606955400101469
 20
-236.60698110010031
 30
0.0
 11
-84.04625600000054
 21
-236.6069811001
 31
0.0
  0
LINE
  8
OUTLINE
  6
CONTINUOUS
 62
     3
 10
-203.79772574989869
 20
-71.899038867040659
 30
0.0
 11
-203.79772574989869
 21
15.90428233285661
 31
0.0
  0
LINE
  8
OUTLINE
  6
CONTINUOUS
 62
     3
 10
-202.17923135000001
 20
-74.32678046704109
 30
0.0
 11
-202.17923135000001
 21
-73.517533266939367
 31
0.0
  0
LINE
  8
OUTLINE
  6
CONTINUOUS
 62
     3
 10
-202.17923135000001
 20
18.332023932857059
 30
0.0
 11
-202.17923135000001
 21
17.52277673275535
 31
0.0
  0
LINE
  8
OUTLINE
  6
CONTINUOUS
 62
     3
 10
-198.9999527999997
 20
239.00002339990061
 30
0.0
 11
-198.9999527999997
 21
198.49990439980041
 31
0.0
  0
LINE
  8
OUTLINE
  6
CONTINUOUS
 62
     3
 10
-198.9999527999997
 20
-104.49994589999839
 30
0.0
 11
-198.9999527999997
 21
-144.99996490009829
 31
0.0
  0
LINE
  8
OUTLINE
  6
CONTINUOUS
 62
     3
 10
116.4694822851197
 20
238.80670260819781
 30
0.0
 11
116.51513981266361
 21
238.87682284942531
 31
0.0
  0
LINE
  8
OUTLINE
  6
CONTINUOUS
 62
     3
 10
70.999989000102687
 20
-306.00007569999872
 30
0.0
 11
-70.999989000101792
 21
-306.00007569999872
 31
0.0
  0
LINE
  8
OUTLINE
  6
CONTINUOUS
 62
     3
 10
-184.56354730010031
 20
198.49990439980041
 30
0.0
 11
-184.56354730010031
 21
218.49995209990061
 31
0.0
  0
LINE
  8
OUTLINE
  6
CONTINUOUS
 62
     3
 10
-184.56354730010031
 20
-104.49994589999839
 30
0.0
 11
-184.56354730010031
 21
-124.49999360010069
 31
0.0
  0
LINE
  8
OUTLINE
  6
CONTINUOUS
 62
     3
 10
-173.43639829999941
 20
198.49990439980041
 30
0.0
 11
-173.43639829999941
 21
218.49995209990061
 31
0.0
  0
LINE
  8
OUTLINE
  6
CONTINUOUS
 62
     3
 10
-173.43639830000029
 20
-104.49994589999839
 30
0.0
 11
-173.43639830000029
 21
-124.49999360010069
 31
0.0
  0
LINE
  8
OUTLINE
  6
CONTINUOUS
 62
     3
 10
-144.0852857498985
 20
-88.690918266940344
 30
0.0
 11
-144.0852857498985
 21
-74.326780467040862
 31
0.0
  0
LINE
  8
OUTLINE
  6
CONTINUOUS
 62
     3
 10
-144.0852857498985
 20
18.332023932857059
 30
0.0
 11
-144.0852857498985
 21
42.811751732959451
 31
0.0
  0
LINE
  8
OUTLINE
  6
CONTINUOUS
 62
     3
 10
-143.27603855010059
 20
42.811751732959451
 30
0.0
 11
-143.2760385501015
 21
18.332023932857059
 31
0.0
  0
LINE
  8
OUTLINE
  6
CONTINUOUS
 62
     3
 10
-143.27603855010059
 20
-74.326780467041317
 30
0.0
 11
-143.27603855010059
 21
-88.690918266940344
 31
0.0
  0
LINE
  8
OUTLINE
  6
CONTINUOUS
 62
     3
 10
-141.60696620010091
 20
167.21395799999979
 30
0.0
 11
-141.60696620010091
 21
18.332023932857059
 31
0.0
  0
LINE
  8
OUTLINE
  6
CONTINUOUS
 62
     3
 10
-141.0000308001008
 20
198.49990439980041
 30
0.0
 11
-141.0000308001008
 21
169.4393877998987
 31
0.0
  0
LINE
  8
OUTLINE
  6
CONTINUOUS
 62
     3
 10
-140.79771900000009
 20
-74.32678046704109
 30
0.0
 11
-140.79771900000009
 21
-104.49994589999839
 31
0.0
  0
LINE
  8
OUTLINE
  6
CONTINUOUS
 62
     3
 10
-139.78616000010061
 20
169.4393877998987
 30
0.0
 11
-139.78616000010061
 21
167.21395799999979
 31
0.0
  0
LINE
  8
OUTLINE
  6
CONTINUOUS
 62
     3
 10
-80.000020000100449
 20
244.46244199990059
 30
0.0
 11
-70.999989000100882
 21
297.90752799989968
 31
0.0
  0
LINE
  8
OUTLINE
  6
CONTINUOUS
 62
     3
 10
116.425345042443
 20
238.7237828604855
 30
0.0
 11
116.4694822851197
 21
238.80670260819781
 31
0.0
  0
LINE
  8
OUTLINE
  6
CONTINUOUS
 62
     3
 10
-70.999989000101792
 20
-297.9076037002003
 30
0.0
 11
-80.000020000101344
 21
-244.09251770020111
 31
0.0
  0
LINE
  8
OUTLINE
  6
CONTINUOUS
 62
     3
 10
-113.1821582999992
 20
235.99996999980019
 30
0.0
 11
-113.1821582999992
 21
237.98846440000011
 31
0.0
  0
LINE
  8
OUTLINE
  6
CONTINUOUS
 62
     3
 10
-107.0231484001006
 20
-143.17915870010069
 30
0.0
 11
-107.0231484001006
 21
-143.68493820020009
 31
0.0
  0
LINE
  8
OUTLINE
  6
CONTINUOUS
 62
     3
 10
-105.0000303999996
 20
-234.78617490009881
 30
0.0
 11
-105.0000303999996
 21
-143.179158700101
 31
0.0
  0
LINE
  8
OUTLINE
  6
CONTINUOUS
 62
     3
 10
-89.815145399999892
 20
-236.0000457001008
 30
0.0
 11
-89.815145399999892
 21
-236.02533467499799
 31
0.0
  0
LINE
  8
OUTLINE
  6
CONTINUOUS
 62
     3
 10
-90.115609999999847
 20
236.60690539979939
 30
0.0
 11
-90.115609999999847
 21
235.99996999980019
 31
0.0
  0
LINE
  8
OUTLINE
  6
CONTINUOUS
 62
     3
 10
-84.04625600000054
 20
-236.6069811001
 30
0.0
 11
-84.04625600000054
 21
-236.02533467499819
 31
0.0
  0
LINE
  8
OUTLINE
  6
CONTINUOUS
 62
     3
 10
-80.000020000101344
 20
-244.09251770020111
 30
0.0
 11
-80.000020000101344
 21
-237.2139165000992
 31
0.0
  0
LINE
  8
OUTLINE
  6
CONTINUOUS
 62
     3
 10
-80.000020000100449
 20
237.58384079979871
 30
0.0
 11
-80.000020000100449
 21
244.46244199990059
 31
0.0
  0
LINE
  8
OUTLINE
  6
CONTINUOUS
 62
     3
 10
-70.999989000101792
 20
-306.00007569999872
 30
0.0
 11
-70.999989000101792
 21
-297.9076037002003
 31
0.0
  0
LINE
  8
OUTLINE
  6
CONTINUOUS
 62
     3
 10
-70.999989000100882
 20
297.90752799989968
 30
0.0
 11
-70.999989000100882
 21
306.0
 31
0.0
  0
LINE
  8
OUTLINE
  6
CONTINUOUS
 62
     3
 10
116.1916715194602
 20
238.12269702588009
 30
0.0
 11
116.3416314104788
 21
238.52597736545499
 31
0.0
  0
LINE
  8
OUTLINE
  6
CONTINUOUS
 62
     3
 10
116.1412750812806
 20
237.98846440000011
 30
0.0
 11
116.1916715194602
 21
238.12269702588009
 31
0.0
  0
LINE
  8
OUTLINE
  6
CONTINUOUS
 62
     3
 10
116.3416314104788
 20
238.52597736545499
 30
0.0
 11
116.38272808402689
 21
238.62966935614961
 31
0.0
  0
LINE
  8
OUTLINE
  6
CONTINUOUS
 62
     3
 10
116.38272808402689
 20
238.62966935614961
 30
0.0
 11
116.425345042443
 21
238.7237828604855
 31
0.0
  0
LINE
  8
OUTLINE
  6
CONTINUOUS
 62
     3
 10
70.999989000102687
 20
-306.00007569999872
 30
0.0
 11
70.999989000102687
 21
-297.9076037002003
 31
0.0
  0
LINE
  8
OUTLINE
  6
CONTINUOUS
 62
     3
 10
70.999989000102687
 20
297.90752799989968
 30
0.0
 11
70.999989000102687
 21
306.0
 31
0.0
  0
LINE
  8
OUTLINE
  6
CONTINUOUS
 62
     3
 10
80.000020000102268
 20
-244.09251770020111
 30
0.0
 11
80.000020000102268
 21
-237.2139165000992
 31
0.0
  0
LINE
  8
OUTLINE
  6
CONTINUOUS
 62
     3
 10
80.000020000102268
 20
237.58384079979871
 30
0.0
 11
80.000020000102268
 21
244.46244199990059
 31
0.0
  0
LINE
  8
OUTLINE
  6
CONTINUOUS
 62
     3
 10
83.369956000000457
 20
-236.6069811001
 30
0.0
 11
83.369956000000457
 21
-236.0000457001008
 31
0.0
  0
LINE
  8
OUTLINE
  6
CONTINUOUS
 62
     3
 10
86.00000940010159
 20
-143.17915870010069
 30
0.0
 11
86.00000940010159
 21
-234.78617490009881
 31
0.0
  0
LINE
  8
OUTLINE
  6
CONTINUOUS
 62
     3
 10
90.115610000000743
 20
236.60690539979939
 30
0.0
 11
90.115610000000743
 21
235.99996999980019
 31
0.0
  0
LINE
  8
OUTLINE
  6
CONTINUOUS
 62
     3
 10
99.554899999900059
 20
-143.17915870010069
 30
0.0
 11
99.554899999900059
 21
-142.0000115
 31
0.0
  0
LINE
  8
OUTLINE
  6
CONTINUOUS
 62
     3
 10
70.999989000102687
 20
-297.9076037002003
 30
0.0
 11
80.000020000102268
 21
-244.09251770020111
 31
0.0
  0
LINE
  8
OUTLINE
  6
CONTINUOUS
 62
     3
 10
80.000020000102268
 20
244.46244199990059
 30
0.0
 11
70.999989000102687
 21
297.90752799989968
 31
0.0
  0
LINE
  8
OUTLINE
  6
CONTINUOUS
 62
     3
 10
106.502865800001
 20
235.99996999980019
 30
0.0
 11
106.502865800001
 21
236.02525897500121
 31
0.0
  0
LINE
  8
OUTLINE
  6
CONTINUOUS
 62
     3
 10
114.089558300001
 20
237.98846440000011
 30
0.0
 11
114.089558300002
 21
236.02525897500101
 31
0.0
  0
LINE
  8
OUTLINE
  6
CONTINUOUS
 62
     3
 10
114.089558300001
 20
-142.0000115
 30
0.0
 11
114.089558300001
 21
-143.98840590020151
 31
0.0
  0
LINE
  8
OUTLINE
  6
CONTINUOUS
 62
     3
 10
141.00003080010259
 20
-104.4999458999981
 30
0.0
 11
141.00003080010259
 21
198.49990439980041
 31
0.0
  0
LINE
  8
OUTLINE
  6
CONTINUOUS
 62
     3
 10
173.4363983000012
 20
198.49990439980041
 30
0.0
 11
173.4363983000012
 21
218.49995209990061
 31
0.0
  0
LINE
  8
OUTLINE
  6
CONTINUOUS
 62
     3
 10
173.4363983000012
 20
-104.49994589999839
 30
0.0
 11
173.4363983000012
 21
-124.49999360010069
 31
0.0
  0
LINE
  8
OUTLINE
  6
CONTINUOUS
 62
     3
 10
184.5635473001021
 20
198.49990439980041
 30
0.0
 11
184.5635473001021
 21
218.49995209990061
 31
0.0
  0
LINE
  8
OUTLINE
  6
CONTINUOUS
 62
     3
 10
184.5635473001021
 20
-104.49994589999839
 30
0.0
 11
184.5635473001021
 21
-124.49999360010069
 31
0.0
  0
LINE
  8
OUTLINE
  6
CONTINUOUS
 62
     3
 10
198.99995280000081
 20
239.00002339990061
 30
0.0
 11
198.99995280000081
 21
198.49990439980041
 31
0.0
  0
LINE
  8
OUTLINE
  6
CONTINUOUS
 62
     3
 10
198.99995280000081
 20
-104.49994589999839
 30
0.0
 11
198.99995280000081
 21
-144.99996490009829
 31
0.0
  0
ARC
  8
OUTLINE
  6
CONTINUOUS
 62
     3
 10
-178.99997279989839
 20
218.49995209990061
 30
0.0
 40
5.5635744998988441
 50
0.0
 51
180.0
  0
ARC
  8
OUTLINE
  6
CONTINUOUS
 62
     3
 10
-202.17923135000001
 20
15.90428233285661
 30
0.0
 40
1.6184943998988439
 50
90.0
 51
180.0
  0
ARC
  8
OUTLINE
  6
CONTINUOUS
 62
     3
 10
-81.01806027689598
 20
237.53931176015041
 30
0.0
 40
1.01901366062944
 50
293.79303803846818
 51
2.5045186412155052
  0
ARC
  8
OUTLINE
  6
CONTINUOUS
 62
     3
 10
178.99997279990021
 20
218.49995209990061
 30
0.0
 40
5.5635744998988441
 50
0.0
 51
180.0
  0
ARC
  8
OUTLINE
  6
CONTINUOUS
 62
     3
 10
81.018060276897813
 20
237.53931176015041
 30
0.0
 40
1.019013660629702
 50
177.4954813587845
 51
246.20696196153179
  0
ARC
  8
OUTLINE
  6
CONTINUOUS
 62
     3
 10
-178.99997279989839
 20
-124.49999360010069
 30
0.0
 40
5.5635744998988441
 50
180.0
 51
0.0
  0
ARC
  8
OUTLINE
  6
CONTINUOUS
 62
     3
 10
-202.17923135000001
 20
-71.899038867040659
 30
0.0
 40
1.6184943998988439
 50
180.0
 51
270.0
  0
ARC
  8
OUTLINE
  6
CONTINUOUS
 62
     3
 10
-103.78615959999929
 20
-234.78617490009881
 30
0.0
 40
1.2138708
 50
180.0
 51
270.0
  0
ARC
  8
OUTLINE
  6
CONTINUOUS
 62
     3
 10
-80.606955400101469
 20
-237.2139165000992
 30
0.0
 40
0.6069354
 50
0.0
 51
90.0
  0
ARC
  8
OUTLINE
  6
CONTINUOUS
 62
     3
 10
178.99997279990021
 20
-124.49999360010069
 30
0.0
 40
5.5635744998988441
 50
180.0
 51
0.0
  0
ARC
  8
OUTLINE
  6
CONTINUOUS
 62
     3
 10
84.786138600102262
 20
-234.78617490009881
 30
0.0
 40
1.2138708
 50
270.0
 51
0.0
  0
ARC
  8
OUTLINE
  6
CONTINUOUS
 62
     3
 10
80.606955400101469
 20
-237.2139165000992
 30
0.0
 40
0.6069354
 50
90.0
 51
180.0
  0
LINE
  8
OUTLINE
  6
CONTINUOUS
 62
     3
 10
-116.4264954610571
 20
-143.68493820020029
 30
0.0
 11
-116.426495461058
 21
-144.99996871587251
 31
0.0
  0
TEXT
  8
NOTE
  6
CONTINUOUS
 62
     4
 10
-66.04940588986301
 20
-393.73051735310332
 30
0.0
 40
64.0
  1
DA1
 41
0.9
  0
TEXT
  8
NOTE
  6
CONTINUOUS
 62
     4
 10
-72.529020167145973
 20
342.3485348657257
 30
0.0
 40
64.0
  1
DA2
 41
0.9
  0
TEXT
  8
ETC
  6
CONTINUOUS
 62
    61
 10
446.77685894819842
 20
949.50003694608642
 30
0.0
 40
64.0
  1
BFS-40SSUA2_6
 41
0.9
  0
TEXT
  8
ETC
  6
CONTINUOUS
 62
    61
 10
442.59086494819883
 20
831.54472693125501
 30
0.0
 40
64.0
  1
産業扇
 41
0.9
  0
TEXT
  8
ETC
  6
CONTINUOUS
 62
    61
 10
493.29226319675399
 20
723.39595404502973
 30
0.0
 40
40.0
  1
BFS-40SSUA2
 41
0.9
  0
POINT
  8
ARRANGE
  6
CONTINUOUS
 62
     1
 10
0.0
 20
0.0
 30
0.0
  0
CIRCLE
  8
ARRANGE
  6
CONTINUOUS
 62
     1
 10
0.0
 20
0.0
 30
0.0
 40
40.0
  0
LINE
  8
SIZE
  6
CONTINUOUS
 62
    30
 10
218.9999528000009
 20
-104.49994589999839
 30
0.0
 11
476.9295262730576
 21
-104.49994589999839
 31
0.0
  0
LINE
  8
SIZE
  6
CONTINUOUS
 62
    30
 10
204.56354730010219
 20
-124.49999360010059
 30
0.0
 11
476.9295262730576
 21
-124.49999360010059
 31
0.0
  0
LINE
  8
SIZE
  6
CONTINUOUS
 62
    30
 10
456.92952627305772
 20
-136.49999360010051
 30
0.0
 11
456.92952627305772
 21
-148.49999360010051
 31
0.0
  0
LINE
  8
SIZE
  6
CONTINUOUS
 62
    30
 10
456.9295262730576
 20
-92.499945899998366
 30
0.0
 11
456.9295262730576
 21
62.757196957144501
 31
0.0
  0
LINE
  8
SIZE
  6
CONTINUOUS
 62
    30
 10
456.9295262730576
 20
-124.49999360010059
 30
0.0
 11
456.9295262730576
 21
-104.49994589999839
 31
0.0
  0
CIRCLE
  8
SIZE
  6
CONTINUOUS
 62
    30
 10
456.9295262730576
 20
-124.49999360010059
 30
0.0
 40
6.0
  0
LINE
  8
SIZE
  6
CONTINUOUS
 62
    30
 10
456.9295262730576
 20
-124.49999360010059
 30
0.0
 11
456.9295262730576
 21
-136.49999360010059
 31
0.0
  0
CIRCLE
  8
SIZE
  6
CONTINUOUS
 62
    30
 10
456.9295262730576
 20
-104.49994589999839
 30
0.0
 40
6.0
  0
LINE
  8
SIZE
  6
CONTINUOUS
 62
    30
 10
456.9295262730576
 20
-104.49994589999839
 30
0.0
 11
456.9295262730576
 21
-92.499945899998394
 31
0.0
  0
TEXT
  8
SIZE
  6
CONTINUOUS
 62
    30
 10
431.92952627305749
 20
-55.49994589999848
 30
0.0
 40
64.0
  1
20
 50
90.0
 41
0.9
 72
     1
 11
431.92952627305749
 21
-8.8713744714270568
 31
0.0
  0
POINT
  8
DEFPOINTS
  6
CONTINUOUS
 62
    30
 10
198.9999528000009
 20
-104.49994589999839
 30
0.0
  0
POINT
  8
DEFPOINTS
  6
CONTINUOUS
 62
    30
 10
184.5635473001021
 20
-124.49999360010059
 30
0.0
  0
POINT
  8
DEFPOINTS
  6
CONTINUOUS
 62
    30
 10
456.9295262730576
 20
-124.49999360010059
 30
0.0
  0
LINE
  8
SIZE
  6
CONTINUOUS
 62
    30
 10
173.4363983000012
 20
-84.49994589999838
 30
0.0
 11
173.4363983000012
 21
36.89219744294131
 31
0.0
  0
LINE
  8
SIZE
  6
CONTINUOUS
 62
    30
 10
184.5635473001021
 20
-84.49994589999838
 30
0.0
 11
184.5635473001021
 21
36.89219744294131
 31
0.0
  0
LINE
  8
SIZE
  6
CONTINUOUS
 62
    30
 10
161.4363983000012
 20
16.89219744294132
 30
0.0
 11
149.4363983000012
 21
16.89219744294132
 31
0.0
  0
LINE
  8
SIZE
  6
CONTINUOUS
 62
    30
 10
196.5635473001021
 20
16.89219744294132
 30
0.0
 11
316.1635473001021
 21
16.89219744294132
 31
0.0
  0
LINE
  8
SIZE
  6
CONTINUOUS
 62
    30
 10
173.4363983000012
 20
16.89219744294132
 30
0.0
 11
184.5635473001021
 21
16.89219744294132
 31
0.0
  0
CIRCLE
  8
SIZE
  6
CONTINUOUS
 62
    30
 10
173.4363983000012
 20
16.89219744294132
 30
0.0
 40
6.0
  0
LINE
  8
SIZE
  6
CONTINUOUS
 62
    30
 10
173.4363983000012
 20
16.89219744294132
 30
0.0
 11
161.4363983000012
 21
16.89219744294132
 31
0.0
  0
CIRCLE
  8
SIZE
  6
CONTINUOUS
 62
    30
 10
184.5635473001021
 20
16.89219744294132
 30
0.0
 40
6.0
  0
LINE
  8
SIZE
  6
CONTINUOUS
 62
    30
 10
184.5635473001021
 20
16.89219744294132
 30
0.0
 11
196.5635473001021
 21
16.89219744294132
 31
0.0
  0
TEXT
  8
SIZE
  6
CONTINUOUS
 62
    30
 10
233.5635473001021
 20
41.892197442941317
 30
0.0
 40
64.0
  1
11
 41
0.9
 72
     1
 11
262.36354730010208
 21
41.892197442941317
 31
0.0
  0
POINT
  8
DEFPOINTS
  6
CONTINUOUS
 62
    30
 10
173.4363983000012
 20
-104.49994589999839
 30
0.0
  0
POINT
  8
DEFPOINTS
  6
CONTINUOUS
 62
    30
 10
184.5635473001021
 20
-104.49994589999839
 30
0.0
  0
POINT
  8
DEFPOINTS
  6
CONTINUOUS
 62
    30
 10
184.5635473001021
 20
16.89219744294132
 30
0.0
  0
TEXT
  8
NOTE
  6
CONTINUOUS
 62
     4
 10
240.84467838660751
 20
-364.01938496126559
 30
0.0
 40
64.0
  1
%%uAH 4
 41
0.9
  0
LINE
  8
NOTE
  6
CONTINUOUS
 62
     4
 10
240.75467838660751
 20
-376.81938496126571
 30
0.0
 11
454.78753552946472
 21
-376.81938496126571
 31
0.0
  0
LINE
  8
NOTE
  6
CONTINUOUS
 62
     4
 10
178.23420029581979
 20
-157.61998647195961
 30
0.0
 11
178.99997279990021
 21
-124.4999936001005
 31
0.0
  0
LINE
  8
NOTE
  6
CONTINUOUS
 62
     4
 10
178.99997279990021
 20
-124.4999936001005
 30
0.0
 11
194.89683459404469
 21
-153.56561109668689
 31
0.0
  0
LINE
  8
NOTE
  6
CONTINUOUS
 62
     4
 10
178.99997279990021
 20
-124.4999936001005
 30
0.0
 11
194.1310620899643
 21
-186.68560396854599
 31
0.0
  0
LINE
  8
NOTE
  6
CONTINUOUS
 62
     4
 10
194.1310620899641
 20
-186.68560396854599
 30
0.0
 11
240.3946783866075
 21
-376.81938496126571
 31
0.0
  0
LINE
  8
NOTE
  6
CONTINUOUS
 62
     4
 10
240.3946783866075
 20
-376.81938496126571
 30
0.0
 11
240.75467838660751
 21
-376.81938496126571
 31
0.0
  0
ENDSEC
  0
EOF
