  0
SECTION
  2
HEADER
  9
$ACADVER
  1
AC1009
  9
$DWGCODEPAGE
  3
dos932
  9
$INSBASE
 10
0.0
 20
0.0
 30
0.0
  9
$EXTMIN
 10
-444.03462300000001
 20
-361.54482999999999
 30
0.0
  9
$EXTMAX
 10
900.84064007285031
 20
462.98161299999992
 30
0.0
  9
$LIMMIN
 10
-2970.0
 20
-2100.0
  9
$LIMMAX
 10
2970.0
 20
2100.0
  9
$ORTHOMODE
 70
     1
  9
$REGENMODE
 70
     1
  9
$FILLMODE
 70
     1
  9
$QTEXTMODE
 70
     0
  9
$MIRRTEXT
 70
     0
  9
$LTSCALE
 40
20.0
  9
$ATTMODE
 70
     1
  9
$TEXTSIZE
 40
64.0
  9
$TRACEWID
 40
0.05
  9
$TEXTSTYLE
  7
STANDARD
  9
$CLAYER
  8
SIZE
  9
$CELTYPE
  6
CONTINUOUS
  9
$CECOLOR
 62
     7
  9
$DIMSCALE
 40
1.0
  9
$DIMASZ
 40
12.0
  9
$DIMEXO
 40
20.0
  9
$DIMDLI
 40
200.0
  9
$DIMRND
 40
0.0
  9
$DIMDLE
 40
0.0
  9
$DIMEXE
 40
20.0
  9
$DIMTP
 40
0.0
  9
$DIMTM
 40
0.0
  9
$DIMTXT
 40
64.0
  9
$DIMCEN
 40
0.09
  9
$DIMTSZ
 40
0.0
  9
$DIMTOL
 70
     0
  9
$DIMLIM
 70
     0
  9
$DIMTIH
 70
     0
  9
$DIMTOH
 70
     0
  9
$DIMSE1
 70
     0
  9
$DIMSE2
 70
     0
  9
$DIMTAD
 70
     1
  9
$DIMZIN
 70
     8
  9
$DIMBLK
  1

  9
$DIMASO
 70
     1
  9
$DIMSHO
 70
     0
  9
$DIMPOST
  1

  9
$DIMAPOST
  1

  9
$DIMALT
 70
     0
  9
$DIMALTD
 70
     2
  9
$DIMALTF
 40
25.399999999999999
  9
$DIMLFAC
 40
1.0
  9
$DIMTOFL
 70
     1
  9
$DIMTVP
 40
0.0
  9
$DIMTIX
 70
     1
  9
$DIMSOXD
 70
     0
  9
$DIMSAH
 70
     0
  9
$DIMBLK1
  1

  9
$DIMBLK2
  1

  9
$DIMSTYLE
  2
STANDARD
  9
$DIMCLRD
 70
     7
  9
$DIMCLRE
 70
     7
  9
$DIMCLRT
 70
     7
  9
$DIMTFAC
 40
1.0
  9
$DIMGAP
 40
25.0
  9
$LUNITS
 70
     2
  9
$LUPREC
 70
     4
  9
$SKETCHINC
 40
0.1
  9
$FILLETRAD
 40
3.0
  9
$AUNITS
 70
     1
  9
$AUPREC
 70
     3
  9
$MENU
  1
ACAD
  9
$ELEVATION
 40
0.0
  9
$PELEVATION
 40
0.0
  9
$THICKNESS
 40
50.0
  9
$LIMCHECK
 70
     0
  9
$CHAMFERA
 40
0.0
  9
$CHAMFERB
 40
0.0
  9
$SKPOLY
 70
     0
  9
$TDCREATE
 40
2453019.62301037
  9
$TDUPDATE
 40
2458659.388146134
  9
$TDINDWG
 40
1.7458377431
  9
$TDUSRTIMER
 40
1.7458377431
  9
$USRTIMER
 70
     1
  9
$ANGBASE
 50
0.0
  9
$ANGDIR
 70
     0
  9
$PDMODE
 70
     3
  9
$PDSIZE
 40
-2.0
  9
$PLINEWID
 40
0.0
  9
$SPLFRAME
 70
     0
  9
$SPLINETYPE
 70
     6
  9
$SPLINESEGS
 70
     8
  9
$SURFTAB1
 70
     6
  9
$SURFTAB2
 70
     6
  9
$SURFTYPE
 70
     6
  9
$SURFU
 70
     6
  9
$SURFV
 70
     6
  9
$UCSNAME
  2

  9
$UCSORG
 10
0.0
 20
0.0
 30
0.0
  9
$UCSXDIR
 10
1.0
 20
0.0
 30
0.0
  9
$UCSYDIR
 10
0.0
 20
1.0
 30
0.0
  9
$PUCSNAME
  2

  9
$PUCSORG
 10
0.0
 20
0.0
 30
0.0
  9
$PUCSXDIR
 10
1.0
 20
0.0
 30
0.0
  9
$PUCSYDIR
 10
0.0
 20
1.0
 30
0.0
  9
$USERI1
 70
     0
  9
$USERI2
 70
     0
  9
$USERI3
 70
     0
  9
$USERI4
 70
     0
  9
$USERI5
 70
     0
  9
$USERR1
 40
20.0
  9
$USERR2
 40
0.0
  9
$USERR3
 40
0.0
  9
$USERR4
 40
0.0
  9
$USERR5
 40
0.0
  9
$WORLDVIEW
 70
     1
  9
$SHADEDGE
 70
     3
  9
$SHADEDIF
 70
    70
  9
$TILEMODE
 70
     1
  9
$MAXACTVP
 70
    48
  9
$PINSBASE
 10
0.0
 20
0.0
 30
0.0
  9
$PLIMCHECK
 70
     0
  9
$PEXTMIN
 10
-100000000000000000000.0
 20
-100000000000000000000.0
 30
-100000000000000000000.0
  9
$PEXTMAX
 10
100000000000000000000.0
 20
100000000000000000000.0
 30
100000000000000000000.0
  9
$PLIMMIN
 10
0.0
 20
0.0
  9
$PLIMMAX
 10
12.0
 20
9.0
  9
$UNITMODE
 70
     0
  9
$VISRETAIN
 70
     0
  9
$PLINEGEN
 70
     0
  9
$PSLTSCALE
 70
     0
  9
$TREEDEPTH
 70
  3020
  9
$ATTDIA
 70
     0
  9
$ATTREQ
 70
     1
  9
$BLIPMODE
 70
     1
  9
$COORDS
 70
     1
  9
$DRAGMODE
 70
     2
  9
$OSMODE
 70
     0
  9
$HANDLING
 70
     0
  9
$HANDSEED
  5
F03D
  0
ENDSEC
  0
SECTION
  2
TABLES
  0
TABLE
  2
LTYPE
 70
     2
  0
LTYPE
  2
CONTINUOUS
 70
     0
  3
実線
 72
    65
 73
     0
 40
0.0
  0
LTYPE
  2
DASHDOT
 70
     0
  3
____ _ ____ _ ____ _ ____ _ ____ _ ____ _ ____
 72
    65
 73
     4
 40
5.5
 49
4.0
 49
-0.6
 49
0.3
 49
-0.6
  0
ENDTAB
  0
TABLE
  2
LAYER
 70
    12
  0
LAYER
  2
0
 70
     0
 62
     7
  6
CONTINUOUS
  0
LAYER
  2
BASIS
 70
     0
 62
     6
  6
DASHDOT
  0
LAYER
  2
OUTLINE
 70
     0
 62
     3
  6
CONTINUOUS
  0
LAYER
  2
DETAIL
 70
     0
 62
     5
  6
CONTINUOUS
  0
LAYER
  2
SIZE
 70
     0
 62
    30
  6
CONTINUOUS
  0
LAYER
  2
ARRANGE
 70
     0
 62
     1
  6
CONTINUOUS
  0
LAYER
  2
DEFPOINTS
 70
     0
 62
     7
  6
CONTINUOUS
  0
LAYER
  2
ETC
 70
     0
 62
    61
  6
CONTINUOUS
  0
LAYER
  2
FIX
 70
     0
 62
    11
  6
CONTINUOUS
  0
LAYER
  2
NOTE
 70
     0
 62
     4
  6
CONTINUOUS
  0
LAYER
  2
SERVICESPACE
 70
    64
 62
     2
  6
DASHDOT
  0
LAYER
  2
SYMBOLLINE
 70
    64
 62
    15
  6
CONTINUOUS
  0
ENDTAB
  0
TABLE
  2
STYLE
 70
     1
  0
STYLE
  2
STANDARD
 70
     0
 40
64.0
 41
0.9
 50
0.0
 71
     0
 42
64.0
  3
SIMPLEX.shx
  4
BIGFONT.shx
  0
ENDTAB
  0
TABLE
  2
APPID
 70
    18
  0
APPID
  2
ACAD
 70
     0
  0
APPID
  2
AUTOCAD_POSTSCRIPT_FIGURE
 70
     0
  0
APPID
  2
ACAD_EXEMPT_FROM_CAD_STANDARDS
 70
     0
  0
APPID
  2
ACAD_PSEXT
 70
     0
  0
APPID
  2
ACAUTHENVIRON
 70
     0
  0
APPID
  2
GENIUS_GENOENT_13
 70
     0
  0
APPID
  2
GENIUS_GENCFG_13
 70
     0
  0
APPID
  2
GENIUS_GENCFG0_13
 70
     0
  0
APPID
  2
GENIUS_GENCFG1_13
 70
     0
  0
APPID
  2
GENIUS_GENCFG2_13
 70
     0
  0
APPID
  2
GENIUS_GENCFG3_13
 70
     0
  0
APPID
  2
GENIUS_GENCFG4_13
 70
     0
  0
APPID
  2
GENIUS_GEVCFG0_13
 70
     0
  0
APPID
  2
CONTENTBLOCKICON
 70
     0
  0
APPID
  2
CONTENTBLOCKDESCRIPTION
 70
     0
  0
APPID
  2
ACAD_NAV_VCDISPLAY
 70
     0
  0
APPID
  2
ACAD_MLEADERVER
 70
     0
  0
APPID
  2
ACAD_DSTYLE_DIMRADIAL_EXTENSION
 70
     0
  0
ENDTAB
  0
TABLE
  2
DIMSTYLE
 70
     1
  0
DIMSTYLE
  2
STANDARD
 70
     0
  3

  4

  5
_ORIGIN
  6

  7

 40
1.0
 41
12.0
 42
20.0
 43
200.0
 44
20.0
 45
0.0
 46
0.0
 47
0.0
 48
0.0
140
64.0
141
0.09
142
0.0
143
25.399999999999999
144
1.0
145
0.0
146
1.0
147
25.0
 71
     0
 72
     0
 73
     0
 74
     0
 75
     0
 76
     0
 77
     1
 78
     8
170
     0
171
     2
172
     1
173
     0
174
     1
175
     0
176
     7
177
     7
178
     7
  0
ENDTAB
  0
TABLE
  2
VIEW
 70
     1
  0
VIEW
  2
ALL
 70
     0
 40
4282.6198079999986
 10
0.0
 20
41.309904000000003
 41
5940.0
 11
0.0
 21
0.0
 31
1.0
 12
0.0
 22
0.0
 32
0.0
 42
50.0
 43
0.0
 44
0.0
 50
0.0
 71
     0
  0
ENDTAB
  0
TABLE
  2
UCS
 70
     0
  0
ENDTAB
  0
TABLE
  2
VPORT
 70
     1
  0
VPORT
  2
*ACTIVE
 70
     0
 10
0.0
 20
0.0
 11
1.0
 21
1.0
 12
-25.39077617379985
 22
-169.43290007685249
 13
0.0
 23
0.0
 14
1.0
 24
1.0
 15
0.0
 25
0.0
 16
0.0
 26
0.0
 36
1.0
 17
0.0
 27
0.0
 37
0.0
 40
1854.2126534911899
 41
1.996865203761756
 42
50.0
 43
0.0
 44
0.0
 50
0.0
 51
0.0
 71
     0
 72
  1000
 73
     1
 74
     3
 75
     0
 76
     0
 77
     0
 78
     0
  0
ENDTAB
  0
ENDSEC
  0
SECTION
  2
BLOCKS
  0
BLOCK
  8
0
  2
_ORIGIN
 70
     0
 10
0.0
 20
0.0
 30
0.0
  3
_ORIGIN
  1
_ORIGIN
  0
CIRCLE
  8
0
  6
CONTINUOUS
 62
     7
 10
0.0
 20
0.0
 30
0.0
 40
0.5
  0
LINE
  8
0
  6
CONTINUOUS
 62
     7
 10
0.0
 20
0.0
 30
0.0
 11
-1.0
 21
0.0
 31
0.0
  0
ENDBLK
  8
0
  0
ENDSEC
  0
SECTION
  2
ENTITIES
  0
TEXT
  8
ETC
  6
CONTINUOUS
 62
    61
 10
319.69778292999342
 20
375.72847452070368
 30
0.0
 40
60.0
  1
BFS-40SUG2_2
 41
0.9
  0
TEXT
  8
ETC
  6
CONTINUOUS
 62
    61
 10
313.57045542999339
 20
281.60979202070348
 30
0.0
 40
60.0
  1
産業扇
 41
0.9
  0
TEXT
  8
ETC
  6
CONTINUOUS
 62
    61
 10
368.32155706491397
 20
211.03634962123991
 30
0.0
 40
40.0
  1
BFS-40SUG2
 41
0.9
  0
CIRCLE
  8
ARRANGE
  6
CONTINUOUS
 62
     1
 10
0.0
 20
0.0
 30
0.0
 40
44.210526000000002
  0
LINE
  8
BASIS
  6
DASHDOT
 62
     6
 10
-327.08452499999999
 20
-127.50041400000001
 30
0.0
 11
327.08452499999999
 21
-127.50041400000001
 31
0.0
  0
LINE
  8
DETAIL
  6
CONTINUOUS
 62
     5
 10
-152.503332
 20
-0.0004139999999779
 30
0.0
 11
-152.503332
 21
-117.50041400000001
 31
0.0
  0
LINE
  8
DETAIL
  6
CONTINUOUS
 62
     5
 10
-147.69380799999999
 20
-117.50041400000001
 30
0.0
 11
-147.69380799999999
 21
-0.0004139999999779
 31
0.0
  0
LINE
  8
OUTLINE
  6
CONTINUOUS
 62
     3
 10
-152.503332
 20
-0.0004139999999779
 30
0.0
 11
-152.503332
 21
-117.50041400000001
 31
0.0
  0
LINE
  8
OUTLINE
  6
CONTINUOUS
 62
     3
 10
-147.69380799999999
 20
-117.50041400000001
 30
0.0
 11
-147.69380799999999
 21
-0.0004139999999779
 31
0.0
  0
LINE
  8
BASIS
  6
DASHDOT
 62
     6
 10
-0.0033320000000003
 20
-361.54482999999999
 30
0.0
 11
-0.0033320000000003
 21
106.54400200000001
 31
0.0
  0
LINE
  8
DETAIL
  6
CONTINUOUS
 62
     5
 10
152.49666999999999
 20
-117.50041400000001
 30
0.0
 11
152.496668
 21
-0.0004139999999779
 31
0.0
  0
LINE
  8
DETAIL
  6
CONTINUOUS
 62
     5
 10
147.68714600000001
 20
-117.50041400000001
 30
0.0
 11
147.68714600000001
 21
-0.0004139999999779
 31
0.0
  0
LINE
  8
OUTLINE
  6
CONTINUOUS
 62
     3
 10
152.49666999999999
 20
-117.50041400000001
 30
0.0
 11
152.496668
 21
-0.0004139999999779
 31
0.0
  0
LINE
  8
OUTLINE
  6
CONTINUOUS
 62
     3
 10
147.68714600000001
 20
-117.50041400000001
 30
0.0
 11
147.68714600000001
 21
-0.0004139999999779
 31
0.0
  0
LINE
  8
DETAIL
  6
CONTINUOUS
 62
     5
 10
152.496668
 20
-255.00041400000001
 30
0.0
 11
-152.503332
 21
-255.00041400000001
 31
0.0
  0
CIRCLE
  8
DETAIL
  6
CONTINUOUS
 62
     5
 10
0.0
 20
-127.50041400000001
 30
0.0
 40
71.0
  0
CIRCLE
  8
DETAIL
  6
CONTINUOUS
 62
     5
 10
0.0
 20
-127.50041400000001
 30
0.0
 40
80.0
  0
LINE
  8
OUTLINE
  6
CONTINUOUS
 62
     3
 10
152.496668
 20
-255.00041400000001
 30
0.0
 11
-152.503332
 21
-255.00041400000001
 31
0.0
  0
LINE
  8
DETAIL
  6
CONTINUOUS
 62
     5
 10
152.496668
 20
-171.50041400000001
 30
0.0
 11
152.496668
 21
-255.00041400000001
 31
0.0
  0
LINE
  8
DETAIL
  6
CONTINUOUS
 62
     5
 10
147.6871470000001
 20
-171.50041400000001
 30
0.0
 11
147.6871470000001
 21
-255.00041400000001
 31
0.0
  0
LINE
  8
OUTLINE
  6
CONTINUOUS
 62
     3
 10
152.496668
 20
-171.50041400000001
 30
0.0
 11
152.496668
 21
-255.00041400000001
 31
0.0
  0
LINE
  8
OUTLINE
  6
CONTINUOUS
 62
     3
 10
147.6871470000001
 20
-171.50041400000001
 30
0.0
 11
147.6871470000001
 21
-255.00041400000001
 31
0.0
  0
ARC
  8
DETAIL
  6
CONTINUOUS
 62
     5
 10
137.14589699999991
 20
-122.50041400000001
 30
0.0
 40
5.0
 50
90.0
 51
162.124352000003
  0
ARC
  8
OUTLINE
  6
CONTINUOUS
 62
     3
 10
137.14589699999991
 20
-122.50041400000001
 30
0.0
 40
5.0
 50
90.0
 51
162.124352000003
  0
LINE
  8
DETAIL
  6
CONTINUOUS
 62
     5
 10
210.496668
 20
-117.50041400000001
 30
0.0
 11
210.496668
 21
-145.10727700000001
 31
0.0
  0
LINE
  8
NOTE
  6
CONTINUOUS
 62
     4
 10
190.496668
 20
-97.500413999999978
 30
0.0
 11
190.496668
 21
-137.50041400000001
 31
0.0
  0
LINE
  8
OUTLINE
  6
CONTINUOUS
 62
     3
 10
210.496668
 20
-117.50041400000001
 30
0.0
 11
210.496668
 21
-145.10727700000001
 31
0.0
  0
LINE
  8
DETAIL
  6
CONTINUOUS
 62
     5
 10
122.954933
 20
-171.50041400000001
 30
0.0
 11
195.44096099999999
 21
-171.50041400000001
 31
0.0
  0
LINE
  8
OUTLINE
  6
CONTINUOUS
 62
     3
 10
122.954933
 20
-171.50041400000001
 30
0.0
 11
195.44096099999999
 21
-171.50041400000001
 31
0.0
  0
LINE
  8
DETAIL
  6
CONTINUOUS
 62
     5
 10
210.496668
 20
-145.10727700000001
 30
0.0
 11
195.44096099999999
 21
-171.50041400000001
 31
0.0
  0
LINE
  8
OUTLINE
  6
CONTINUOUS
 62
     3
 10
210.496668
 20
-145.10727700000001
 30
0.0
 11
195.44096099999999
 21
-171.50041400000001
 31
0.0
  0
CIRCLE
  8
FIX
  6
CONTINUOUS
 62
    11
 10
190.496668
 20
-117.50041400000001
 30
0.0
 40
5.5
  0
ARC
  8
DETAIL
  6
CONTINUOUS
 62
     5
 10
122.954933
 20
-166.50041400000001
 30
0.0
 40
5.0
 50
162.124352000003
 51
270.0
  0
ARC
  8
OUTLINE
  6
CONTINUOUS
 62
     3
 10
122.954933
 20
-166.50041400000001
 30
0.0
 40
5.0
 50
162.124352000003
 51
270.0
  0
LINE
  8
DETAIL
  6
CONTINUOUS
 62
     5
 10
118.1963089999999
 20
-164.965653
 30
0.0
 11
132.38727199999991
 21
-120.965653
 31
0.0
  0
LINE
  8
OUTLINE
  6
CONTINUOUS
 62
     3
 10
118.1963089999999
 20
-164.965653
 30
0.0
 11
132.38727199999991
 21
-120.965653
 31
0.0
  0
LINE
  8
DETAIL
  6
CONTINUOUS
 62
     5
 10
210.496668
 20
-117.50041400000001
 30
0.0
 11
137.14589699999991
 21
-117.50041400000001
 31
0.0
  0
LINE
  8
OUTLINE
  6
CONTINUOUS
 62
     3
 10
210.496668
 20
-117.50041400000001
 30
0.0
 11
137.14589699999991
 21
-117.50041400000001
 31
0.0
  0
LINE
  8
DETAIL
  6
CONTINUOUS
 62
     5
 10
-147.69380799999999
 20
-171.50041400000001
 30
0.0
 11
-147.69380799999999
 21
-255.00041400000001
 31
0.0
  0
LINE
  8
DETAIL
  6
CONTINUOUS
 62
     5
 10
-152.503332
 20
-255.00041400000001
 30
0.0
 11
-152.503332
 21
-171.50041400000001
 31
0.0
  0
LINE
  8
OUTLINE
  6
CONTINUOUS
 62
     3
 10
-147.69380799999999
 20
-171.50041400000001
 30
0.0
 11
-147.69380799999999
 21
-255.00041400000001
 31
0.0
  0
LINE
  8
OUTLINE
  6
CONTINUOUS
 62
     3
 10
-152.503332
 20
-255.00041400000001
 30
0.0
 11
-152.503332
 21
-171.50041400000001
 31
0.0
  0
LINE
  8
DETAIL
  6
CONTINUOUS
 62
     5
 10
-169.12491
 20
-233.00041400000001
 30
0.0
 11
-152.503332
 21
-233.00041400000001
 31
0.0
  0
LINE
  8
OUTLINE
  6
CONTINUOUS
 62
     3
 10
-169.12491
 20
-233.00041400000001
 30
0.0
 11
-152.503332
 21
-233.00041400000001
 31
0.0
  0
ARC
  8
DETAIL
  6
CONTINUOUS
 62
     5
 10
-137.15256099999991
 20
-122.50041400000001
 30
0.0
 40
5.0
 50
17.875647999997021
 51
90.0
  0
ARC
  8
OUTLINE
  6
CONTINUOUS
 62
     3
 10
-137.15256099999991
 20
-122.50041400000001
 30
0.0
 40
5.0
 50
17.875647999997021
 51
90.0
  0
LINE
  8
DETAIL
  6
CONTINUOUS
 62
     5
 10
-122.961597
 20
-171.50041400000001
 30
0.0
 11
-195.44762499999999
 21
-171.50041400000001
 31
0.0
  0
LINE
  8
OUTLINE
  6
CONTINUOUS
 62
     3
 10
-122.961597
 20
-171.50041400000001
 30
0.0
 11
-195.44762499999999
 21
-171.50041400000001
 31
0.0
  0
ARC
  8
DETAIL
  6
CONTINUOUS
 62
     5
 10
-122.961597
 20
-166.50041400000001
 30
0.0
 40
5.0
 50
270.0
 51
17.875647999997021
  0
ARC
  8
OUTLINE
  6
CONTINUOUS
 62
     3
 10
-122.961597
 20
-166.50041400000001
 30
0.0
 40
5.0
 50
270.0
 51
17.875647999997021
  0
LINE
  8
DETAIL
  6
CONTINUOUS
 62
     5
 10
-118.2029729999999
 20
-164.965653
 30
0.0
 11
-132.39393599999991
 21
-120.965653
 31
0.0
  0
LINE
  8
OUTLINE
  6
CONTINUOUS
 62
     3
 10
-118.2029729999999
 20
-164.965653
 30
0.0
 11
-132.39393599999991
 21
-120.965653
 31
0.0
  0
LINE
  8
DETAIL
  6
CONTINUOUS
 62
     5
 10
-210.503332
 20
-117.50041400000001
 30
0.0
 11
-210.503332
 21
-145.10727700000001
 31
0.0
  0
LINE
  8
NOTE
  6
CONTINUOUS
 62
     4
 10
-190.503332
 20
-97.500413999999978
 30
0.0
 11
-190.503332
 21
-137.50041400000001
 31
0.0
  0
LINE
  8
OUTLINE
  6
CONTINUOUS
 62
     3
 10
-210.503332
 20
-117.50041400000001
 30
0.0
 11
-210.503332
 21
-145.10727700000001
 31
0.0
  0
CIRCLE
  8
FIX
  6
CONTINUOUS
 62
    11
 10
-190.503332
 20
-117.50041400000001
 30
0.0
 40
5.5
  0
LINE
  8
DETAIL
  6
CONTINUOUS
 62
     5
 10
-210.503332
 20
-145.10727700000001
 30
0.0
 11
-195.44762499999999
 21
-171.50041400000001
 31
0.0
  0
LINE
  8
OUTLINE
  6
CONTINUOUS
 62
     3
 10
-210.503332
 20
-145.10727700000001
 30
0.0
 11
-195.44762499999999
 21
-171.50041400000001
 31
0.0
  0
LINE
  8
DETAIL
  6
CONTINUOUS
 62
     5
 10
-210.503332
 20
-117.50041400000001
 30
0.0
 11
-137.15256099999991
 21
-117.50041400000001
 31
0.0
  0
LINE
  8
OUTLINE
  6
CONTINUOUS
 62
     3
 10
-210.503332
 20
-117.50041400000001
 30
0.0
 11
-137.15256099999991
 21
-117.50041400000001
 31
0.0
  0
LINE
  8
DETAIL
  6
CONTINUOUS
 62
     5
 10
152.496668
 20
-0.0004139999999779
 30
0.0
 11
-152.503332
 21
-0.0004139999999779
 31
0.0
  0
LINE
  8
OUTLINE
  6
CONTINUOUS
 62
     3
 10
152.496668
 20
-0.0004139999999779
 30
0.0
 11
-152.503332
 21
-0.0004139999999779
 31
0.0
  0
LINE
  8
SIZE
  6
CONTINUOUS
 62
    30
 10
-152.503332
 20
19.999586000000019
 30
0.0
 11
-152.503332
 21
178.50115400000001
 31
0.0
  0
LINE
  8
SIZE
  6
CONTINUOUS
 62
    30
 10
152.496668
 20
19.999586000000019
 30
0.0
 11
152.496668
 21
178.50115400000001
 31
0.0
  0
LINE
  8
SIZE
  6
CONTINUOUS
 62
    30
 10
-150.503332
 20
148.50115400000001
 30
0.0
 11
150.496668
 21
148.50115400000001
 31
0.0
  0
CIRCLE
  8
SIZE
  6
CONTINUOUS
 62
    30
 10
-152.503332
 20
148.50115400000001
 30
0.0
 40
6.0
  0
CIRCLE
  8
SIZE
  6
CONTINUOUS
 62
    30
 10
152.496668
 20
148.50115400000001
 30
0.0
 40
6.0
  0
TEXT
  8
SIZE
  6
CONTINUOUS
 62
    30
 10
-74.06047485714285
 20
168.50115400000001
 30
0.0
 40
64.0
  1
305
 41
0.9
 72
     1
 11
-0.0033320000000003
 21
168.50115400000001
 31
0.0
  0
POINT
  8
DEFPOINTS
  6
CONTINUOUS
 62
    30
 10
-152.503332
 20
-0.0004139999999779
 30
0.0
  0
POINT
  8
DEFPOINTS
  6
CONTINUOUS
 62
    30
 10
152.496668
 20
-0.0004139999999779
 30
0.0
  0
POINT
  8
DEFPOINTS
  6
CONTINUOUS
 62
    30
 10
152.496668
 20
148.50115400000001
 30
0.0
  0
LINE
  8
SIZE
  6
CONTINUOUS
 62
    30
 10
-131.15200999999999
 20
-0.0004139999999779
 30
0.0
 11
-390.03462300000001
 21
-0.0004139999999779
 31
0.0
  0
LINE
  8
SIZE
  6
CONTINUOUS
 62
    30
 10
-131.15200999999999
 20
-255.00041400000001
 30
0.0
 11
-390.03462300000001
 21
-255.00041400000001
 31
0.0
  0
LINE
  8
SIZE
  6
CONTINUOUS
 62
    30
 10
-360.03462300000001
 20
-2.0004139999999779
 30
0.0
 11
-360.03462300000001
 21
-253.00041400000001
 31
0.0
  0
CIRCLE
  8
SIZE
  6
CONTINUOUS
 62
    30
 10
-360.03462300000001
 20
-0.0004139999999779
 30
0.0
 40
6.0
  0
CIRCLE
  8
SIZE
  6
CONTINUOUS
 62
    30
 10
-360.03462300000001
 20
-255.00041400000001
 30
0.0
 40
6.0
  0
TEXT
  8
SIZE
  6
CONTINUOUS
 62
    30
 10
-380.03462300000001
 20
-201.5575568571428
 30
0.0
 40
64.0
  1
255
 50
90.0
 41
0.9
 72
     1
 11
-380.03462300000001
 21
-127.50041400000001
 31
0.0
  0
POINT
  8
DEFPOINTS
  6
CONTINUOUS
 62
    30
 10
-111.15201
 20
-0.0004139999999779
 30
0.0
  0
POINT
  8
DEFPOINTS
  6
CONTINUOUS
 62
    30
 10
-111.15201
 20
-255.00041400000001
 30
0.0
  0
POINT
  8
DEFPOINTS
  6
CONTINUOUS
 62
    30
 10
-360.03462300000001
 20
-255.00041400000001
 30
0.0
  0
LINE
  8
SIZE
  6
CONTINUOUS
 62
    30
 10
-190.503332
 20
-107.50041400000001
 30
0.0
 11
-190.503332
 21
272.88353899999993
 31
0.0
  0
LINE
  8
SIZE
  6
CONTINUOUS
 62
    30
 10
190.496668
 20
-107.50041400000001
 30
0.0
 11
190.496668
 21
272.88353899999993
 31
0.0
  0
LINE
  8
SIZE
  6
CONTINUOUS
 62
    30
 10
-188.503332
 20
242.88353900000001
 30
0.0
 11
188.496668
 21
242.88353900000001
 31
0.0
  0
CIRCLE
  8
SIZE
  6
CONTINUOUS
 62
    30
 10
-190.503332
 20
242.88353900000001
 30
0.0
 40
6.0
  0
CIRCLE
  8
SIZE
  6
CONTINUOUS
 62
    30
 10
190.496668
 20
242.88353900000001
 30
0.0
 40
6.0
  0
TEXT
  8
SIZE
  6
CONTINUOUS
 62
    30
 10
-61.717617714285687
 20
262.88353899999993
 30
0.0
 40
64.0
  1
381
 41
0.9
 72
     1
 11
-0.0033320000000003
 21
262.88353899999993
 31
0.0
  0
POINT
  8
DEFPOINTS
  6
CONTINUOUS
 62
    30
 10
-190.503332
 20
-127.50041400000001
 30
0.0
  0
POINT
  8
DEFPOINTS
  6
CONTINUOUS
 62
    30
 10
190.496668
 20
-127.50041400000001
 30
0.0
  0
POINT
  8
DEFPOINTS
  6
CONTINUOUS
 62
    30
 10
190.496668
 20
242.88353900000001
 30
0.0
  0
LINE
  8
SIZE
  6
CONTINUOUS
 62
    30
 10
210.496668
 20
-107.50041400000001
 30
0.0
 11
210.496668
 21
408.98161299999992
 31
0.0
  0
LINE
  8
SIZE
  6
CONTINUOUS
 62
    30
 10
-210.503332
 20
-107.50041400000001
 30
0.0
 11
-210.503332
 21
408.98161299999992
 31
0.0
  0
LINE
  8
SIZE
  6
CONTINUOUS
 62
    30
 10
208.496668
 20
378.98161299999992
 30
0.0
 11
-208.503332
 21
378.98161299999992
 31
0.0
  0
CIRCLE
  8
SIZE
  6
CONTINUOUS
 62
    30
 10
210.496668
 20
378.98161299999992
 30
0.0
 40
6.0
  0
CIRCLE
  8
SIZE
  6
CONTINUOUS
 62
    30
 10
-210.503332
 20
378.98161299999992
 30
0.0
 40
6.0
  0
TEXT
  8
SIZE
  6
CONTINUOUS
 62
    30
 10
-61.717617714285701
 20
398.98161299999992
 30
0.0
 40
64.0
  1
421
 41
0.9
 72
     1
 11
-0.0033320000000003
 21
398.98161299999992
 31
0.0
  0
POINT
  8
DEFPOINTS
  6
CONTINUOUS
 62
    30
 10
210.496668
 20
-127.50041400000001
 30
0.0
  0
POINT
  8
DEFPOINTS
  6
CONTINUOUS
 62
    30
 10
-210.503332
 20
-127.50041400000001
 30
0.0
  0
POINT
  8
DEFPOINTS
  6
CONTINUOUS
 62
    30
 10
-210.503332
 20
378.98161299999992
 30
0.0
  0
LINE
  8
SIZE
  6
CONTINUOUS
 62
    30
 10
527.553809
 20
-61.922693999999979
 30
0.0
 11
81.373724999999922
 21
-117.385231
 31
0.0
  0
LINE
  8
SIZE
  6
CONTINUOUS
 62
    30
 10
-81.373724999999922
 20
-137.61559700000001
 30
0.0
 11
-83.358449999999948
 21
-137.86230900000001
 31
0.0
  0
TEXT
  8
SIZE
  6
CONTINUOUS
 62
    30
 10
303.27383334848281
 20
-69.647970184804407
 30
0.0
 40
64.0
  1
φ160
 50
7.0858300000000014
 41
0.9
 72
     1
 11
411.33360099999999
 21
-56.215553
 31
0.0
  0
LINE
  8
SIZE
  6
CONTINUOUS
 62
    30
 10
-79.389000000000124
 20
-137.36888500000001
 30
0.0
 11
79.389000000000124
 21
-117.63194300000001
 31
0.0
  0
CIRCLE
  8
SIZE
  6
CONTINUOUS
 62
    30
 10
-79.389000000000124
 20
-137.36888500000001
 30
0.0
 40
6.0
  0
CIRCLE
  8
SIZE
  6
CONTINUOUS
 62
    30
 10
79.389000000000124
 20
-117.63194300000001
 30
0.0
 40
6.0
  0
POINT
  8
DEFPOINTS
  6
CONTINUOUS
 62
    30
 10
79.389000000000124
 20
-117.63194300000001
 30
0.0
  0
POINT
  8
DEFPOINTS
  6
CONTINUOUS
 62
    30
 10
-79.389000000000124
 20
-137.36888500000001
 30
0.0
  0
LINE
  8
SIZE
  6
CONTINUOUS
 62
    30
 10
530.63957299999993
 20
-219.722734
 30
0.0
 11
71.92189499999995
 21
-140.000055
 31
0.0
  0
LINE
  8
SIZE
  6
CONTINUOUS
 62
    30
 10
-71.92189499999995
 20
-115.000773
 30
0.0
 11
-73.892358000000058
 21
-114.658317
 31
0.0
  0
TEXT
  8
SIZE
  6
CONTINUOUS
 62
    30
 10
313.84519926233372
 20
-161.74522042895151
 30
0.0
 40
64.0
  1
φ142
 50
350.14077099999997
 41
0.9
 72
     1
 11
421.12845599999991
 21
-180.390489
 31
0.0
  0
LINE
  8
SIZE
  6
CONTINUOUS
 62
    30
 10
-69.951432000000068
 20
-115.34322899999999
 30
0.0
 11
69.951431999999841
 21
-139.657599
 31
0.0
  0
CIRCLE
  8
SIZE
  6
CONTINUOUS
 62
    30
 10
-69.951432000000068
 20
-115.34322899999999
 30
0.0
 40
6.0
  0
CIRCLE
  8
SIZE
  6
CONTINUOUS
 62
    30
 10
69.951431999999841
 20
-139.657599
 30
0.0
 40
6.0
  0
POINT
  8
DEFPOINTS
  6
CONTINUOUS
 62
    30
 10
69.951431999999841
 20
-139.657599
 30
0.0
  0
POINT
  8
DEFPOINTS
  6
CONTINUOUS
 62
    30
 10
-69.951432000000068
 20
-115.34322899999999
 30
0.0
  0
LINE
  8
OUTLINE
  6
CONTINUOUS
 62
     3
 10
-178.62546800000001
 20
-171.50041400000001
 30
0.0
 11
-178.62546800000001
 21
-228.162981
 31
0.0
  0
LINE
  8
DETAIL
  6
CONTINUOUS
 62
     5
 10
-178.62546800000001
 20
-171.50041400000001
 30
0.0
 11
-178.62546800000001
 21
-228.162981
 31
0.0
  0
LINE
  8
OUTLINE
  6
CONTINUOUS
 62
     3
 10
-152.503332
 20
-102.389736
 30
0.0
 11
-173.78803500000001
 21
-102.389736
 31
0.0
  0
LINE
  8
DETAIL
  6
CONTINUOUS
 62
     5
 10
-152.503332
 20
-102.389736
 30
0.0
 11
-173.78803500000001
 21
-102.389736
 31
0.0
  0
ARC
  8
OUTLINE
  6
CONTINUOUS
 62
     3
 10
-173.78803500000001
 20
-107.227169
 30
0.0
 40
4.8374329999999999
 50
90.0
 51
180.0
  0
ARC
  8
DETAIL
  6
CONTINUOUS
 62
     5
 10
-173.78803500000001
 20
-107.227169
 30
0.0
 40
4.8374329999999999
 50
90.0
 51
180.0
  0
ARC
  8
OUTLINE
  6
CONTINUOUS
 62
     3
 10
-173.78803500000001
 20
-228.162981
 30
0.0
 40
4.8374329999999999
 50
180.0
 51
270.0
  0
LINE
  8
OUTLINE
  6
CONTINUOUS
 62
     3
 10
-152.503332
 20
-233.00041400000001
 30
0.0
 11
-173.78803500000001
 21
-233.00041400000001
 31
0.0
  0
LINE
  8
DETAIL
  6
CONTINUOUS
 62
     5
 10
-152.503332
 20
-233.00041400000001
 30
0.0
 11
-173.78803500000001
 21
-233.00041400000001
 31
0.0
  0
ARC
  8
DETAIL
  6
CONTINUOUS
 62
     5
 10
-173.78803500000001
 20
-228.162981
 30
0.0
 40
4.8374329999999999
 50
180.0
 51
270.0
  0
LINE
  8
OUTLINE
  6
CONTINUOUS
 62
     3
 10
-178.62546800000001
 20
-117.50041400000001
 30
0.0
 11
-178.62546800000001
 21
-107.227169
 31
0.0
  0
LINE
  8
DETAIL
  6
CONTINUOUS
 62
     5
 10
-178.62546800000001
 20
-117.50041400000001
 30
0.0
 11
-178.62546800000001
 21
-107.227169
 31
0.0
  0
POINT
  8
ARRANGE
  6
CONTINUOUS
 62
     1
 10
0.0
 20
0.0
 30
0.0
  0
LINE
  8
NOTE
  6
CONTINUOUS
 62
     4
 10
-418.30751700000002
 20
69.299515000000042
 30
0.0
 11
-285.91217899999992
 21
69.299522000000024
 31
0.0
  0
TEXT
  8
NOTE
  6
CONTINUOUS
 62
     4
 10
-401.14366000000001
 20
88.327066000000059
 30
0.0
 40
70.73684200000001
  1
AH
 41
0.9
  0
LINE
  8
NOTE
  6
CONTINUOUS
 62
     4
 10
-190.503332
 20
-117.50041400000001
 30
0.0
 11
-285.91217899999992
 21
69.299522000000024
 31
0.0
  0
LINE
  8
NOTE
  6
CONTINUOUS
 62
     4
 10
-222.29216199999999
 20
-86.775173999999993
 30
0.0
 11
-190.503332
 21
-117.50041400000001
 31
0.0
  0
LINE
  8
NOTE
  6
CONTINUOUS
 62
     4
 10
-190.503332
 20
-117.50041400000001
 30
0.0
 11
-202.67064499999989
 21
-74.99715999999998
 31
0.0
  0
ENDSEC
  0
EOF
