  0
SECTION
  2
HEADER
  9
$ACADVER
  1
AC1009
  9
$DWGCODEPAGE
  3
dos932
  9
$INSBASE
 10
0.0
 20
0.0
 30
0.0
  9
$EXTMIN
 10
-970.00700300000017
 20
-551.33756100000005
 30
0.0
  9
$EXTMAX
 10
961.93326569583553
 20
350.57031640968381
 30
0.0
  9
$LIMMIN
 10
-2970.0
 20
-2100.0
  9
$LIMMAX
 10
2970.0
 20
2100.0
  9
$ORTHOMODE
 70
     1
  9
$REGENMODE
 70
     1
  9
$FILLMODE
 70
     1
  9
$QTEXTMODE
 70
     0
  9
$MIRRTEXT
 70
     0
  9
$LTSCALE
 40
20.0
  9
$ATTMODE
 70
     1
  9
$TEXTSIZE
 40
64.0
  9
$TRACEWID
 40
0.05
  9
$TEXTSTYLE
  7
STANDARD
  9
$CLAYER
  8
SIZE
  9
$CELTYPE
  6
CONTINUOUS
  9
$CECOLOR
 62
     7
  9
$DIMSCALE
 40
1.0
  9
$DIMASZ
 40
12.0
  9
$DIMEXO
 40
20.0
  9
$DIMDLI
 40
200.0
  9
$DIMRND
 40
0.0
  9
$DIMDLE
 40
0.0
  9
$DIMEXE
 40
20.0
  9
$DIMTP
 40
0.0
  9
$DIMTM
 40
0.0
  9
$DIMTXT
 40
64.0
  9
$DIMCEN
 40
0.09
  9
$DIMTSZ
 40
0.0
  9
$DIMTOL
 70
     0
  9
$DIMLIM
 70
     0
  9
$DIMTIH
 70
     0
  9
$DIMTOH
 70
     0
  9
$DIMSE1
 70
     0
  9
$DIMSE2
 70
     0
  9
$DIMTAD
 70
     1
  9
$DIMZIN
 70
     8
  9
$DIMBLK
  1

  9
$DIMASO
 70
     1
  9
$DIMSHO
 70
     0
  9
$DIMPOST
  1

  9
$DIMAPOST
  1

  9
$DIMALT
 70
     0
  9
$DIMALTD
 70
     2
  9
$DIMALTF
 40
25.399999999999999
  9
$DIMLFAC
 40
1.0
  9
$DIMTOFL
 70
     1
  9
$DIMTVP
 40
0.0
  9
$DIMTIX
 70
     1
  9
$DIMSOXD
 70
     0
  9
$DIMSAH
 70
     0
  9
$DIMBLK1
  1

  9
$DIMBLK2
  1

  9
$DIMSTYLE
  2
STANDARD
  9
$DIMCLRD
 70
     7
  9
$DIMCLRE
 70
     7
  9
$DIMCLRT
 70
     7
  9
$DIMTFAC
 40
1.0
  9
$DIMGAP
 40
25.0
  9
$LUNITS
 70
     2
  9
$LUPREC
 70
     4
  9
$SKETCHINC
 40
0.1
  9
$FILLETRAD
 40
3.0
  9
$AUNITS
 70
     1
  9
$AUPREC
 70
     3
  9
$MENU
  1
ACAD
  9
$ELEVATION
 40
0.0
  9
$PELEVATION
 40
0.0
  9
$THICKNESS
 40
50.0
  9
$LIMCHECK
 70
     0
  9
$CHAMFERA
 40
0.0
  9
$CHAMFERB
 40
0.0
  9
$SKPOLY
 70
     0
  9
$TDCREATE
 40
2453019.62301037
  9
$TDUPDATE
 40
2458659.388060394
  9
$TDINDWG
 40
1.7588701505
  9
$TDUSRTIMER
 40
1.7588701505
  9
$USRTIMER
 70
     1
  9
$ANGBASE
 50
0.0
  9
$ANGDIR
 70
     0
  9
$PDMODE
 70
     3
  9
$PDSIZE
 40
-2.0
  9
$PLINEWID
 40
0.0
  9
$SPLFRAME
 70
     0
  9
$SPLINETYPE
 70
     6
  9
$SPLINESEGS
 70
     8
  9
$SURFTAB1
 70
     6
  9
$SURFTAB2
 70
     6
  9
$SURFTYPE
 70
     6
  9
$SURFU
 70
     6
  9
$SURFV
 70
     6
  9
$UCSNAME
  2

  9
$UCSORG
 10
0.0
 20
0.0
 30
0.0
  9
$UCSXDIR
 10
1.0
 20
0.0
 30
0.0
  9
$UCSYDIR
 10
0.0
 20
1.0
 30
0.0
  9
$PUCSNAME
  2

  9
$PUCSORG
 10
0.0
 20
0.0
 30
0.0
  9
$PUCSXDIR
 10
1.0
 20
0.0
 30
0.0
  9
$PUCSYDIR
 10
0.0
 20
1.0
 30
0.0
  9
$USERI1
 70
     0
  9
$USERI2
 70
     0
  9
$USERI3
 70
     0
  9
$USERI4
 70
     0
  9
$USERI5
 70
     0
  9
$USERR1
 40
20.0
  9
$USERR2
 40
0.0
  9
$USERR3
 40
0.0
  9
$USERR4
 40
0.0
  9
$USERR5
 40
0.0
  9
$WORLDVIEW
 70
     1
  9
$SHADEDGE
 70
     3
  9
$SHADEDIF
 70
    70
  9
$TILEMODE
 70
     1
  9
$MAXACTVP
 70
    48
  9
$PINSBASE
 10
0.0
 20
0.0
 30
0.0
  9
$PLIMCHECK
 70
     0
  9
$PEXTMIN
 10
-100000000000000000000.0
 20
-100000000000000000000.0
 30
-100000000000000000000.0
  9
$PEXTMAX
 10
100000000000000000000.0
 20
100000000000000000000.0
 30
100000000000000000000.0
  9
$PLIMMIN
 10
0.0
 20
0.0
  9
$PLIMMAX
 10
12.0
 20
9.0
  9
$UNITMODE
 70
     0
  9
$VISRETAIN
 70
     0
  9
$PLINEGEN
 70
     0
  9
$PSLTSCALE
 70
     0
  9
$TREEDEPTH
 70
  3020
  9
$ATTDIA
 70
     0
  9
$ATTREQ
 70
     1
  9
$BLIPMODE
 70
     1
  9
$COORDS
 70
     1
  9
$DRAGMODE
 70
     2
  9
$OSMODE
 70
     0
  9
$HANDLING
 70
     0
  9
$HANDSEED
  5
F3AB
  0
ENDSEC
  0
SECTION
  2
TABLES
  0
TABLE
  2
LTYPE
 70
     2
  0
LTYPE
  2
CONTINUOUS
 70
     0
  3
実線
 72
    65
 73
     0
 40
0.0
  0
LTYPE
  2
DASHDOT
 70
     0
  3
____ _ ____ _ ____ _ ____ _ ____ _ ____ _ ____
 72
    65
 73
     4
 40
5.5
 49
4.0
 49
-0.6
 49
0.3
 49
-0.6
  0
ENDTAB
  0
TABLE
  2
LAYER
 70
    12
  0
LAYER
  2
0
 70
     0
 62
     7
  6
CONTINUOUS
  0
LAYER
  2
BASIS
 70
     0
 62
     6
  6
DASHDOT
  0
LAYER
  2
OUTLINE
 70
     0
 62
     3
  6
CONTINUOUS
  0
LAYER
  2
DETAIL
 70
     0
 62
     5
  6
CONTINUOUS
  0
LAYER
  2
SIZE
 70
     0
 62
    30
  6
CONTINUOUS
  0
LAYER
  2
ARRANGE
 70
     0
 62
     1
  6
CONTINUOUS
  0
LAYER
  2
DEFPOINTS
 70
     0
 62
     7
  6
CONTINUOUS
  0
LAYER
  2
ETC
 70
     0
 62
    61
  6
CONTINUOUS
  0
LAYER
  2
FIX
 70
     0
 62
    11
  6
CONTINUOUS
  0
LAYER
  2
NOTE
 70
     0
 62
     4
  6
CONTINUOUS
  0
LAYER
  2
SERVICESPACE
 70
    64
 62
     2
  6
DASHDOT
  0
LAYER
  2
SYMBOLLINE
 70
    64
 62
    15
  6
CONTINUOUS
  0
ENDTAB
  0
TABLE
  2
STYLE
 70
     1
  0
STYLE
  2
STANDARD
 70
     0
 40
64.0
 41
0.9
 50
0.0
 71
     0
 42
64.0
  3
SIMPLEX.shx
  4
BIGFONT.shx
  0
ENDTAB
  0
TABLE
  2
APPID
 70
    17
  0
APPID
  2
ACAD
 70
     0
  0
APPID
  2
AUTOCAD_POSTSCRIPT_FIGURE
 70
     0
  0
APPID
  2
ACAD_EXEMPT_FROM_CAD_STANDARDS
 70
     0
  0
APPID
  2
ACAD_PSEXT
 70
     0
  0
APPID
  2
ACAUTHENVIRON
 70
     0
  0
APPID
  2
GENIUS_GENOENT_13
 70
     0
  0
APPID
  2
GENIUS_GENCFG_13
 70
     0
  0
APPID
  2
GENIUS_GENCFG0_13
 70
     0
  0
APPID
  2
GENIUS_GENCFG1_13
 70
     0
  0
APPID
  2
GENIUS_GENCFG2_13
 70
     0
  0
APPID
  2
GENIUS_GENCFG3_13
 70
     0
  0
APPID
  2
GENIUS_GENCFG4_13
 70
     0
  0
APPID
  2
GENIUS_GEVCFG0_13
 70
     0
  0
APPID
  2
CONTENTBLOCKICON
 70
     0
  0
APPID
  2
CONTENTBLOCKDESCRIPTION
 70
     0
  0
APPID
  2
ACAD_NAV_VCDISPLAY
 70
     0
  0
APPID
  2
ACAD_MLEADERVER
 70
     0
  0
ENDTAB
  0
TABLE
  2
DIMSTYLE
 70
     1
  0
DIMSTYLE
  2
STANDARD
 70
     0
  3

  4

  5
_ORIGIN
  6

  7

 40
1.0
 41
12.0
 42
20.0
 43
200.0
 44
20.0
 45
0.0
 46
0.0
 47
0.0
 48
0.0
140
64.0
141
0.09
142
0.0
143
25.399999999999999
144
1.0
145
0.0
146
1.0
147
25.0
 71
     0
 72
     0
 73
     0
 74
     0
 75
     0
 76
     0
 77
     1
 78
     8
170
     0
171
     2
172
     1
173
     0
174
     1
175
     0
176
     7
177
     7
178
     7
  0
ENDTAB
  0
TABLE
  2
VIEW
 70
     1
  0
VIEW
  2
ALL
 70
     0
 40
4282.6198079999986
 10
0.0
 20
41.309904000000003
 41
5940.0
 11
0.0
 21
0.0
 31
1.0
 12
0.0
 22
0.0
 32
0.0
 42
50.0
 43
0.0
 44
0.0
 50
0.0
 71
     0
  0
ENDTAB
  0
TABLE
  2
UCS
 70
     0
  0
ENDTAB
  0
TABLE
  2
VPORT
 70
     1
  0
VPORT
  2
*ACTIVE
 70
     0
 10
0.0
 20
0.0
 11
1.0
 21
1.0
 12
271.31633976423092
 22
-162.40604723088109
 13
0.0
 23
0.0
 14
1.0
 24
1.0
 15
0.0
 25
0.0
 16
0.0
 26
0.0
 36
1.0
 17
0.0
 27
0.0
 37
0.0
 40
1926.9132940558529
 41
1.996865203761756
 42
50.0
 43
0.0
 44
0.0
 50
0.0
 51
0.0
 71
     0
 72
  1000
 73
     1
 74
     3
 75
     0
 76
     0
 77
     0
 78
     0
  0
ENDTAB
  0
ENDSEC
  0
SECTION
  2
BLOCKS
  0
BLOCK
  8
0
  2
_ORIGIN
 70
     0
 10
0.0
 20
0.0
 30
0.0
  3
_ORIGIN
  1
_ORIGIN
  0
CIRCLE
  8
0
  6
CONTINUOUS
 62
     7
 10
0.0
 20
0.0
 30
0.0
 40
0.5
  0
LINE
  8
0
  6
CONTINUOUS
 62
     7
 10
0.0
 20
0.0
 30
0.0
 11
-1.0
 21
0.0
 31
0.0
  0
ENDBLK
  8
0
  0
ENDSEC
  0
SECTION
  2
ENTITIES
  0
TEXT
  8
ETC
  6
CONTINUOUS
 62
    61
 10
378.21897998155009
 20
290.5703164096833
 30
0.0
 40
60.0
  1
BFS-40SUG2_4
 41
0.9
  0
TEXT
  8
ETC
  6
CONTINUOUS
 62
    61
 10
372.09165248155023
 20
196.4516339096831
 30
0.0
 40
60.0
  1
産業扇
 41
0.9
  0
TEXT
  8
ETC
  6
CONTINUOUS
 62
    61
 10
426.84275411647081
 20
125.87819151021949
 30
0.0
 40
40.0
  1
BFS-40SUG2
 41
0.9
  0
CIRCLE
  8
ARRANGE
  6
CONTINUOUS
 62
     1
 10
0.0
 20
0.0
 30
0.0
 40
44.210526000000002
  0
LINE
  8
SIZE
  6
CONTINUOUS
 62
    30
 10
227.0
 20
-259.96623199999999
 30
0.0
 11
227.0
 21
-551.33756100000005
 31
0.0
  0
LINE
  8
SIZE
  6
CONTINUOUS
 62
    30
 10
-227.0
 20
-211.25
 30
0.0
 11
-227.0
 21
-551.33756100000005
 31
0.0
  0
LINE
  8
SIZE
  6
CONTINUOUS
 62
    30
 10
225.0
 20
-521.33756100000005
 30
0.0
 11
-225.0
 21
-521.33756100000005
 31
0.0
  0
CIRCLE
  8
SIZE
  6
CONTINUOUS
 62
    30
 10
227.0
 20
-521.33756100000005
 30
0.0
 40
6.0
  0
CIRCLE
  8
SIZE
  6
CONTINUOUS
 62
    30
 10
-227.0
 20
-521.33756100000005
 30
0.0
 40
6.0
  0
TEXT
  8
SIZE
  6
CONTINUOUS
 62
    30
 10
-75.428571428571416
 20
-501.33756100000011
 30
0.0
 40
64.0
  1
454
 41
0.9
 72
     1
 11
0.0
 21
-501.33756100000011
 31
0.0
  0
POINT
  8
DEFPOINTS
  6
CONTINUOUS
 62
    30
 10
227.0
 20
-239.96623199999999
 30
0.0
  0
POINT
  8
DEFPOINTS
  6
CONTINUOUS
 62
    30
 10
-227.0
 20
-191.25
 30
0.0
  0
POINT
  8
DEFPOINTS
  6
CONTINUOUS
 62
    30
 10
-227.0
 20
-521.33756100000005
 30
0.0
  0
LINE
  8
SIZE
  6
CONTINUOUS
 62
    30
 10
-227.0
 20
-231.25
 30
0.0
 11
-227.0
 21
-551.33756100000005
 31
0.0
  0
LINE
  8
SIZE
  6
CONTINUOUS
 62
    30
 10
-297.0
 20
-209.739724
 30
0.0
 11
-297.0
 21
-551.33756100000005
 31
0.0
  0
LINE
  8
SIZE
  6
CONTINUOUS
 62
    30
 10
-229.0
 20
-521.33756100000005
 30
0.0
 11
-295.0
 21
-521.33756100000005
 31
0.0
  0
LINE
  8
SIZE
  6
CONTINUOUS
 62
    30
 10
-497.12332900000001
 20
-521.33756100000005
 30
0.0
 11
-297.0
 21
-521.33756100000005
 31
0.0
  0
TEXT
  8
SIZE
  6
CONTINUOUS
 62
    30
 10
-477.12332842857143
 20
-501.33756100000011
 30
0.0
 40
64.0
  1
70
 41
0.9
 72
     1
 11
-430.49475699999988
 21
-501.33756100000011
 31
0.0
  0
CIRCLE
  8
SIZE
  6
CONTINUOUS
 62
    30
 10
-227.0
 20
-521.33756100000005
 30
0.0
 40
6.0
  0
CIRCLE
  8
SIZE
  6
CONTINUOUS
 62
    30
 10
-297.0
 20
-521.33756100000005
 30
0.0
 40
6.0
  0
POINT
  8
DEFPOINTS
  6
CONTINUOUS
 62
    30
 10
-227.0
 20
-211.25
 30
0.0
  0
POINT
  8
DEFPOINTS
  6
CONTINUOUS
 62
    30
 10
-297.0
 20
-189.739724
 30
0.0
  0
POINT
  8
DEFPOINTS
  6
CONTINUOUS
 62
    30
 10
-297.0
 20
-521.33756100000005
 30
0.0
  0
LINE
  8
DETAIL
  6
CONTINUOUS
 62
     5
 10
-227.0
 20
-2.4821620000000171
 30
0.0
 11
-227.0
 21
-252.48216199999999
 31
0.0
  0
LINE
  8
SIZE
  6
CONTINUOUS
 62
    30
 10
227.0
 20
-259.96623199999999
 30
0.0
 11
227.0
 21
-551.33756100000005
 31
0.0
  0
LINE
  8
SIZE
  6
CONTINUOUS
 62
    30
 10
297.0
 20
-185.658727
 30
0.0
 11
297.0
 21
-551.33756100000005
 31
0.0
  0
LINE
  8
SIZE
  6
CONTINUOUS
 62
    30
 10
229.0
 20
-521.33756100000005
 30
0.0
 11
295.0
 21
-521.33756100000005
 31
0.0
  0
LINE
  8
SIZE
  6
CONTINUOUS
 62
    30
 10
469.59537799999998
 20
-521.33756100000005
 30
0.0
 11
297.0
 21
-521.33756100000005
 31
0.0
  0
TEXT
  8
SIZE
  6
CONTINUOUS
 62
    30
 10
356.33823457142847
 20
-501.33756100000011
 30
0.0
 40
64.0
  1
70
 41
0.9
 72
     1
 11
402.96680599999991
 21
-501.33756100000011
 31
0.0
  0
CIRCLE
  8
SIZE
  6
CONTINUOUS
 62
    30
 10
227.0
 20
-521.33756100000005
 30
0.0
 40
6.0
  0
CIRCLE
  8
SIZE
  6
CONTINUOUS
 62
    30
 10
297.0
 20
-521.33756100000005
 30
0.0
 40
6.0
  0
POINT
  8
DEFPOINTS
  6
CONTINUOUS
 62
    30
 10
227.0
 20
-239.96623199999999
 30
0.0
  0
POINT
  8
DEFPOINTS
  6
CONTINUOUS
 62
    30
 10
297.0
 20
-165.658727
 30
0.0
  0
POINT
  8
DEFPOINTS
  6
CONTINUOUS
 62
    30
 10
297.0
 20
-521.33756100000005
 30
0.0
  0
LINE
  8
DETAIL
  6
CONTINUOUS
 62
     5
 10
-227.0
 20
0.0
 30
0.0
 11
227.0
 21
0.0
 31
0.0
  0
LINE
  8
DETAIL
  6
CONTINUOUS
 62
     5
 10
-227.0
 20
0.0
 30
0.0
 11
-227.0
 21
-255.0
 31
0.0
  0
LINE
  8
DETAIL
  6
CONTINUOUS
 62
     5
 10
-227.0
 20
-23.602202999999921
 30
0.0
 11
-227.0
 21
-231.57974200000001
 31
0.0
  0
CIRCLE
  8
DETAIL
  6
CONTINUOUS
 62
     5
 10
-199.39232399999989
 20
-129.914368
 30
0.0
 40
5.0
  0
LINE
  8
DETAIL
  6
CONTINUOUS
 62
     5
 10
-193.12879599999999
 20
-121.43309600000001
 30
0.0
 11
-193.12879599999999
 21
-134.41560899999999
 31
0.0
  0
ARC
  8
DETAIL
  6
CONTINUOUS
 62
     5
 10
-220.9417040000001
 20
-127.054571
 30
0.0
 40
7.599094
 50
97.717031000007054
 51
183.29947299999711
  0
ARC
  8
DETAIL
  6
CONTINUOUS
 62
     5
 10
-221.1910849999999
 20
-127.192847
 30
0.0
 40
5.8161149999999999
 50
97.983100000004313
 51
182.85127899999071
  0
CIRCLE
  8
DETAIL
  6
CONTINUOUS
 62
     5
 10
-218.741432
 20
-129.60843800000001
 30
0.0
 40
5.0
  0
CIRCLE
  8
DETAIL
  6
CONTINUOUS
 62
     5
 10
-218.741432
 20
-129.60843800000001
 30
0.0
 40
5.0
  0
LINE
  8
DETAIL
  6
CONTINUOUS
 62
     5
 10
-227.0
 20
-255.0
 30
0.0
 11
-227.0
 21
-127.5
 31
0.0
  0
LINE
  8
DETAIL
  6
CONTINUOUS
 62
     5
 10
-196.09555399999999
 20
-138.02309099999999
 30
0.0
 11
-225.2601589999999
 21
-137.98705599999991
 31
0.0
  0
LINE
  8
DETAIL
  6
CONTINUOUS
 62
     5
 10
-227.0
 20
-127.482162
 30
0.0
 11
-227.0
 21
-154.33329900000001
 31
0.0
  0
ARC
  8
DETAIL
  6
CONTINUOUS
 62
     5
 10
-221.96103099999999
 20
-133.90289100000001
 30
0.0
 40
5.2502050000000002
 50
196.30800500000541
 51
231.0692399999935
  0
LINE
  8
DETAIL
  6
CONTINUOUS
 62
     5
 10
-227.0
 20
-148.23936699999999
 30
0.0
 11
-228.52820100000011
 21
-148.23936699999999
 31
0.0
  0
LINE
  8
DETAIL
  6
CONTINUOUS
 62
     5
 10
-230.02707200000009
 20
-145.57566800000001
 30
0.0
 11
-228.51995700000001
 21
-146.27550500000009
 31
0.0
  0
LINE
  8
DETAIL
  6
CONTINUOUS
 62
     5
 10
-228.52820100000011
 20
-140.91261700000001
 30
0.0
 11
-230.02707200000009
 21
-141.263012
 31
0.0
  0
LINE
  8
DETAIL
  6
CONTINUOUS
 62
     5
 10
-230.02707200000009
 20
-141.263012
 30
0.0
 11
-230.02707200000009
 21
-145.57566800000001
 31
0.0
  0
LINE
  8
DETAIL
  6
CONTINUOUS
 62
     5
 10
-228.52820100000011
 20
-154.33329900000001
 30
0.0
 11
-228.52820100000011
 21
-127.491936
 31
0.0
  0
ARC
  8
DETAIL
  6
CONTINUOUS
 62
     5
 10
-196.52865
 20
-134.64326000000011
 30
0.0
 40
3.407467
 50
277.30215799999797
 51
3.8307550000009138
  0
LINE
  8
DETAIL
  6
CONTINUOUS
 62
     5
 10
-193.12879599999999
 20
-121.43309600000001
 30
0.0
 11
-221.9988330000001
 21
-121.43309600000001
 31
0.0
  0
LINE
  8
DETAIL
  6
CONTINUOUS
 62
     5
 10
-221.96211600000021
 20
-119.5243
 30
0.0
 11
-193.263811
 21
-119.5243
 31
0.0
  0
ARC
  8
DETAIL
  6
CONTINUOUS
 62
     5
 10
-194.27025
 20
-126.0188350000001
 30
0.0
 40
6.5720550000000006
 50
355.58895700000318
 51
81.191116999997149
  0
ARC
  8
DETAIL
  6
CONTINUOUS
 62
     5
 10
-194.69634999999991
 20
-126.341325
 30
0.0
 40
5.152469
 50
357.96487600000438
 51
72.287943000001817
  0
LINE
  8
DETAIL
  6
CONTINUOUS
 62
     5
 10
227.0
 20
-23.493392999999969
 30
0.0
 11
227.0
 21
-231.47093199999989
 31
0.0
  0
ARC
  8
DETAIL
  6
CONTINUOUS
 62
     5
 10
221.1910849999999
 20
-127.192847
 30
0.0
 40
5.8161149999999999
 50
357.14872100000929
 51
82.016899999995687
  0
ARC
  8
DETAIL
  6
CONTINUOUS
 62
     5
 10
220.9417040000001
 20
-127.054571
 30
0.0
 40
7.599094
 50
356.70052700000292
 51
82.282968999992931
  0
LINE
  8
DETAIL
  6
CONTINUOUS
 62
     5
 10
193.12879599999999
 20
-121.43309600000001
 30
0.0
 11
193.12879599999999
 21
-134.41560899999999
 31
0.0
  0
CIRCLE
  8
DETAIL
  6
CONTINUOUS
 62
     5
 10
199.39232399999989
 20
-129.914368
 30
0.0
 40
5.0
  0
CIRCLE
  8
DETAIL
  6
CONTINUOUS
 62
     5
 10
199.39232399999989
 20
-129.914368
 30
0.0
 40
5.0
  0
CIRCLE
  8
DETAIL
  6
CONTINUOUS
 62
     5
 10
218.741432
 20
-129.60843800000001
 30
0.0
 40
5.0
  0
CIRCLE
  8
DETAIL
  6
CONTINUOUS
 62
     5
 10
218.741432
 20
-129.60843800000001
 30
0.0
 40
5.0
  0
LINE
  8
DETAIL
  6
CONTINUOUS
 62
     5
 10
196.09555399999999
 20
-138.02309099999999
 30
0.0
 11
225.2601589999999
 21
-137.98705599999991
 31
0.0
  0
ARC
  8
DETAIL
  6
CONTINUOUS
 62
     5
 10
196.52865
 20
-134.64326000000011
 30
0.0
 40
3.407467
 50
176.16924499999911
 51
262.69784200000203
  0
LINE
  8
DETAIL
  6
CONTINUOUS
 62
     5
 10
228.52820100000011
 20
-140.91261700000001
 30
0.0
 11
230.02707200000009
 21
-141.263012
 31
0.0
  0
LINE
  8
DETAIL
  6
CONTINUOUS
 62
     5
 10
230.02707200000009
 20
-141.263012
 30
0.0
 11
230.02707200000009
 21
-145.57566800000001
 31
0.0
  0
ARC
  8
DETAIL
  6
CONTINUOUS
 62
     5
 10
221.96103099999999
 20
-133.90289100000001
 30
0.0
 40
5.2502050000000002
 50
308.9307600000065
 51
343.69199499999462
  0
LINE
  8
DETAIL
  6
CONTINUOUS
 62
     5
 10
228.52820100000011
 20
-154.33329900000001
 30
0.0
 11
228.52820100000011
 21
-127.491936
 31
0.0
  0
LINE
  8
DETAIL
  6
CONTINUOUS
 62
     5
 10
227.0
 20
-127.482162
 30
0.0
 11
227.0
 21
-154.33329900000001
 31
0.0
  0
LINE
  8
DETAIL
  6
CONTINUOUS
 62
     5
 10
227.0
 20
-154.33329900000001
 30
0.0
 11
228.52820100000011
 21
-154.33329900000001
 31
0.0
  0
LINE
  8
DETAIL
  6
CONTINUOUS
 62
     5
 10
227.0
 20
-148.23936699999999
 30
0.0
 11
228.52820100000011
 21
-148.23936699999999
 31
0.0
  0
LINE
  8
DETAIL
  6
CONTINUOUS
 62
     5
 10
230.02707200000009
 20
-145.57566800000001
 30
0.0
 11
228.51995700000001
 21
-146.27550500000009
 31
0.0
  0
LINE
  8
DETAIL
  6
CONTINUOUS
 62
     5
 10
221.9621159999999
 20
-119.5243
 30
0.0
 11
193.263811
 21
-119.5243
 31
0.0
  0
LINE
  8
DETAIL
  6
CONTINUOUS
 62
     5
 10
193.12879599999999
 20
-121.43309600000001
 30
0.0
 11
221.9988330000001
 21
-121.43309600000001
 31
0.0
  0
LINE
  8
DETAIL
  6
CONTINUOUS
 62
     5
 10
189.54713100000001
 20
-126.5243
 30
0.0
 11
187.70326800000001
 21
-126.5243
 31
0.0
  0
ARC
  8
DETAIL
  6
CONTINUOUS
 62
     5
 10
194.27025
 20
-126.0188350000001
 30
0.0
 40
6.5720550000000006
 50
98.808883000002865
 51
184.41104299999671
  0
ARC
  8
DETAIL
  6
CONTINUOUS
 62
     5
 10
194.69634999999991
 20
-126.341325
 30
0.0
 40
5.152469
 50
107.7120569999982
 51
182.03512399999559
  0
LINE
  8
DETAIL
  6
CONTINUOUS
 62
     5
 10
227.0
 20
0.0
 30
0.0
 11
227.0
 21
-255.0
 31
0.0
  0
LINE
  8
SIZE
  6
CONTINUOUS
 62
    30
 10
-227.59079900000009
 20
0.0
 30
0.0
 11
-916.00700299999994
 21
0.0
 31
0.0
  0
LINE
  8
SIZE
  6
CONTINUOUS
 62
    30
 10
-226.09119400000009
 20
-255.0
 30
0.0
 11
-916.00700299999994
 21
-255.0
 31
0.0
  0
LINE
  8
SIZE
  6
CONTINUOUS
 62
    30
 10
-886.00700299999994
 20
-2.0
 30
0.0
 11
-886.00700299999994
 21
-253.0
 31
0.0
  0
CIRCLE
  8
SIZE
  6
CONTINUOUS
 62
    30
 10
-886.00700299999994
 20
0.0
 30
0.0
 40
6.0
  0
CIRCLE
  8
SIZE
  6
CONTINUOUS
 62
    30
 10
-886.00700299999994
 20
-255.0
 30
0.0
 40
6.0
  0
TEXT
  8
SIZE
  6
CONTINUOUS
 62
    30
 10
-906.00700299999994
 20
-201.55714285714279
 30
0.0
 40
64.0
  1
255
 50
90.0
 41
0.9
 72
     1
 11
-906.00700299999994
 21
-127.5
 31
0.0
  0
POINT
  8
DEFPOINTS
  6
CONTINUOUS
 62
    30
 10
-207.59079900000009
 20
0.0
 30
0.0
  0
POINT
  8
DEFPOINTS
  6
CONTINUOUS
 62
    30
 10
-206.09119400000009
 20
-255.0
 30
0.0
  0
POINT
  8
DEFPOINTS
  6
CONTINUOUS
 62
    30
 10
-886.00700299999994
 20
-255.0
 30
0.0
  0
LINE
  8
SIZE
  6
CONTINUOUS
 62
    30
 10
-318.88368799999989
 20
-56.822529000000031
 30
0.0
 11
-632.0190090000001
 21
-56.822529000000031
 31
0.0
  0
LINE
  8
SIZE
  6
CONTINUOUS
 62
    30
 10
-318.88368799999989
 20
-198.822529
 30
0.0
 11
-632.0190090000001
 21
-198.822529
 31
0.0
  0
LINE
  8
SIZE
  6
CONTINUOUS
 62
    30
 10
-602.0190090000001
 20
-54.822529000000031
 30
0.0
 11
-602.0190090000001
 21
-52.822529000000031
 31
0.0
  0
LINE
  8
SIZE
  6
CONTINUOUS
 62
    30
 10
-602.0190090000001
 20
-200.822529
 30
0.0
 11
-602.0190090000001
 21
-202.822529
 31
0.0
  0
LINE
  8
SIZE
  6
CONTINUOUS
 62
    30
 10
-602.0190090000001
 20
-56.822529000000031
 30
0.0
 11
-602.0190090000001
 21
-469.93049568247898
 31
0.0
  0
CIRCLE
  8
SIZE
  6
CONTINUOUS
 62
    30
 10
-602.0190090000001
 20
-56.822529000000031
 30
0.0
 40
6.0
  0
CIRCLE
  8
SIZE
  6
CONTINUOUS
 62
    30
 10
-602.0190090000001
 20
-198.822529
 30
0.0
 40
6.0
  0
TEXT
  8
SIZE
  6
CONTINUOUS
 62
    30
 10
-622.0190090000001
 20
-472.91405633106342
 30
0.0
 40
64.0
  1
φ142
 50
90.0
 41
0.9
 72
     1
 11
-622.0190090000001
 21
-364.02262775963482
 31
0.0
  0
POINT
  8
DEFPOINTS
  6
CONTINUOUS
 62
    30
 10
-298.88368799999989
 20
-56.822529000000031
 30
0.0
  0
POINT
  8
DEFPOINTS
  6
CONTINUOUS
 62
    30
 10
-298.88368799999989
 20
-198.822529
 30
0.0
  0
POINT
  8
DEFPOINTS
  6
CONTINUOUS
 62
    30
 10
-602.0190090000001
 20
-198.822529
 30
0.0
  0
LINE
  8
SIZE
  6
CONTINUOUS
 62
    30
 10
-247.0
 20
-47.822529000000031
 30
0.0
 11
-765.76450299999999
 21
-47.822529000000031
 31
0.0
  0
LINE
  8
SIZE
  6
CONTINUOUS
 62
    30
 10
-247.0
 20
-207.822529
 30
0.0
 11
-765.76450299999999
 21
-207.822529
 31
0.0
  0
LINE
  8
SIZE
  6
CONTINUOUS
 62
    30
 10
-735.76450299999988
 20
-45.822529000000031
 30
0.0
 11
-735.76450299999988
 21
-43.822529000000031
 31
0.0
  0
LINE
  8
SIZE
  6
CONTINUOUS
 62
    30
 10
-735.76450299999988
 20
-209.822529
 30
0.0
 11
-735.76450299999988
 21
-211.822529
 31
0.0
  0
LINE
  8
SIZE
  6
CONTINUOUS
 62
    30
 10
-735.76450299999988
 20
-47.822529000000031
 30
0.0
 11
-735.76450299999988
 21
-475.9091648542917
 31
0.0
  0
CIRCLE
  8
SIZE
  6
CONTINUOUS
 62
    30
 10
-735.76450299999988
 20
-47.822529000000031
 30
0.0
 40
6.0
  0
CIRCLE
  8
SIZE
  6
CONTINUOUS
 62
    30
 10
-735.76450299999988
 20
-207.822529
 30
0.0
 40
6.0
  0
TEXT
  8
SIZE
  6
CONTINUOUS
 62
    30
 10
-755.76450299999988
 20
-477.18453553024892
 30
0.0
 40
64.0
  1
φ160
 50
90.0
 41
0.9
 72
     1
 11
-755.76450299999988
 21
-368.29310695882032
 31
0.0
  0
POINT
  8
DEFPOINTS
  6
CONTINUOUS
 62
    30
 10
-227.0
 20
-47.822529000000031
 30
0.0
  0
POINT
  8
DEFPOINTS
  6
CONTINUOUS
 62
    30
 10
-227.0
 20
-207.822529
 30
0.0
  0
POINT
  8
DEFPOINTS
  6
CONTINUOUS
 62
    30
 10
-735.76450299999988
 20
-207.822529
 30
0.0
  0
LINE
  8
SIZE
  6
CONTINUOUS
 62
    30
 10
227.0
 20
-272.48216200000002
 30
0.0
 11
227.0
 21
-389.591768
 31
0.0
  0
POINT
  8
DEFPOINTS
  6
CONTINUOUS
 62
    30
 10
227.0
 20
-252.48216199999999
 30
0.0
  0
POINT
  8
DEFPOINTS
  6
CONTINUOUS
 62
    30
 10
227.0
 20
-359.591768
 30
0.0
  0
POINT
  8
DEFPOINTS
  6
CONTINUOUS
 62
    30
 10
-197.10877900000011
 20
-119.5243
 30
0.0
  0
POINT
  8
DEFPOINTS
  6
CONTINUOUS
 62
    30
 10
-188.62519999999989
 20
-126.5243
 30
0.0
  0
LINE
  8
OUTLINE
  6
CONTINUOUS
 62
     3
 10
-227.0
 20
0.0
 30
0.0
 11
227.0
 21
0.0
 31
0.0
  0
LINE
  8
OUTLINE
  6
CONTINUOUS
 62
     3
 10
-227.0
 20
-23.602202999999921
 30
0.0
 11
-227.0
 21
-231.57974200000001
 31
0.0
  0
LINE
  8
OUTLINE
  6
CONTINUOUS
 62
     3
 10
-227.0
 20
0.0
 30
0.0
 11
-227.0
 21
-255.0
 31
0.0
  0
LINE
  8
OUTLINE
  6
CONTINUOUS
 62
     3
 10
-227.0
 20
-255.0
 30
0.0
 11
-227.0
 21
-127.5
 31
0.0
  0
LINE
  8
OUTLINE
  6
CONTINUOUS
 62
     3
 10
-227.0
 20
-127.482162
 30
0.0
 11
-227.0
 21
-154.33329900000001
 31
0.0
  0
LINE
  8
OUTLINE
  6
CONTINUOUS
 62
     3
 10
227.0
 20
0.0
 30
0.0
 11
227.0
 21
-255.0
 31
0.0
  0
LINE
  8
OUTLINE
  6
CONTINUOUS
 62
     3
 10
227.0
 20
-23.493392999999969
 30
0.0
 11
227.0
 21
-231.47093199999989
 31
0.0
  0
LINE
  8
OUTLINE
  6
CONTINUOUS
 62
     3
 10
227.0
 20
-127.482162
 30
0.0
 11
227.0
 21
-154.33329900000001
 31
0.0
  0
LINE
  8
DETAIL
  6
CONTINUOUS
 62
     5
 10
-293.32206999999988
 20
-199.29540600000001
 30
0.0
 11
-293.54968600000012
 21
-56.378917000000001
 31
0.0
  0
LINE
  8
DETAIL
  6
CONTINUOUS
 62
     5
 10
-297.0
 20
-198.822529
 30
0.0
 11
-297.0
 21
-56.822529000000031
 31
0.0
  0
LINE
  8
DETAIL
  6
CONTINUOUS
 62
     5
 10
-297.0
 20
-198.822529
 30
0.0
 11
-227.0
 21
-207.822529
 31
0.0
  0
LINE
  8
DETAIL
  6
CONTINUOUS
 62
     5
 10
-227.0
 20
-47.822529000000031
 30
0.0
 11
-297.0
 21
-56.822529000000031
 31
0.0
  0
LINE
  8
DETAIL
  6
CONTINUOUS
 62
     5
 10
295.44996300000003
 20
-198.76482899999999
 30
0.0
 11
295.67757900000021
 21
-55.848340999999891
 31
0.0
  0
LINE
  8
DETAIL
  6
CONTINUOUS
 62
     5
 10
297.0
 20
-198.29195200000001
 30
0.0
 11
297.0
 21
-56.291952000000038
 31
0.0
  0
LINE
  8
DETAIL
  6
CONTINUOUS
 62
     5
 10
297.0
 20
-198.29195200000001
 30
0.0
 11
227.0
 21
-207.29195200000001
 31
0.0
  0
LINE
  8
DETAIL
  6
CONTINUOUS
 62
     5
 10
227.0
 20
-47.291952000000038
 30
0.0
 11
297.0
 21
-56.291952000000038
 31
0.0
  0
LINE
  8
DETAIL
  6
CONTINUOUS
 62
     5
 10
-187.71766100000011
 20
-126.5243
 30
0.0
 11
-189.54713100000001
 21
-126.5243
 31
0.0
  0
LINE
  8
DETAIL
  6
CONTINUOUS
 62
     5
 10
-227.0
 20
-255.0
 30
0.0
 11
227.0
 21
-255.0
 31
0.0
  0
LINE
  8
OUTLINE
  6
CONTINUOUS
 62
     3
 10
-226.09119400000009
 20
-255.0
 30
0.0
 11
227.0
 21
-255.0
 31
0.0
  0
LINE
  8
BASIS
  6
DASHDOT
 62
     6
 10
-401.63753600000001
 20
-127.29195199999999
 30
0.0
 11
401.63753600000018
 21
-127.29195199999999
 31
0.0
  0
LINE
  8
DETAIL
  6
CONTINUOUS
 62
     5
 10
-228.52820100000011
 20
-154.33329900000001
 30
0.0
 11
-227.0
 21
-154.33329900000001
 31
0.0
  0
POINT
  8
ARRANGE
  6
CONTINUOUS
 62
     1
 10
0.0
 20
0.0
 30
0.0
  0
LINE
  8
SIZE
  6
CONTINUOUS
 62
    30
 10
209.54713100000009
 20
-126.5243000000001
 30
0.0
 11
499.12113164910181
 21
-126.5243
 31
0.0
  0
LINE
  8
SIZE
  6
CONTINUOUS
 62
    30
 10
241.96211600000001
 20
-119.5243000000001
 30
0.0
 11
499.12113164910181
 21
-119.5243
 31
0.0
  0
LINE
  8
SIZE
  6
CONTINUOUS
 62
    30
 10
479.12113164910193
 20
-138.52430000000001
 30
0.0
 11
479.12113164910193
 21
-150.52430000000001
 31
0.0
  0
LINE
  8
SIZE
  6
CONTINUOUS
 62
    30
 10
479.12113164910181
 20
-107.5243000000001
 30
0.0
 11
479.12113164910181
 21
-5.4899739999999833
 31
0.0
  0
LINE
  8
SIZE
  6
CONTINUOUS
 62
    30
 10
479.12113164910181
 20
-126.5243000000001
 30
0.0
 11
479.12113164910181
 21
-119.5243000000001
 31
0.0
  0
CIRCLE
  8
SIZE
  6
CONTINUOUS
 62
    30
 10
479.12113164910181
 20
-126.5243000000001
 30
0.0
 40
6.0
  0
LINE
  8
SIZE
  6
CONTINUOUS
 62
    30
 10
479.12113164910181
 20
-126.5243000000001
 30
0.0
 11
479.12113164910181
 21
-138.5243000000001
 31
0.0
  0
CIRCLE
  8
SIZE
  6
CONTINUOUS
 62
    30
 10
479.12113164910181
 20
-119.5243000000001
 30
0.0
 40
6.0
  0
LINE
  8
SIZE
  6
CONTINUOUS
 62
    30
 10
479.12113164910181
 20
-119.5243000000001
 30
0.0
 11
479.12113164910181
 21
-107.5243000000001
 31
0.0
  0
TEXT
  8
SIZE
  6
CONTINUOUS
 62
    30
 10
454.1211316491017
 20
-76.473974000000112
 30
0.0
 40
64.0
  1
7
 50
90.0
 41
0.9
 51
0.0
  7
STANDARD
 71
     0
 72
     1
 11
454.1211316491017
 21
-49.68997400000012
 31
0.0
210
0.0
220
0.0
230
1.0
  0
POINT
  8
DEFPOINTS
  6
CONTINUOUS
 62
    30
 10
189.54713100000009
 20
-126.5243000000001
 30
0.0
  0
POINT
  8
DEFPOINTS
  6
CONTINUOUS
 62
    30
 10
221.96211600000001
 20
-119.5243000000001
 30
0.0
  0
POINT
  8
DEFPOINTS
  6
CONTINUOUS
 62
    30
 10
479.12113164910181
 20
-119.5243000000001
 30
0.0
  0
LINE
  8
NOTE
  6
CONTINUOUS
 62
     4
 10
-209.5
 20
-119.5243
 30
0.0
 11
-345.47235599999999
 21
38.563814999999977
 31
0.0
  0
LINE
  8
NOTE
  6
CONTINUOUS
 62
     4
 10
-345.47235599999999
 20
38.563814999999977
 30
0.0
 11
-477.86769399999997
 21
38.563822999999957
 31
0.0
  0
TEXT
  8
NOTE
  6
CONTINUOUS
 62
     4
 10
-471.77305500000011
 20
57.591366999999991
 30
0.0
 40
70.73684200000001
  1
AH
 41
0.9
  0
LINE
  8
NOTE
  6
CONTINUOUS
 62
     4
 10
-226.18376600000011
 20
-78.582609000000048
 30
0.0
 11
-209.5
 21
-119.5243
 31
0.0
  0
LINE
  8
NOTE
  6
CONTINUOUS
 62
     4
 10
-209.5
 20
-119.5243
 30
0.0
 11
-244.41941099999991
 21
-92.40963899999997
 31
0.0
  0
LINE
  8
NOTE
  6
CONTINUOUS
 62
     4
 10
-209.5
 20
-99.524300000000039
 30
0.0
 11
-209.5
 21
-139.52430000000001
 31
0.0
  0
CIRCLE
  8
FIX
  6
CONTINUOUS
 62
    11
 10
-209.5
 20
-119.5243
 30
0.0
 40
5.5
  0
LINE
  8
NOTE
  6
CONTINUOUS
 62
     4
 10
209.5
 20
-99.524300000000039
 30
0.0
 11
209.5
 21
-139.52430000000001
 31
0.0
  0
CIRCLE
  8
FIX
  6
CONTINUOUS
 62
    11
 10
209.5
 20
-119.5243
 30
0.0
 40
5.5
  0
LINE
  8
SIZE
  6
CONTINUOUS
 62
    30
 10
-209.5
 20
-79.524300000000039
 30
0.0
 11
-209.5
 21
156.1456202871004
 31
0.0
  0
LINE
  8
SIZE
  6
CONTINUOUS
 62
    30
 10
209.4999999999998
 20
-77.880779999999959
 30
0.0
 11
209.4999999999998
 21
156.1456202871004
 31
0.0
  0
LINE
  8
SIZE
  6
CONTINUOUS
 62
    30
 10
-197.5
 20
136.1456202871004
 30
0.0
 11
197.4999999999998
 21
136.1456202871004
 31
0.0
  0
CIRCLE
  8
SIZE
  6
CONTINUOUS
 62
    30
 10
-209.5
 20
136.1456202871004
 30
0.0
 40
6.0
  0
LINE
  8
SIZE
  6
CONTINUOUS
 62
    30
 10
-209.5
 20
136.1456202871004
 30
0.0
 11
-197.5
 21
136.1456202871004
 31
0.0
  0
CIRCLE
  8
SIZE
  6
CONTINUOUS
 62
    30
 10
209.4999999999998
 20
136.1456202871004
 30
0.0
 40
6.0
  0
LINE
  8
SIZE
  6
CONTINUOUS
 62
    30
 10
209.4999999999998
 20
136.1456202871004
 30
0.0
 11
197.4999999999998
 21
136.1456202871004
 31
0.0
  0
TEXT
  8
SIZE
  6
CONTINUOUS
 62
    30
 10
-75.168000000000077
 20
161.1456202871004
 30
0.0
 40
64.0
  1
419
 50
0.0
 41
0.9
 51
0.0
  7
STANDARD
 71
     0
 72
     1
 11
-0.0000000000000853
 21
161.1456202871004
 31
0.0
210
0.0
220
0.0
230
1.0
  0
POINT
  8
DEFPOINTS
  6
CONTINUOUS
 62
    30
 10
-209.5
 20
-99.524300000000039
 30
0.0
  0
POINT
  8
DEFPOINTS
  6
CONTINUOUS
 62
    30
 10
209.4999999999998
 20
-97.880779999999959
 30
0.0
  0
POINT
  8
DEFPOINTS
  6
CONTINUOUS
 62
    30
 10
209.4999999999998
 20
136.1456202871004
 30
0.0
  0
LINE
  8
SIZE
  6
CONTINUOUS
 62
    30
 10
-230.02707200000009
 20
-121.263012
 30
0.0
 11
-230.02707200000009
 21
269.4771507197247
 31
0.0
  0
LINE
  8
SIZE
  6
CONTINUOUS
 62
    30
 10
230.02707200000009
 20
-121.263012
 30
0.0
 11
230.02707200000009
 21
269.4771507197247
 31
0.0
  0
LINE
  8
SIZE
  6
CONTINUOUS
 62
    30
 10
-218.02707200000009
 20
249.4771507197247
 30
0.0
 11
218.02707200000009
 21
249.4771507197247
 31
0.0
  0
CIRCLE
  8
SIZE
  6
CONTINUOUS
 62
    30
 10
-230.02707200000009
 20
249.4771507197247
 30
0.0
 40
6.0
  0
LINE
  8
SIZE
  6
CONTINUOUS
 62
    30
 10
-230.02707200000009
 20
249.4771507197247
 30
0.0
 11
-218.02707200000009
 21
249.4771507197247
 31
0.0
  0
CIRCLE
  8
SIZE
  6
CONTINUOUS
 62
    30
 10
230.02707200000009
 20
249.4771507197247
 30
0.0
 40
6.0
  0
LINE
  8
SIZE
  6
CONTINUOUS
 62
    30
 10
230.02707200000009
 20
249.4771507197247
 30
0.0
 11
218.02707200000009
 21
249.4771507197247
 31
0.0
  0
TEXT
  8
SIZE
  6
CONTINUOUS
 62
    30
 10
-81.503999999999976
 20
274.4771507197247
 30
0.0
 40
64.0
  1
460
 50
0.0
 41
0.9
 51
0.0
  7
STANDARD
 71
     0
 72
     1
 11
0.0000000000000284
 21
274.4771507197247
 31
0.0
210
0.0
220
0.0
230
1.0
  0
POINT
  8
DEFPOINTS
  6
CONTINUOUS
 62
    30
 10
-230.02707200000009
 20
-141.263012
 30
0.0
  0
POINT
  8
DEFPOINTS
  6
CONTINUOUS
 62
    30
 10
230.02707200000009
 20
-141.263012
 30
0.0
  0
POINT
  8
DEFPOINTS
  6
CONTINUOUS
 62
    30
 10
230.02707200000009
 20
249.4771507197247
 30
0.0
  0
LINE
  8
BASIS
  6
DASHDOT
 62
     6
 10
0.0
 20
-279.68825747057741
 30
0.0
 11
0.0
 21
99.144835999999941
 31
0.0
  0
ENDSEC
  0
EOF
