  0
SECTION
  2
HEADER
  9
$ACADVER
  1
AC1009
  9
$DWGCODEPAGE
  3
dos932
  9
$INSBASE
 10
0.0
 20
0.0
 30
0.0
  9
$EXTMIN
 10
-560.59110885322116
 20
-452.77403615505318
 30
-0.0030516297567118
  9
$EXTMAX
 10
1036.4364739815189
 20
663.94043779459389
 30
0.0007631257219032
  9
$LIMMIN
 10
-2970.0
 20
-2100.0
  9
$LIMMAX
 10
2970.0
 20
2100.0
  9
$ORTHOMODE
 70
     1
  9
$REGENMODE
 70
     1
  9
$FILLMODE
 70
     1
  9
$QTEXTMODE
 70
     0
  9
$MIRRTEXT
 70
     0
  9
$LTSCALE
 40
20.0
  9
$ATTMODE
 70
     1
  9
$TEXTSIZE
 40
64.0
  9
$TRACEWID
 40
0.05
  9
$TEXTSTYLE
  7
STANDARD
  9
$CLAYER
  8
SIZE
  9
$CELTYPE
  6
CONTINUOUS
  9
$CECOLOR
 62
     7
  9
$DIMSCALE
 40
1.0
  9
$DIMASZ
 40
12.0
  9
$DIMEXO
 40
20.0
  9
$DIMDLI
 40
200.0
  9
$DIMRND
 40
0.0
  9
$DIMDLE
 40
0.0
  9
$DIMEXE
 40
20.0
  9
$DIMTP
 40
0.0
  9
$DIMTM
 40
0.0
  9
$DIMTXT
 40
64.0
  9
$DIMCEN
 40
0.09
  9
$DIMTSZ
 40
0.0
  9
$DIMTOL
 70
     0
  9
$DIMLIM
 70
     0
  9
$DIMTIH
 70
     0
  9
$DIMTOH
 70
     0
  9
$DIMSE1
 70
     0
  9
$DIMSE2
 70
     0
  9
$DIMTAD
 70
     1
  9
$DIMZIN
 70
     8
  9
$DIMBLK
  1

  9
$DIMASO
 70
     1
  9
$DIMSHO
 70
     0
  9
$DIMPOST
  1

  9
$DIMAPOST
  1

  9
$DIMALT
 70
     0
  9
$DIMALTD
 70
     2
  9
$DIMALTF
 40
25.399999999999999
  9
$DIMLFAC
 40
1.0
  9
$DIMTOFL
 70
     1
  9
$DIMTVP
 40
0.0
  9
$DIMTIX
 70
     1
  9
$DIMSOXD
 70
     0
  9
$DIMSAH
 70
     0
  9
$DIMBLK1
  1

  9
$DIMBLK2
  1

  9
$DIMSTYLE
  2
STANDARD
  9
$DIMCLRD
 70
     7
  9
$DIMCLRE
 70
     7
  9
$DIMCLRT
 70
     7
  9
$DIMTFAC
 40
1.0
  9
$DIMGAP
 40
25.0
  9
$LUNITS
 70
     2
  9
$LUPREC
 70
     4
  9
$SKETCHINC
 40
0.1
  9
$FILLETRAD
 40
3.0
  9
$AUNITS
 70
     1
  9
$AUPREC
 70
     3
  9
$MENU
  1
ACAD
  9
$ELEVATION
 40
0.0
  9
$PELEVATION
 40
0.0
  9
$THICKNESS
 40
0.0
  9
$LIMCHECK
 70
     0
  9
$CHAMFERA
 40
0.0
  9
$CHAMFERB
 40
0.0
  9
$SKPOLY
 70
     0
  9
$TDCREATE
 40
2453019.62301037
  9
$TDUPDATE
 40
2459268.671245243
  9
$TDINDWG
 40
1.7249002431
  9
$TDUSRTIMER
 40
1.7249002431
  9
$USRTIMER
 70
     1
  9
$ANGBASE
 50
0.0
  9
$ANGDIR
 70
     0
  9
$PDMODE
 70
     3
  9
$PDSIZE
 40
-2.0
  9
$PLINEWID
 40
0.0
  9
$SPLFRAME
 70
     0
  9
$SPLINETYPE
 70
     6
  9
$SPLINESEGS
 70
     8
  9
$SURFTAB1
 70
     6
  9
$SURFTAB2
 70
     6
  9
$SURFTYPE
 70
     6
  9
$SURFU
 70
     6
  9
$SURFV
 70
     6
  9
$UCSNAME
  2

  9
$UCSORG
 10
0.0
 20
0.0
 30
0.0
  9
$UCSXDIR
 10
1.0
 20
0.0
 30
0.0
  9
$UCSYDIR
 10
0.0
 20
1.0
 30
0.0
  9
$PUCSNAME
  2

  9
$PUCSORG
 10
0.0
 20
0.0
 30
0.0
  9
$PUCSXDIR
 10
1.0
 20
0.0
 30
0.0
  9
$PUCSYDIR
 10
0.0
 20
1.0
 30
0.0
  9
$USERI1
 70
     0
  9
$USERI2
 70
     0
  9
$USERI3
 70
     0
  9
$USERI4
 70
     0
  9
$USERI5
 70
     0
  9
$USERR1
 40
20.0
  9
$USERR2
 40
0.0
  9
$USERR3
 40
0.0
  9
$USERR4
 40
0.0
  9
$USERR5
 40
0.0
  9
$WORLDVIEW
 70
     1
  9
$SHADEDGE
 70
     3
  9
$SHADEDIF
 70
    70
  9
$TILEMODE
 70
     1
  9
$MAXACTVP
 70
    48
  9
$PINSBASE
 10
0.0
 20
0.0
 30
0.0
  9
$PLIMCHECK
 70
     0
  9
$PEXTMIN
 10
-100000000000000000000.0
 20
-100000000000000000000.0
 30
-100000000000000000000.0
  9
$PEXTMAX
 10
100000000000000000000.0
 20
100000000000000000000.0
 30
100000000000000000000.0
  9
$PLIMMIN
 10
0.0
 20
0.0
  9
$PLIMMAX
 10
12.0
 20
9.0
  9
$UNITMODE
 70
     0
  9
$VISRETAIN
 70
     0
  9
$PLINEGEN
 70
     0
  9
$PSLTSCALE
 70
     0
  9
$TREEDEPTH
 70
  3020
  9
$ATTDIA
 70
     0
  9
$ATTREQ
 70
     1
  9
$BLIPMODE
 70
     1
  9
$COORDS
 70
     1
  9
$DRAGMODE
 70
     2
  9
$OSMODE
 70
     0
  9
$HANDLING
 70
     0
  9
$HANDSEED
  5
10590
  0
ENDSEC
  0
SECTION
  2
TABLES
  0
TABLE
  2
LTYPE
 70
     2
  0
LTYPE
  2
CONTINUOUS
 70
     0
  3
実線
 72
    65
 73
     0
 40
0.0
  0
LTYPE
  2
DASHDOT
 70
     0
  3
____ _ ____ _ ____ _ ____ _ ____ _ ____ _ ____
 72
    65
 73
     4
 40
5.5
 49
4.0
 49
-0.6
 49
0.3
 49
-0.6
  0
ENDTAB
  0
TABLE
  2
LAYER
 70
    12
  0
LAYER
  2
0
 70
     0
 62
     7
  6
CONTINUOUS
  0
LAYER
  2
BASIS
 70
     0
 62
     6
  6
DASHDOT
  0
LAYER
  2
OUTLINE
 70
     0
 62
     3
  6
CONTINUOUS
  0
LAYER
  2
DETAIL
 70
     0
 62
     5
  6
CONTINUOUS
  0
LAYER
  2
SIZE
 70
     0
 62
    30
  6
CONTINUOUS
  0
LAYER
  2
ARRANGE
 70
     0
 62
     1
  6
CONTINUOUS
  0
LAYER
  2
DEFPOINTS
 70
     0
 62
     7
  6
CONTINUOUS
  0
LAYER
  2
ETC
 70
     0
 62
    61
  6
CONTINUOUS
  0
LAYER
  2
FIX
 70
     0
 62
    11
  6
CONTINUOUS
  0
LAYER
  2
NOTE
 70
     0
 62
     4
  6
CONTINUOUS
  0
LAYER
  2
SERVICESPACE
 70
    64
 62
     2
  6
DASHDOT
  0
LAYER
  2
SYMBOLLINE
 70
    64
 62
    15
  6
CONTINUOUS
  0
ENDTAB
  0
TABLE
  2
STYLE
 70
     1
  0
STYLE
  2
STANDARD
 70
     0
 40
64.0
 41
0.9
 50
0.0
 71
     0
 42
64.0
  3
SIMPLEX.shx
  4
BIGFONT.shx
  0
ENDTAB
  0
TABLE
  2
APPID
 70
    19
  0
APPID
  2
ACAD
 70
     0
  0
APPID
  2
AUTOCAD_POSTSCRIPT_FIGURE
 70
     0
  0
APPID
  2
ACAD_EXEMPT_FROM_CAD_STANDARDS
 70
     0
  0
APPID
  2
ACAD_PSEXT
 70
     0
  0
APPID
  2
ACAUTHENVIRON
 70
     0
  0
APPID
  2
GENIUS_GENOENT_13
 70
     0
  0
APPID
  2
GENIUS_GENCFG_13
 70
     0
  0
APPID
  2
GENIUS_GENCFG0_13
 70
     0
  0
APPID
  2
GENIUS_GENCFG1_13
 70
     0
  0
APPID
  2
GENIUS_GENCFG2_13
 70
     0
  0
APPID
  2
GENIUS_GENCFG3_13
 70
     0
  0
APPID
  2
GENIUS_GENCFG4_13
 70
     0
  0
APPID
  2
GENIUS_GEVCFG0_13
 70
     0
  0
APPID
  2
CONTENTBLOCKICON
 70
     0
  0
APPID
  2
CONTENTBLOCKDESCRIPTION
 70
     0
  0
APPID
  2
ACAD_NAV_VCDISPLAY
 70
     0
  0
APPID
  2
ACAD_MLEADERVER
 70
     0
  0
APPID
  2
ACDBDYNAMICBLOCKTRUENAME
 70
     0
  0
APPID
  2
ACDBDYNAMICBLOCKGUID
 70
     0
  0
ENDTAB
  0
TABLE
  2
DIMSTYLE
 70
     1
  0
DIMSTYLE
  2
STANDARD
 70
     0
  3

  4

  5
_ORIGIN
  6

  7

 40
1.0
 41
12.0
 42
20.0
 43
200.0
 44
20.0
 45
0.0
 46
0.0
 47
0.0
 48
0.0
140
64.0
141
0.09
142
0.0
143
25.399999999999999
144
1.0
145
0.0
146
1.0
147
25.0
 71
     0
 72
     0
 73
     0
 74
     0
 75
     0
 76
     0
 77
     1
 78
     8
170
     0
171
     2
172
     1
173
     0
174
     1
175
     0
176
     7
177
     7
178
     7
  0
ENDTAB
  0
TABLE
  2
VIEW
 70
     1
  0
VIEW
  2
ALL
 70
     0
 40
4282.6198079999986
 10
0.0
 20
41.309904000000003
 41
5940.0
 11
0.0
 21
0.0
 31
1.0
 12
0.0
 22
0.0
 32
0.0
 42
50.0
 43
0.0
 44
0.0
 50
0.0
 71
     0
  0
ENDTAB
  0
TABLE
  2
UCS
 70
     0
  0
ENDTAB
  0
TABLE
  2
VPORT
 70
     1
  0
VPORT
  2
*ACTIVE
 70
     0
 10
0.0
 20
0.0
 11
1.0
 21
1.0
 12
237.92268256414911
 22
105.5832008197704
 13
0.0
 23
0.0
 14
1.0
 24
1.0
 15
0.0
 25
0.0
 16
0.0
 26
0.0
 36
1.0
 17
0.0
 27
0.0
 37
0.0
 40
909.40938485656454
 41
1.980636237897649
 42
50.0
 43
0.0
 44
0.0
 50
0.0
 51
0.0
 71
     0
 72
  1000
 73
     1
 74
     3
 75
     0
 76
     0
 77
     0
 78
     0
  0
ENDTAB
  0
ENDSEC
  0
SECTION
  2
BLOCKS
  0
BLOCK
  8
0
  2
_ORIGIN
 70
     0
 10
0.0
 20
0.0
 30
0.0
  3
_ORIGIN
  1
_ORIGIN
  0
CIRCLE
  8
SIZE
  6
CONTINUOUS
 62
    30
 10
0.0
 20
0.0
 30
0.0
 40
0.5
  0
LINE
  8
SIZE
  6
CONTINUOUS
 62
    30
 10
0.0
 20
0.0
 30
0.0
 11
-1.0
 21
0.0
 31
0.0
  0
ENDBLK
  8
0
  0
ENDSEC
  0
SECTION
  2
ENTITIES
  0
TEXT
  8
ETC
  6
CONTINUOUS
 62
    61
 10
421.94132321662602
 20
599.87743160105367
 30
0.0
 40
64.0
  1
BFS-40SYA2_6
 41
0.9
  0
TEXT
  8
ETC
  6
CONTINUOUS
 62
    61
 10
419.73291221662612
 20
499.23638560105348
 30
0.0
 40
64.0
  1
産業扇
 41
0.9
  0
TEXT
  8
ETC
  6
CONTINUOUS
 62
    61
 10
559.97718737386435
 20
413.69242233655632
 30
0.0
 40
50.0
  1
BFS-40SYA2
 41
0.9
  0
CIRCLE
  8
ARRANGE
  6
CONTINUOUS
 62
     1
 10
0.0
 20
0.0
 30
0.0
 40
40.0
  0
LINE
  8
BASIS
  6
DASHDOT
 62
     6
 10
0.0
 20
293.65281599999997
 30
0.0
 11
-0.2224090588236294
 21
-312.65281599999997
 31
0.0
  0
LINE
  8
BASIS
  6
DASHDOT
 62
     6
 10
199.47830200000001
 20
0.0
 30
0.0
 11
-199.47830200000001
 21
0.0
 31
0.0
  0
POINT
  8
ARRANGE
  6
CONTINUOUS
 62
     1
 10
0.0
 20
0.0
 30
0.0
 50
180.0
  0
POINT
  8
DEFPOINTS
  6
CONTINUOUS
 62
    30
 10
136.5
 20
-209.50000000000011
 30
0.0
 50
180.0
  0
POINT
  8
DEFPOINTS
  6
CONTINUOUS
 62
    30
 10
136.5
 20
209.0
 30
0.0
 50
180.0
  0
LINE
  8
NOTE
  6
CONTINUOUS
 62
     4
 10
-142.5
 20
-177.00004999999999
 30
0.0
 11
-185.5
 21
-177.00004999999999
 31
0.0
  0
LINE
  8
NOTE
  6
CONTINUOUS
 62
     4
 10
-165.5
 20
-196.5
 30
0.0
 11
-165.5
 21
-156.99999999999989
 31
0.0
  0
LINE
  8
DETAIL
  6
CONTINUOUS
 62
     5
 10
-160.0
 20
-156.49999999999989
 30
0.0
 11
-136.5
 21
-156.49999999999989
 31
0.0
  0
LINE
  8
DETAIL
  6
CONTINUOUS
 62
     5
 10
-185.5
 20
-156.49999999999989
 30
0.0
 11
-171.0
 21
-156.49999999999989
 31
0.0
  0
LINE
  8
DETAIL
  6
CONTINUOUS
 62
     5
 10
-185.5
 20
-197.0
 30
0.0
 11
-185.5
 21
-156.49999999999989
 31
0.0
  0
POINT
  8
DEFPOINTS
  6
CONTINUOUS
 62
    30
 10
-185.5
 20
-177.00004999999999
 30
0.0
 50
180.0
  0
POINT
  8
DEFPOINTS
  6
CONTINUOUS
 62
    30
 10
-185.5
 20
176.04265000000001
 30
0.0
 50
180.0
  0
POINT
  8
DEFPOINTS
  6
CONTINUOUS
 62
    30
 10
-185.5
 20
-197.0
 30
0.0
 50
180.0
  0
POINT
  8
DEFPOINTS
  6
CONTINUOUS
 62
    30
 10
-185.5
 20
197.0
 30
0.0
 50
180.0
  0
LINE
  8
DETAIL
  6
CONTINUOUS
 62
     5
 10
-160.0
 20
-177.00004999999999
 30
0.0
 11
-160.0
 21
-156.49999999999989
 31
0.0
  0
LINE
  8
DETAIL
  6
CONTINUOUS
 62
     5
 10
-171.0
 20
-177.00004999999999
 30
0.0
 11
-171.0
 21
-156.49999999999989
 31
0.0
  0
ARC
  8
DETAIL
  6
CONTINUOUS
 62
     5
 10
-165.5
 20
-177.00004999999999
 30
0.0
 40
5.5
 50
180.0
 51
0.0
  0
CIRCLE
  8
FIX
  6
CONTINUOUS
 62
    11
 10
-165.5
 20
-177.00004999999999
 30
0.0
 40
5.5
  0
POINT
  8
DEFPOINTS
  6
CONTINUOUS
 62
    30
 10
136.5
 20
209.0
 30
0.0
 50
180.0
  0
POINT
  8
DEFPOINTS
  6
CONTINUOUS
 62
    30
 10
70.999999999999972
 20
264.0
 30
0.0
 50
180.0
  0
LINE
  8
DETAIL
  6
CONTINUOUS
 62
     5
 10
136.5
 20
-209.50000000000011
 30
0.0
 11
-136.5
 21
-209.5
 31
0.0
  0
LINE
  8
DETAIL
  6
CONTINUOUS
 62
     5
 10
136.5
 20
209.0
 30
0.0
 11
-136.5
 21
209.5
 31
0.0
  0
LINE
  8
DETAIL
  6
CONTINUOUS
 62
     5
 10
136.5
 20
209.0
 30
0.0
 11
136.5
 21
197.5
 31
0.0
  0
LINE
  8
DETAIL
  6
CONTINUOUS
 62
     5
 10
-136.5
 20
209.5
 30
0.0
 11
-136.5
 21
197.0
 31
0.0
  0
LINE
  8
DETAIL
  6
CONTINUOUS
 62
     5
 10
136.5
 20
-209.50000000000011
 30
0.0
 11
-77.682352941176532
 21
-209.5
 31
0.0
  0
LINE
  8
DETAIL
  6
CONTINUOUS
 62
     5
 10
136.5
 20
209.0
 30
0.0
 11
-77.90476200000009
 21
209.0
 31
0.0
  0
LINE
  8
DETAIL
  6
CONTINUOUS
 62
     5
 10
-185.5
 20
197.0
 30
0.0
 11
-185.5
 21
156.5
 31
0.0
  0
LINE
  8
NOTE
  6
CONTINUOUS
 62
     4
 10
-142.5
 20
176.04265000000001
 30
0.0
 11
-185.5
 21
176.04265000000001
 31
0.0
  0
LINE
  8
NOTE
  6
CONTINUOUS
 62
     4
 10
-165.5
 20
196.5
 30
0.0
 11
-165.5
 21
157.5
 31
0.0
  0
LINE
  8
DETAIL
  6
CONTINUOUS
 62
     5
 10
-160.0
 20
156.5
 30
0.0
 11
-136.5
 21
156.5
 31
0.0
  0
LINE
  8
DETAIL
  6
CONTINUOUS
 62
     5
 10
-185.5
 20
156.5
 30
0.0
 11
-171.0
 21
156.5
 31
0.0
  0
LINE
  8
DETAIL
  6
CONTINUOUS
 62
     5
 10
-160.0
 20
176.04265000000001
 30
0.0
 11
-160.0
 21
156.5
 31
0.0
  0
LINE
  8
DETAIL
  6
CONTINUOUS
 62
     5
 10
-171.0
 20
176.04265000000001
 30
0.0
 11
-171.0
 21
156.5
 31
0.0
  0
ARC
  8
DETAIL
  6
CONTINUOUS
 62
     5
 10
-165.5
 20
176.04265000000001
 30
0.0
 40
5.5
 50
0.0
 51
180.0
  0
CIRCLE
  8
FIX
  6
CONTINUOUS
 62
    11
 10
-165.5
 20
176.04265000000001
 30
0.0
 40
5.5
  0
POINT
  8
DEFPOINTS
  6
CONTINUOUS
 62
    30
 10
-185.5
 20
-156.49999999999989
 30
0.0
 50
180.0
  0
POINT
  8
DEFPOINTS
  6
CONTINUOUS
 62
    30
 10
-185.5
 20
156.5
 30
0.0
 50
180.0
  0
POINT
  8
DEFPOINTS
  6
CONTINUOUS
 62
    30
 10
185.5
 20
-198.0
 30
0.0
 50
180.0
  0
POINT
  8
DEFPOINTS
  6
CONTINUOUS
 62
    30
 10
-185.5
 20
-197.0
 30
0.0
 50
180.0
  0
POINT
  8
DEFPOINTS
  6
CONTINUOUS
 62
    30
 10
165.5
 20
-197.0
 30
0.0
 50
180.0
  0
POINT
  8
DEFPOINTS
  6
CONTINUOUS
 62
    30
 10
-165.5
 20
-196.5
 30
0.0
 50
180.0
  0
POINT
  8
DEFPOINTS
  6
CONTINUOUS
 62
    30
 10
136.5
 20
-209.50000000000011
 30
0.0
 50
180.0
  0
POINT
  8
DEFPOINTS
  6
CONTINUOUS
 62
    30
 10
-136.5
 20
-209.0
 30
0.0
 50
180.0
  0
POINT
  8
DEFPOINTS
  6
CONTINUOUS
 62
    30
 10
-136.5
 20
-209.5
 30
0.0
 50
180.0
  0
POINT
  8
DEFPOINTS
  6
CONTINUOUS
 62
    30
 10
-136.5
 20
209.5
 30
0.0
 50
180.0
  0
POINT
  8
DEFPOINTS
  6
CONTINUOUS
 62
    30
 10
-136.5
 20
-209.0
 30
0.0
 50
180.0
  0
POINT
  8
DEFPOINTS
  6
CONTINUOUS
 62
    30
 10
136.5
 20
-209.50000000000011
 30
0.0
 50
180.0
  0
LINE
  8
DETAIL
  6
CONTINUOUS
 62
     5
 10
-77.682352941176532
 20
-209.5
 30
0.0
 11
-136.5
 21
-209.5
 31
0.0
  0
LINE
  8
DETAIL
  6
CONTINUOUS
 62
     5
 10
-136.5
 20
-197.5
 30
0.0
 11
-136.5
 21
-209.5
 31
0.0
  0
LINE
  8
DETAIL
  6
CONTINUOUS
 62
     5
 10
136.5
 20
197.5
 30
0.0
 11
136.5
 21
-209.50000000000011
 31
0.0
  0
LINE
  8
DETAIL
  6
CONTINUOUS
 62
     5
 10
-77.90476200000009
 20
209.5
 30
0.0
 11
-136.5
 21
209.5
 31
0.0
  0
LINE
  8
DETAIL
  6
CONTINUOUS
 62
     5
 10
-136.5
 20
197.5
 30
0.0
 11
-136.5
 21
-209.5
 31
0.0
  0
LINE
  8
DETAIL
  6
CONTINUOUS
 62
     5
 10
70.999999999999972
 20
264.0
 30
0.0
 11
-71.0
 21
264.0
 31
0.0
  0
LINE
  8
DETAIL
  6
CONTINUOUS
 62
     5
 10
78.071428571428555
 20
209.0
 30
0.0
 11
70.999999999999972
 21
264.0
 31
0.0
  0
LINE
  8
DETAIL
  6
CONTINUOUS
 62
     5
 10
-77.682352941176418
 20
209.0
 30
0.0
 11
-71.0
 21
264.0
 31
0.0
  0
LINE
  8
DETAIL
  6
CONTINUOUS
 62
     5
 10
71.761904999999814
 20
256.0
 30
0.0
 11
-71.761904999999842
 21
256.0
 31
0.0
  0
POINT
  8
DEFPOINTS
  6
CONTINUOUS
 62
    30
 10
-71.0
 20
264.0
 30
0.0
 50
180.0
  0
POINT
  8
DEFPOINTS
  6
CONTINUOUS
 62
    30
 10
70.999999999999972
 20
264.0
 30
0.0
 50
180.0
  0
LINE
  8
DETAIL
  6
CONTINUOUS
 62
     5
 10
71.542936219924783
 20
-256.0
 30
0.0
 11
-71.761904999999828
 21
-256.0
 31
0.0
  0
LINE
  8
DETAIL
  6
CONTINUOUS
 62
     5
 10
70.781031219924941
 20
-264.0
 30
0.0
 11
-71.0
 21
-264.0
 31
0.0
  0
LINE
  8
DETAIL
  6
CONTINUOUS
 62
     5
 10
77.878571428571462
 20
-209.50000000000011
 30
0.0
 11
70.781031219924941
 21
-264.0
 31
0.0
  0
LINE
  8
DETAIL
  6
CONTINUOUS
 62
     5
 10
-78.007142857142753
 20
-209.5
 30
0.0
 11
-71.0
 21
-264.0
 31
0.0
  0
POINT
  8
DEFPOINTS
  6
CONTINUOUS
 62
    30
 10
136.5
 20
-209.50000000000011
 30
0.0
 50
180.0
  0
POINT
  8
DEFPOINTS
  6
CONTINUOUS
 62
    30
 10
70.781031219924941
 20
-264.0
 30
0.0
 50
180.0
  0
LINE
  8
DETAIL
  6
CONTINUOUS
 62
     5
 10
136.5
 20
209.0
 30
0.0
 11
136.5
 21
-209.50000000000011
 31
0.0
  0
LINE
  8
DETAIL
  6
CONTINUOUS
 62
     5
 10
-136.5
 20
209.5
 30
0.0
 11
-136.5
 21
-209.5
 31
0.0
  0
LINE
  8
DETAIL
  6
CONTINUOUS
 62
     5
 10
-136.5
 20
-197.0
 30
0.0
 11
-185.5
 21
-197.0
 31
0.0
  0
LINE
  8
DETAIL
  6
CONTINUOUS
 62
     5
 10
-136.5
 20
197.0
 30
0.0
 11
-185.5
 21
197.0
 31
0.0
  0
LINE
  8
DETAIL
  6
CONTINUOUS
 62
     5
 10
185.5
 20
-197.5
 30
0.0
 11
185.5
 21
-156.5
 31
0.0
  0
LINE
  8
DETAIL
  6
CONTINUOUS
 62
     5
 10
171.0
 20
-177.0
 30
0.0
 11
171.0
 21
-156.5
 31
0.0
  0
LINE
  8
DETAIL
  6
CONTINUOUS
 62
     5
 10
160.0
 20
-177.0
 30
0.0
 11
160.0
 21
-156.5
 31
0.0
  0
LINE
  8
NOTE
  6
CONTINUOUS
 62
     4
 10
145.5
 20
-177.0
 30
0.0
 11
185.5
 21
-177.0
 31
0.0
  0
LINE
  8
NOTE
  6
CONTINUOUS
 62
     4
 10
165.5
 20
-197.0
 30
0.0
 11
165.5
 21
-157.0
 31
0.0
  0
LINE
  8
DETAIL
  6
CONTINUOUS
 62
     5
 10
160.0
 20
-156.5
 30
0.0
 11
136.5
 21
-156.5
 31
0.0
  0
LINE
  8
DETAIL
  6
CONTINUOUS
 62
     5
 10
185.5
 20
-156.5
 30
0.0
 11
171.0
 21
-156.5
 31
0.0
  0
LINE
  8
DETAIL
  6
CONTINUOUS
 62
     5
 10
136.5
 20
-197.5
 30
0.0
 11
185.5
 21
-197.5
 31
0.0
  0
CIRCLE
  8
FIX
  6
CONTINUOUS
 62
    11
 10
165.5
 20
-177.0
 30
0.0
 40
5.5
  0
ARC
  8
DETAIL
  6
CONTINUOUS
 62
     5
 10
165.5
 20
-177.0
 30
0.0
 40
5.5
 50
180.0
 51
0.0
  0
LINE
  8
DETAIL
  6
CONTINUOUS
 62
     5
 10
185.5
 20
197.5
 30
0.0
 11
185.5
 21
156.5
 31
0.0
  0
LINE
  8
DETAIL
  6
CONTINUOUS
 62
     5
 10
171.0
 20
177.0
 30
0.0
 11
171.0
 21
156.5
 31
0.0
  0
LINE
  8
DETAIL
  6
CONTINUOUS
 62
     5
 10
160.0
 20
177.0
 30
0.0
 11
160.0
 21
156.5
 31
0.0
  0
LINE
  8
NOTE
  6
CONTINUOUS
 62
     4
 10
145.5
 20
177.0
 30
0.0
 11
185.5
 21
177.0
 31
0.0
  0
LINE
  8
NOTE
  6
CONTINUOUS
 62
     4
 10
165.5
 20
197.0
 30
0.0
 11
165.5
 21
157.0
 31
0.0
  0
LINE
  8
DETAIL
  6
CONTINUOUS
 62
     5
 10
136.5
 20
197.5
 30
0.0
 11
185.5
 21
197.5
 31
0.0
  0
CIRCLE
  8
FIX
  6
CONTINUOUS
 62
    11
 10
165.5
 20
177.0
 30
0.0
 40
5.5
  0
ARC
  8
DETAIL
  6
CONTINUOUS
 62
     5
 10
165.5
 20
177.0
 30
0.0
 40
5.5
 50
0.0
 51
180.0
  0
LINE
  8
DETAIL
  6
CONTINUOUS
 62
     5
 10
160.0
 20
156.5
 30
0.0
 11
136.5
 21
156.5
 31
0.0
  0
LINE
  8
DETAIL
  6
CONTINUOUS
 62
     5
 10
185.5
 20
156.5
 30
0.0
 11
171.0
 21
156.5
 31
0.0
  0
LINE
  8
DETAIL
  6
CONTINUOUS
 62
     5
 10
136.5
 20
-198.0
 30
0.0
 11
136.5
 21
-209.50000000000011
 31
0.0
  0
LINE
  8
SIZE
  6
CONTINUOUS
 62
    30
 10
-136.5
 20
229.50000000000011
 30
0.0
 11
-136.5
 21
362.60515748715028
 31
0.0
  0
LINE
  8
SIZE
  6
CONTINUOUS
 62
    30
 10
136.5
 20
229.5
 30
0.0
 11
136.5
 21
362.60515748715028
 31
0.0
  0
LINE
  8
SIZE
  6
CONTINUOUS
 62
    30
 10
-124.5
 20
342.60515748715028
 30
0.0
 11
124.5
 21
342.60515748715028
 31
0.0
  0
CIRCLE
  8
SIZE
  6
CONTINUOUS
 62
    30
 10
-136.5
 20
342.60515748715028
 30
0.0
 40
6.0
  0
LINE
  8
SIZE
  6
CONTINUOUS
 62
    30
 10
-136.5
 20
342.60515748715028
 30
0.0
 11
-124.5
 21
342.60515748715028
 31
0.0
  0
CIRCLE
  8
SIZE
  6
CONTINUOUS
 62
    30
 10
136.5
 20
342.60515748715028
 30
0.0
 40
6.0
  0
LINE
  8
SIZE
  6
CONTINUOUS
 62
    30
 10
136.5
 20
342.60515748715028
 30
0.0
 11
124.5
 21
342.60515748715028
 31
0.0
  0
TEXT
  8
SIZE
  6
CONTINUOUS
 62
    30
 10
-74.172245824921347
 20
367.60515748715028
 30
0.0
 40
64.0
  1
273
 41
0.9
 72
     1
 11
-0.1151029677785118
 21
367.60515748715028
 31
0.0
  0
POINT
  8
DEFPOINTS
  6
CONTINUOUS
 62
    30
 10
-136.5
 20
209.50000000000011
 30
0.0
  0
POINT
  8
DEFPOINTS
  6
CONTINUOUS
 62
    30
 10
136.0
 20
209.5
 30
0.0
  0
POINT
  8
DEFPOINTS
  6
CONTINUOUS
 62
    30
 10
136.5
 20
342.60515748715028
 30
0.0
  0
LINE
  8
DETAIL
  6
CONTINUOUS
 62
     5
 10
-186.40000000000001
 20
-123.3000012643171
 30
0.0
 11
-186.40000000000009
 21
7.999998735682766
 31
0.0
  0
LINE
  8
DETAIL
  6
CONTINUOUS
 62
     5
 10
-184.80000000000001
 20
-123.3000012643171
 30
0.0
 11
-184.80000000000001
 21
7.999998735682766
 31
0.0
  0
LINE
  8
DETAIL
  6
CONTINUOUS
 62
     5
 10
-184.80000000000001
 20
7.999998735682766
 30
0.0
 11
-184.80000000000001
 21
9.5999987356822203
 31
0.0
  0
LINE
  8
DETAIL
  6
CONTINUOUS
 62
     5
 10
-184.80000000000001
 20
-123.3000012643171
 30
0.0
 11
-184.80000000000001
 21
-124.9000012643174
 31
0.0
  0
LINE
  8
DETAIL
  6
CONTINUOUS
 62
     5
 10
-181.69072825020001
 20
-116.6321464791172
 30
0.0
 11
-184.80000000000001
 21
-123.3000012643171
 31
0.0
  0
LINE
  8
DETAIL
  6
CONTINUOUS
 62
     5
 10
-139.40000000000009
 20
10.29999873568204
 30
0.0
 11
-136.5
 21
10.29999873568204
 31
0.0
  0
LINE
  8
DETAIL
  6
CONTINUOUS
 62
     5
 10
-136.5
 20
9.5999987356822203
 30
0.0
 11
-184.80000000000001
 21
9.5999987356822203
 31
0.0
  0
LINE
  8
DETAIL
  6
CONTINUOUS
 62
     5
 10
-136.5
 20
7.999998735682766
 30
0.0
 11
-184.80000000000001
 21
7.999998735682766
 31
0.0
  0
LINE
  8
DETAIL
  6
CONTINUOUS
 62
     5
 10
-186.40000000000009
 20
7.999998735682766
 30
0.0
 11
-184.80000000000001
 21
7.999998735682766
 31
0.0
  0
LINE
  8
DETAIL
  6
CONTINUOUS
 62
     5
 10
-178.9718048892
 20
-0.4000012643177797
 30
0.0
 11
-136.49332473129019
 21
-0.4000012643177797
 31
0.0
  0
LINE
  8
DETAIL
  6
CONTINUOUS
 62
     5
 10
-136.49999999999989
 20
-114.9000012643174
 30
0.0
 11
-178.97180488919989
 21
-114.9000012643174
 31
0.0
  0
LINE
  8
DETAIL
  6
CONTINUOUS
 62
     5
 10
-186.40000000000001
 20
-123.3000012643171
 30
0.0
 11
-184.80000000000001
 21
-123.3000012643171
 31
0.0
  0
LINE
  8
DETAIL
  6
CONTINUOUS
 62
     5
 10
-184.80000000000001
 20
-123.3000012643171
 30
0.0
 11
-136.49999999999989
 21
-123.3000012643171
 31
0.0
  0
LINE
  8
DETAIL
  6
CONTINUOUS
 62
     5
 10
-184.80000000000001
 20
-124.9000012643174
 30
0.0
 11
-136.49999999999989
 21
-124.9000012643174
 31
0.0
  0
LINE
  8
DETAIL
  6
CONTINUOUS
 62
     5
 10
-184.80000000000001
 20
7.999998735682766
 30
0.0
 11
-181.69072825020001
 21
1.3321439504820769
 31
0.0
  0
ARC
  8
DETAIL
  6
CONTINUOUS
 62
     5
 10
-136.40000000000009
 20
10.29999873568204
 30
0.0
 40
3.0
 50
90.0
 51
180.0
  0
ARC
  8
DETAIL
  6
CONTINUOUS
 62
     5
 10
-178.9718048892
 20
2.5999987356822198
 30
0.0
 40
3.0
 50
205.00000000000361
 51
270.0
  0
ARC
  8
DETAIL
  6
CONTINUOUS
 62
     5
 10
-184.80000000000001
 20
7.999998735682766
 30
0.0
 40
1.6000000000000001
 50
90.0
 51
180.0
  0
ARC
  8
DETAIL
  6
CONTINUOUS
 62
     5
 10
-184.80000000000001
 20
7.999998735682766
 30
0.0
 40
0.8
 50
90.0
 51
180.0
  0
ARC
  8
DETAIL
  6
CONTINUOUS
 62
     5
 10
-178.9718048892
 20
-117.9000012643174
 30
0.0
 40
3.0
 50
90.0
 51
154.99999999999639
  0
ARC
  8
DETAIL
  6
CONTINUOUS
 62
     5
 10
-184.80000000000001
 20
-123.3000012643171
 30
0.0
 40
1.6000000000000001
 50
180.0
 51
270.0
  0
ARC
  8
DETAIL
  6
CONTINUOUS
 62
     5
 10
-184.80000000000001
 20
-123.3000012643171
 30
0.0
 40
0.8
 50
180.0
 51
270.0
  0
LINE
  8
NOTE
  6
CONTINUOUS
 62
     4
 10
-121.5000000001516
 20
-19.999768796179811
 30
0.0
 11
-121.5000000001516
 21
20.000231203820189
 31
0.0
  0
LINE
  8
NOTE
  6
CONTINUOUS
 62
     4
 10
-143.0000000000758
 20
0.0002020987892593
 30
0.0
 11
-100.0000000002274
 21
0.0002322558092374
 31
0.0
  0
CIRCLE
  8
DETAIL
  6
CONTINUOUS
 62
     5
 10
-121.5000000001516
 20
0.0002312038201921
 30
0.0
 40
12.0
  0
LINE
  8
SIZE
  6
CONTINUOUS
 62
    30
 10
156.50000000000011
 20
209.50000000000011
 30
0.0
 11
849.06680528123229
 21
209.5000000000002
 31
0.0
  0
LINE
  8
SIZE
  6
CONTINUOUS
 62
    30
 10
156.50000000000011
 20
-209.50000000000011
 30
0.0
 11
849.06680528123229
 21
-209.5
 31
0.0
  0
LINE
  8
SIZE
  6
CONTINUOUS
 62
    30
 10
829.06680528123229
 20
197.5000000000002
 30
0.0
 11
829.06680528123229
 21
-197.5
 31
0.0
  0
CIRCLE
  8
SIZE
  6
CONTINUOUS
 62
    30
 10
829.06680528123229
 20
209.5000000000002
 30
0.0
 40
6.0
  0
LINE
  8
SIZE
  6
CONTINUOUS
 62
    30
 10
829.06680528123229
 20
209.5000000000002
 30
0.0
 11
829.06680528123229
 21
197.5000000000002
 31
0.0
  0
CIRCLE
  8
SIZE
  6
CONTINUOUS
 62
    30
 10
829.06680528123229
 20
-209.5
 30
0.0
 40
6.0
  0
LINE
  8
SIZE
  6
CONTINUOUS
 62
    30
 10
829.06680528123229
 20
-209.5
 30
0.0
 11
829.06680528123229
 21
-197.5
 31
0.0
  0
TEXT
  8
SIZE
  6
CONTINUOUS
 62
    30
 10
804.06680528123195
 20
-67.199999999999989
 30
0.0
 40
64.0
  1
419
 50
90.0
 41
0.9
 72
     1
 11
804.06680528123195
 21
0.0
 31
0.0
  0
POINT
  8
DEFPOINTS
  6
CONTINUOUS
 62
    30
 10
136.50000000000011
 20
209.50000000000011
 30
0.0
  0
POINT
  8
DEFPOINTS
  6
CONTINUOUS
 62
    30
 10
136.50000000000011
 20
-209.50000000000011
 30
0.0
  0
POINT
  8
DEFPOINTS
  6
CONTINUOUS
 62
    30
 10
829.06680528123229
 20
-209.5
 30
0.0
  0
LINE
  8
SIZE
  6
CONTINUOUS
 62
    30
 10
205.50000000000011
 20
197.00000000000011
 30
0.0
 11
720.83108894986492
 21
197.0000000000002
 31
0.0
  0
LINE
  8
SIZE
  6
CONTINUOUS
 62
    30
 10
205.50000000000011
 20
-197.00000000000011
 30
0.0
 11
720.83108894986492
 21
-197.0
 31
0.0
  0
LINE
  8
SIZE
  6
CONTINUOUS
 62
    30
 10
700.83108894986481
 20
185.0000000000002
 30
0.0
 11
700.83108894986481
 21
-185.0
 31
0.0
  0
CIRCLE
  8
SIZE
  6
CONTINUOUS
 62
    30
 10
700.83108894986481
 20
197.0000000000002
 30
0.0
 40
6.0
  0
LINE
  8
SIZE
  6
CONTINUOUS
 62
    30
 10
700.83108894986481
 20
197.0000000000002
 30
0.0
 11
700.83108894986481
 21
185.0000000000002
 31
0.0
  0
CIRCLE
  8
SIZE
  6
CONTINUOUS
 62
    30
 10
700.83108894986481
 20
-197.0
 30
0.0
 40
6.0
  0
LINE
  8
SIZE
  6
CONTINUOUS
 62
    30
 10
700.83108894986481
 20
-197.0
 30
0.0
 11
700.83108894986481
 21
-185.0
 31
0.0
  0
TEXT
  8
SIZE
  6
CONTINUOUS
 62
    30
 10
675.83108894986469
 20
-75.428571428571416
 30
0.0
 40
64.0
  1
394
 50
90.0
 41
0.9
 72
     1
 11
675.83108894986469
 21
0.0
 31
0.0
  0
POINT
  8
DEFPOINTS
  6
CONTINUOUS
 62
    30
 10
185.50000000000011
 20
197.00000000000011
 30
0.0
  0
POINT
  8
DEFPOINTS
  6
CONTINUOUS
 62
    30
 10
185.50000000000011
 20
-197.00000000000011
 30
0.0
  0
POINT
  8
DEFPOINTS
  6
CONTINUOUS
 62
    30
 10
700.83108894986481
 20
-197.0
 30
0.0
  0
LINE
  8
SIZE
  6
CONTINUOUS
 62
    30
 10
205.50000000000011
 20
177.0000500000001
 30
0.0
 11
593.71503673929783
 21
177.00005000000019
 31
0.0
  0
LINE
  8
SIZE
  6
CONTINUOUS
 62
    30
 10
205.50000000000011
 20
-176.04265000000001
 30
0.0
 11
593.71503673929783
 21
-176.04265000000001
 31
0.0
  0
LINE
  8
SIZE
  6
CONTINUOUS
 62
    30
 10
573.71503673929783
 20
165.0000500000001
 30
0.0
 11
573.71503673929783
 21
-164.04265000000001
 31
0.0
  0
CIRCLE
  8
SIZE
  6
CONTINUOUS
 62
    30
 10
573.71503673929783
 20
177.0000500000001
 30
0.0
 40
6.0
  0
LINE
  8
SIZE
  6
CONTINUOUS
 62
    30
 10
573.71503673929783
 20
177.0000500000001
 30
0.0
 11
573.71503673929783
 21
165.0000500000001
 31
0.0
  0
CIRCLE
  8
SIZE
  6
CONTINUOUS
 62
    30
 10
573.71503673929783
 20
-176.04265000000001
 30
0.0
 40
6.0
  0
LINE
  8
SIZE
  6
CONTINUOUS
 62
    30
 10
573.71503673929783
 20
-176.04265000000001
 30
0.0
 11
573.71503673929783
 21
-164.04265000000001
 31
0.0
  0
TEXT
  8
SIZE
  6
CONTINUOUS
 62
    30
 10
548.71503673929772
 20
-74.057142857142836
 30
0.0
 40
64.0
  1
353
 50
90.0
 41
0.9
 72
     1
 11
548.71503673929772
 21
0.0
 31
0.0
  0
POINT
  8
DEFPOINTS
  6
CONTINUOUS
 62
    30
 10
185.50000000000011
 20
177.0000500000001
 30
0.0
  0
POINT
  8
DEFPOINTS
  6
CONTINUOUS
 62
    30
 10
185.50000000000011
 20
-176.04265000000009
 30
0.0
  0
POINT
  8
DEFPOINTS
  6
CONTINUOUS
 62
    30
 10
573.71503673929783
 20
-176.04265000000001
 30
0.0
  0
LINE
  8
SIZE
  6
CONTINUOUS
 62
    30
 10
160.0
 20
-195.54265000000001
 30
0.0
 11
160.0
 21
-349.36779746819002
 31
0.0
  0
LINE
  8
SIZE
  6
CONTINUOUS
 62
    30
 10
171.0
 20
-195.54265000000001
 30
0.0
 11
171.0
 21
-349.36779746819002
 31
0.0
  0
LINE
  8
SIZE
  6
CONTINUOUS
 62
    30
 10
148.0
 20
-329.36779746819002
 30
0.0
 11
136.0
 21
-329.36779746819002
 31
0.0
  0
LINE
  8
SIZE
  6
CONTINUOUS
 62
    30
 10
183.0
 20
-329.36779746819002
 30
0.0
 11
302.60000000000002
 21
-329.36779746819002
 31
0.0
  0
LINE
  8
SIZE
  6
CONTINUOUS
 62
    30
 10
160.0
 20
-329.36779746819002
 30
0.0
 11
171.0
 21
-329.36779746819002
 31
0.0
  0
CIRCLE
  8
SIZE
  6
CONTINUOUS
 62
    30
 10
160.0
 20
-329.36779746819002
 30
0.0
 40
6.0
  0
LINE
  8
SIZE
  6
CONTINUOUS
 62
    30
 10
160.0
 20
-329.36779746819002
 30
0.0
 11
148.0
 21
-329.36779746819002
 31
0.0
  0
CIRCLE
  8
SIZE
  6
CONTINUOUS
 62
    30
 10
171.0
 20
-329.36779746819002
 30
0.0
 40
6.0
  0
LINE
  8
SIZE
  6
CONTINUOUS
 62
    30
 10
171.0
 20
-329.36779746819002
 30
0.0
 11
183.0
 21
-329.36779746819002
 31
0.0
  0
TEXT
  8
SIZE
  6
CONTINUOUS
 62
    30
 10
220.0
 20
-304.36779746819002
 30
0.0
 40
64.0
  1
11
 41
0.9
 72
     1
 11
248.80000000000001
 21
-304.36779746819002
 31
0.0
  0
POINT
  8
DEFPOINTS
  6
CONTINUOUS
 62
    30
 10
160.0
 20
-175.54265000000001
 30
0.0
  0
POINT
  8
DEFPOINTS
  6
CONTINUOUS
 62
    30
 10
171.0
 20
-175.54265000000001
 30
0.0
  0
POINT
  8
DEFPOINTS
  6
CONTINUOUS
 62
    30
 10
171.0
 20
-329.36779746819002
 30
0.0
  0
LINE
  8
SIZE
  6
CONTINUOUS
 62
    30
 10
185.5
 20
-216.5
 30
0.0
 11
185.5
 21
-452.6443688108684
 31
0.0
  0
LINE
  8
SIZE
  6
CONTINUOUS
 62
    30
 10
165.5
 20
-216.0
 30
0.0
 11
165.5
 21
-452.6443688108684
 31
0.0
  0
LINE
  8
SIZE
  6
CONTINUOUS
 62
    30
 10
153.5
 20
-432.6443688108684
 30
0.0
 11
141.5
 21
-432.6443688108684
 31
0.0
  0
LINE
  8
SIZE
  6
CONTINUOUS
 62
    30
 10
197.5
 20
-432.6443688108684
 30
0.0
 11
352.75714285714281
 21
-432.6443688108684
 31
0.0
  0
LINE
  8
SIZE
  6
CONTINUOUS
 62
    30
 10
165.5
 20
-432.6443688108684
 30
0.0
 11
185.5
 21
-432.6443688108684
 31
0.0
  0
CIRCLE
  8
SIZE
  6
CONTINUOUS
 62
    30
 10
165.5
 20
-432.6443688108684
 30
0.0
 40
6.0
  0
LINE
  8
SIZE
  6
CONTINUOUS
 62
    30
 10
165.5
 20
-432.6443688108684
 30
0.0
 11
153.5
 21
-432.6443688108684
 31
0.0
  0
CIRCLE
  8
SIZE
  6
CONTINUOUS
 62
    30
 10
185.5
 20
-432.6443688108684
 30
0.0
 40
6.0
  0
LINE
  8
SIZE
  6
CONTINUOUS
 62
    30
 10
185.5
 20
-432.6443688108684
 30
0.0
 11
197.5
 21
-432.6443688108684
 31
0.0
  0
TEXT
  8
SIZE
  6
CONTINUOUS
 62
    30
 10
234.49999999999989
 20
-407.6443688108684
 30
0.0
 40
64.0
  1
20
 41
0.9
 72
     1
 11
281.12857142857138
 21
-407.6443688108684
 31
0.0
  0
POINT
  8
DEFPOINTS
  6
CONTINUOUS
 62
    30
 10
185.5
 20
-196.5
 30
0.0
  0
POINT
  8
DEFPOINTS
  6
CONTINUOUS
 62
    30
 10
165.5
 20
-196.0
 30
0.0
  0
POINT
  8
DEFPOINTS
  6
CONTINUOUS
 62
    30
 10
165.5
 20
-432.6443688108684
 30
0.0
  0
LINE
  8
SIZE
  6
CONTINUOUS
 62
    30
 10
205.50000000000011
 20
-156.0
 30
0.0
 11
353.53311500750527
 21
-156.0
 31
0.0
  0
LINE
  8
SIZE
  6
CONTINUOUS
 62
    30
 10
205.50000000000011
 20
-175.99999356691359
 30
0.0
 11
353.53311500750527
 21
-175.99999356691359
 31
0.0
  0
LINE
  8
SIZE
  6
CONTINUOUS
 62
    30
 10
333.53311500750527
 20
-187.99999356691359
 30
0.0
 11
333.53311500750527
 21
-199.99999356691359
 31
0.0
  0
LINE
  8
SIZE
  6
CONTINUOUS
 62
    30
 10
333.53311500750527
 20
-144.0
 30
0.0
 11
333.53311500750527
 21
11.25714285714287
 31
0.0
  0
LINE
  8
SIZE
  6
CONTINUOUS
 62
    30
 10
333.53311500750527
 20
-175.99999356691359
 30
0.0
 11
333.53311500750527
 21
-156.0
 31
0.0
  0
CIRCLE
  8
SIZE
  6
CONTINUOUS
 62
    30
 10
333.53311500750527
 20
-175.99999356691359
 30
0.0
 40
6.0
  0
LINE
  8
SIZE
  6
CONTINUOUS
 62
    30
 10
333.53311500750527
 20
-175.99999356691359
 30
0.0
 11
333.53311500750527
 21
-187.99999356691359
 31
0.0
  0
CIRCLE
  8
SIZE
  6
CONTINUOUS
 62
    30
 10
333.53311500750527
 20
-156.0
 30
0.0
 40
6.0
  0
LINE
  8
SIZE
  6
CONTINUOUS
 62
    30
 10
333.53311500750527
 20
-156.0
 30
0.0
 11
333.53311500750527
 21
-144.0
 31
0.0
  0
TEXT
  8
SIZE
  6
CONTINUOUS
 62
    30
 10
308.53311500750527
 20
-107.0000000000001
 30
0.0
 40
64.0
  1
20
 50
90.0
 41
0.9
 72
     1
 11
308.53311500750527
 21
-60.371428571428652
 31
0.0
  0
POINT
  8
DEFPOINTS
  6
CONTINUOUS
 62
    30
 10
185.50000000000011
 20
-156.00000000000011
 30
0.0
  0
POINT
  8
DEFPOINTS
  6
CONTINUOUS
 62
    30
 10
185.50000000000011
 20
-175.99999356691359
 30
0.0
  0
POINT
  8
DEFPOINTS
  6
CONTINUOUS
 62
    30
 10
333.53311500750527
 20
-175.99999356691359
 30
0.0
  0
LINE
  8
SIZE
  6
CONTINUOUS
 62
    30
 10
205.50000000000011
 20
-156.0
 30
0.0
 11
470.50557092459371
 21
-156.0
 31
0.0
  0
LINE
  8
SIZE
  6
CONTINUOUS
 62
    30
 10
205.50000000000011
 20
-197.00000000000011
 30
0.0
 11
470.50557092459371
 21
-197.00000000000011
 31
0.0
  0
LINE
  8
SIZE
  6
CONTINUOUS
 62
    30
 10
450.50557092459371
 20
-209.00000000000011
 30
0.0
 11
450.50557092459371
 21
-221.00000000000011
 31
0.0
  0
LINE
  8
SIZE
  6
CONTINUOUS
 62
    30
 10
450.50557092459371
 20
-144.0
 30
0.0
 11
450.50557092459371
 21
-1.085714285714289
 31
0.0
  0
LINE
  8
SIZE
  6
CONTINUOUS
 62
    30
 10
450.50557092459371
 20
-197.00000000000011
 30
0.0
 11
450.50557092459371
 21
-156.0
 31
0.0
  0
CIRCLE
  8
SIZE
  6
CONTINUOUS
 62
    30
 10
450.50557092459371
 20
-197.00000000000011
 30
0.0
 40
6.0
  0
LINE
  8
SIZE
  6
CONTINUOUS
 62
    30
 10
450.50557092459371
 20
-197.00000000000011
 30
0.0
 11
450.50557092459371
 21
-209.00000000000011
 31
0.0
  0
CIRCLE
  8
SIZE
  6
CONTINUOUS
 62
    30
 10
450.50557092459371
 20
-156.0
 30
0.0
 40
6.0
  0
LINE
  8
SIZE
  6
CONTINUOUS
 62
    30
 10
450.50557092459371
 20
-156.0
 30
0.0
 11
450.50557092459371
 21
-144.0
 31
0.0
  0
TEXT
  8
SIZE
  6
CONTINUOUS
 62
    30
 10
425.50557092459348
 20
-94.657142857142958
 30
0.0
 40
64.0
  1
41
 50
90.0
 41
0.9
 72
     1
 11
425.50557092459348
 21
-60.37142857142868
 31
0.0
  0
POINT
  8
DEFPOINTS
  6
CONTINUOUS
 62
    30
 10
185.50000000000011
 20
-156.00000000000011
 30
0.0
  0
POINT
  8
DEFPOINTS
  6
CONTINUOUS
 62
    30
 10
185.50000000000011
 20
-197.00000000000011
 30
0.0
  0
POINT
  8
DEFPOINTS
  6
CONTINUOUS
 62
    30
 10
450.50557092459371
 20
-197.00000000000011
 30
0.0
  0
LINE
  8
SIZE
  6
CONTINUOUS
 62
    30
 10
-71.222409058823601
 20
-284.0
 30
0.0
 11
-71.000000000000014
 21
-423.67714553211721
 31
0.0
  0
LINE
  8
SIZE
  6
CONTINUOUS
 62
    30
 10
70.777590941176399
 20
-284.0
 30
0.0
 11
71.0
 21
-423.67714553211721
 31
0.0
  0
LINE
  8
SIZE
  6
CONTINUOUS
 62
    30
 10
59.0
 20
-403.67714553211721
 30
0.0
 11
-59.0
 21
-403.67714553211721
 31
0.0
  0
LINE
  8
SIZE
  6
CONTINUOUS
 62
    30
 10
-71.000000000000014
 20
-403.67714553211721
 30
0.0
 11
-336.74285714285708
 21
-403.67714553211721
 31
0.0
  0
CIRCLE
  8
SIZE
  6
CONTINUOUS
 62
    30
 10
71.0
 20
-403.67714553211721
 30
0.0
 40
6.0
  0
LINE
  8
SIZE
  6
CONTINUOUS
 62
    30
 10
71.0
 20
-403.67714553211721
 30
0.0
 11
59.0
 21
-403.67714553211721
 31
0.0
  0
CIRCLE
  8
SIZE
  6
CONTINUOUS
 62
    30
 10
-71.000000000000014
 20
-403.67714553211721
 30
0.0
 40
6.0
  0
LINE
  8
SIZE
  6
CONTINUOUS
 62
    30
 10
-71.000000000000014
 20
-403.67714553211721
 30
0.0
 11
-59.000000000000028
 21
-403.67714553211721
 31
0.0
  0
TEXT
  8
SIZE
  6
CONTINUOUS
 62
    30
 10
-323.26285714285711
 20
-378.67714553211721
 30
0.0
 40
64.0
  1
φ142
 41
0.9
 72
     1
 11
-214.37142857142859
 21
-378.67714553211721
 31
0.0
  0
POINT
  8
DEFPOINTS
  6
CONTINUOUS
 62
    30
 10
-71.222409058823601
 20
-264.0
 30
0.0
  0
POINT
  8
DEFPOINTS
  6
CONTINUOUS
 62
    30
 10
70.777590941176399
 20
-264.0
 30
0.0
  0
POINT
  8
DEFPOINTS
  6
CONTINUOUS
 62
    30
 10
71.0
 20
-403.67714553211721
 30
0.0
  0
LINE
  8
SIZE
  6
CONTINUOUS
 62
    30
 10
-185.5
 20
217.5
 30
0.0
 11
-185.5
 21
592.47105649307014
 31
0.0
  0
LINE
  8
SIZE
  6
CONTINUOUS
 62
    30
 10
185.5
 20
217.0
 30
0.0
 11
185.5
 21
592.47105649307014
 31
0.0
  0
LINE
  8
SIZE
  6
CONTINUOUS
 62
    30
 10
-173.5
 20
572.47105649307014
 30
0.0
 11
173.5
 21
572.47105649307014
 31
0.0
  0
CIRCLE
  8
SIZE
  6
CONTINUOUS
 62
    30
 10
-185.5
 20
572.47105649307014
 30
0.0
 40
6.0
  0
LINE
  8
SIZE
  6
CONTINUOUS
 62
    30
 10
-185.5
 20
572.47105649307014
 30
0.0
 11
-173.5
 21
572.47105649307014
 31
0.0
  0
CIRCLE
  8
SIZE
  6
CONTINUOUS
 62
    30
 10
185.5
 20
572.47105649307014
 30
0.0
 40
6.0
  0
LINE
  8
SIZE
  6
CONTINUOUS
 62
    30
 10
185.5
 20
572.47105649307014
 30
0.0
 11
173.5
 21
572.47105649307014
 31
0.0
  0
TEXT
  8
SIZE
  6
CONTINUOUS
 62
    30
 10
-61.714285714285701
 20
597.47105649307014
 30
0.0
 40
64.0
  1
371
 41
0.9
 72
     1
 11
0.0
 21
597.47105649307014
 31
0.0
  0
POINT
  8
DEFPOINTS
  6
CONTINUOUS
 62
    30
 10
-185.5
 20
197.5
 30
0.0
  0
POINT
  8
DEFPOINTS
  6
CONTINUOUS
 62
    30
 10
185.5
 20
197.0
 30
0.0
  0
POINT
  8
DEFPOINTS
  6
CONTINUOUS
 62
    30
 10
185.5
 20
572.47105649307014
 30
0.0
  0
LINE
  8
SIZE
  6
CONTINUOUS
 62
    30
 10
165.5
 20
216.5
 30
0.0
 11
165.5
 21
478.1491439538745
 31
0.0
  0
LINE
  8
SIZE
  6
CONTINUOUS
 62
    30
 10
-165.5
 20
217.0
 30
0.0
 11
-165.5
 21
478.1491439538745
 31
0.0
  0
LINE
  8
SIZE
  6
CONTINUOUS
 62
    30
 10
153.5
 20
458.1491439538745
 30
0.0
 11
-153.5
 21
458.1491439538745
 31
0.0
  0
CIRCLE
  8
SIZE
  6
CONTINUOUS
 62
    30
 10
165.5
 20
458.1491439538745
 30
0.0
 40
6.0
  0
LINE
  8
SIZE
  6
CONTINUOUS
 62
    30
 10
165.5
 20
458.1491439538745
 30
0.0
 11
153.5
 21
458.1491439538745
 31
0.0
  0
CIRCLE
  8
SIZE
  6
CONTINUOUS
 62
    30
 10
-165.5
 20
458.1491439538745
 30
0.0
 40
6.0
  0
LINE
  8
SIZE
  6
CONTINUOUS
 62
    30
 10
-165.5
 20
458.1491439538745
 30
0.0
 11
-153.5
 21
458.1491439538745
 31
0.0
  0
TEXT
  8
SIZE
  6
CONTINUOUS
 62
    30
 10
-61.714285714285722
 20
483.1491439538745
 30
0.0
 40
64.0
  1
331
 41
0.9
 72
     1
 11
0.0
 21
483.1491439538745
 31
0.0
  0
POINT
  8
DEFPOINTS
  6
CONTINUOUS
 62
    30
 10
165.5
 20
196.5
 30
0.0
  0
POINT
  8
DEFPOINTS
  6
CONTINUOUS
 62
    30
 10
-165.5
 20
197.0
 30
0.0
  0
POINT
  8
DEFPOINTS
  6
CONTINUOUS
 62
    30
 10
-165.5
 20
458.1491439538745
 30
0.0
  0
TEXT
  8
NOTE
  6
CONTINUOUS
 62
     4
 10
256.60430120550882
 20
270.7923612540651
 30
0.0
 40
64.0
  1
AH
 41
0.9
  0
LINE
  8
NOTE
  6
CONTINUOUS
 62
     4
 10
256.51430120550879
 20
257.99236125406509
 30
0.0
 11
352.60430120550882
 21
257.99236125406509
 31
0.0
  0
LINE
  8
NOTE
  6
CONTINUOUS
 62
     4
 10
188.58838308192469
 20
188.446195443042
 30
0.0
 11
165.5
 21
176.75004999999999
 31
0.0
  0
LINE
  8
NOTE
  6
CONTINUOUS
 62
     4
 10
165.5
 20
176.75004999999999
 30
0.0
 11
179.64702089919669
 21
198.42342193978351
 31
0.0
  0
LINE
  8
NOTE
  6
CONTINUOUS
 62
     4
 10
165.5
 20
176.75004999999999
 30
0.0
 11
202.73540398112141
 21
210.11956738282541
 31
0.0
  0
LINE
  8
NOTE
  6
CONTINUOUS
 62
     4
 10
202.73540398112141
 20
210.11956738282549
 30
0.0
 11
256.15430120550877
 21
257.99236125406509
 31
0.0
  0
LINE
  8
NOTE
  6
CONTINUOUS
 62
     4
 10
256.15430120550877
 20
257.99236125406509
 30
0.0
 11
256.51430120550879
 21
257.99236125406509
 31
0.0
  0
TEXT
  8
NOTE
  6
CONTINUOUS
 62
     4
 10
-549.04780443949676
 20
67.238449042387913
 30
0.0
 40
64.0
  1
D φ21.7
 41
0.9
 72
     2
 11
-223.1963758680682
 21
67.238449042387913
 31
0.0
  0
LINE
  8
NOTE
  6
CONTINUOUS
 62
     4
 10
-223.10637586806811
 20
54.438449042387838
 30
0.0
 11
-560.56780443949685
 21
54.438449042387788
 31
0.0
  0
LINE
  8
NOTE
  6
CONTINUOUS
 62
     4
 10
-140.3466468780552
 20
17.739373038252499
 30
0.0
 11
-121.5000000001516
 21
0.0002312038201921
 31
0.0
  0
LINE
  8
NOTE
  6
CONTINUOUS
 62
     4
 10
-121.5000000001516
 20
0.0002312038201921
 30
0.0
 11
-146.69125483983481
 21
5.9394172730250716
 31
0.0
  0
LINE
  8
NOTE
  6
CONTINUOUS
 62
     4
 10
-121.5000000001516
 20
0.0002312038201921
 30
0.0
 11
-165.53790171773841
 21
23.678559107457371
 31
0.0
  0
LINE
  8
NOTE
  6
CONTINUOUS
 62
     4
 10
-165.53790171773841
 20
23.678559107457371
 30
0.0
 11
-222.7463758680681
 21
54.438449042387838
 31
0.0
  0
LINE
  8
NOTE
  6
CONTINUOUS
 62
     4
 10
-222.7463758680681
 20
54.438449042387838
 30
0.0
 11
-223.10637586806811
 21
54.438449042387838
 31
0.0
  0
LINE
  8
OUTLINE
  6
CONTINUOUS
 62
     3
 10
-185.5
 20
197.0
 30
0.0
 11
-136.5
 21
197.0
 31
0.0
  0
LINE
  8
OUTLINE
  6
CONTINUOUS
 62
     3
 10
-136.5
 20
197.0
 30
0.0
 11
-136.5
 21
209.5
 31
0.0
  0
LINE
  8
OUTLINE
  6
CONTINUOUS
 62
     3
 10
-136.5
 20
209.5
 30
0.0
 11
-78.007142857142867
 21
209.5
 31
0.0
  0
LINE
  8
OUTLINE
  6
CONTINUOUS
 62
     3
 10
-78.007142857142867
 20
209.5
 30
0.0
 11
-71.0
 21
264.0
 31
0.0
  0
LINE
  8
OUTLINE
  6
CONTINUOUS
 62
     3
 10
-71.0
 20
264.0
 30
0.0
 11
71.0
 21
264.0
 31
0.0
  0
LINE
  8
OUTLINE
  6
CONTINUOUS
 62
     3
 10
71.0
 20
264.0
 30
0.0
 11
78.071428571428555
 21
209.0
 31
0.0
  0
LINE
  8
OUTLINE
  6
CONTINUOUS
 62
     3
 10
78.071428571428555
 20
209.0
 30
0.0
 11
136.5
 21
209.0
 31
0.0
  0
LINE
  8
OUTLINE
  6
CONTINUOUS
 62
     3
 10
136.5
 20
209.0
 30
0.0
 11
136.5
 21
197.5
 31
0.0
  0
LINE
  8
OUTLINE
  6
CONTINUOUS
 62
     3
 10
136.5
 20
197.5
 30
0.0
 11
185.5
 21
197.5
 31
0.0
  0
LINE
  8
OUTLINE
  6
CONTINUOUS
 62
     3
 10
185.5
 20
197.5
 30
0.0
 11
185.5
 21
156.5
 31
0.0
  0
LINE
  8
OUTLINE
  6
CONTINUOUS
 62
     3
 10
185.5
 20
156.5
 30
0.0
 11
171.0
 21
156.5
 31
0.0
  0
LINE
  8
OUTLINE
  6
CONTINUOUS
 62
     3
 10
171.0
 20
156.5
 30
0.0
 11
171.0
 21
177.0
 31
0.0
  0
ARC
  8
OUTLINE
  6
CONTINUOUS
 62
     3
 10
165.5
 20
177.0
 30
0.0
 40
5.5
 50
0.0
 51
180.0
  0
LINE
  8
OUTLINE
  6
CONTINUOUS
 62
     3
 10
160.0
 20
177.0
 30
0.0
 11
160.0
 21
156.5
 31
0.0
  0
LINE
  8
OUTLINE
  6
CONTINUOUS
 62
     3
 10
160.0
 20
156.5
 30
0.0
 11
136.5
 21
156.5
 31
0.0
  0
LINE
  8
OUTLINE
  6
CONTINUOUS
 62
     3
 10
136.5
 20
156.5
 30
0.0
 11
136.5
 21
-156.50000000000011
 31
0.0
  0
LINE
  8
OUTLINE
  6
CONTINUOUS
 62
     3
 10
136.5
 20
-156.50000000000011
 30
0.0
 11
160.0
 21
-156.5
 31
0.0
  0
LINE
  8
OUTLINE
  6
CONTINUOUS
 62
     3
 10
160.0
 20
-156.5
 30
0.0
 11
160.0
 21
-177.0
 31
0.0
  0
ARC
  8
OUTLINE
  6
CONTINUOUS
 62
     3
 10
165.5
 20
-177.0
 30
0.0
 40
5.5
 50
180.0
 51
0.0
  0
LINE
  8
OUTLINE
  6
CONTINUOUS
 62
     3
 10
171.0
 20
-177.0
 30
0.0
 11
171.0
 21
-156.5
 31
0.0
  0
LINE
  8
OUTLINE
  6
CONTINUOUS
 62
     3
 10
171.0
 20
-156.5
 30
0.0
 11
185.5
 21
-156.5
 31
0.0
  0
LINE
  8
OUTLINE
  6
CONTINUOUS
 62
     3
 10
185.5
 20
-156.5
 30
0.0
 11
185.5
 21
-197.5
 31
0.0
  0
LINE
  8
OUTLINE
  6
CONTINUOUS
 62
     3
 10
185.5
 20
-197.5
 30
0.0
 11
136.5
 21
-197.5
 31
0.0
  0
LINE
  8
OUTLINE
  6
CONTINUOUS
 62
     3
 10
136.5
 20
-197.5
 30
0.0
 11
136.5
 21
-209.50000000000011
 31
0.0
  0
LINE
  8
OUTLINE
  6
CONTINUOUS
 62
     3
 10
136.5
 20
-209.50000000000011
 30
0.0
 11
77.878571428571462
 21
-209.50000000000011
 31
0.0
  0
LINE
  8
OUTLINE
  6
CONTINUOUS
 62
     3
 10
77.878571428571462
 20
-209.50000000000011
 30
0.0
 11
70.871428571428623
 21
-264.0
 31
0.0
  0
LINE
  8
OUTLINE
  6
CONTINUOUS
 62
     3
 10
70.871428571428623
 20
-264.0
 30
0.0
 11
-71.0
 21
-264.0
 31
0.0
  0
LINE
  8
OUTLINE
  6
CONTINUOUS
 62
     3
 10
-71.0
 20
-264.0
 30
0.0
 11
-78.007142857142753
 21
-209.5
 31
0.0
  0
LINE
  8
OUTLINE
  6
CONTINUOUS
 62
     3
 10
-78.007142857142753
 20
-209.5
 30
0.0
 11
-136.5
 21
-209.49999999999989
 31
0.0
  0
LINE
  8
OUTLINE
  6
CONTINUOUS
 62
     3
 10
-136.5
 20
-209.49999999999989
 30
0.0
 11
-136.5
 21
-197.0
 31
0.0
  0
LINE
  8
OUTLINE
  6
CONTINUOUS
 62
     3
 10
-136.5
 20
-197.0
 30
0.0
 11
-185.5
 21
-197.0
 31
0.0
  0
LINE
  8
OUTLINE
  6
CONTINUOUS
 62
     3
 10
-185.5
 20
-197.0
 30
0.0
 11
-185.5
 21
-156.49999999999989
 31
0.0
  0
LINE
  8
OUTLINE
  6
CONTINUOUS
 62
     3
 10
-185.5
 20
-156.49999999999989
 30
0.0
 11
-171.0
 21
-156.5
 31
0.0
  0
LINE
  8
OUTLINE
  6
CONTINUOUS
 62
     3
 10
-171.0
 20
-156.5
 30
0.0
 11
-171.0
 21
-176.5
 31
0.0
  0
ARC
  8
OUTLINE
  6
CONTINUOUS
 62
     3
 10
-165.5
 20
-176.5
 30
0.0
 40
5.5
 50
180.0
 51
0.0
  0
LINE
  8
OUTLINE
  6
CONTINUOUS
 62
     3
 10
-160.0
 20
-176.5
 30
0.0
 11
-160.0
 21
-156.5
 31
0.0
  0
LINE
  8
OUTLINE
  6
CONTINUOUS
 62
     3
 10
-160.0
 20
-156.5
 30
0.0
 11
-136.5
 21
-156.49999999999989
 31
0.0
  0
LINE
  8
OUTLINE
  6
CONTINUOUS
 62
     3
 10
-136.5
 20
-156.49999999999989
 30
0.0
 11
-136.49999999999989
 21
-124.9000012643174
 31
0.0
  0
LINE
  8
OUTLINE
  6
CONTINUOUS
 62
     3
 10
-136.49999999999989
 20
-124.9000012643174
 30
0.0
 11
-184.80000000000001
 21
-124.9000012643174
 31
0.0
  0
ARC
  8
OUTLINE
  6
CONTINUOUS
 62
     3
 10
-184.79999999999998
 20
-123.30000126431749
 30
0.0
 40
1.599999999999915
 50
180.0
 51
270.0
  0
LINE
  8
OUTLINE
  6
CONTINUOUS
 62
     3
 10
-186.39999999999989
 20
-123.3000012643174
 30
0.0
 11
-186.39999999999989
 21
7.999998735682766
 31
0.0
  0
ARC
  8
OUTLINE
  6
CONTINUOUS
 62
     3
 10
-184.80000000000001
 20
7.9999987356828974
 30
0.0
 40
1.5999999999998913
 50
90.0
 51
180.0
  0
LINE
  8
OUTLINE
  6
CONTINUOUS
 62
     3
 10
-184.80000000000001
 20
9.5999987356827887
 30
0.0
 11
-136.5
 21
9.5999987356822203
 31
0.0
  0
LINE
  8
OUTLINE
  6
CONTINUOUS
 62
     3
 10
-136.5
 20
9.5999987356822203
 30
0.0
 11
-136.5
 21
10.29999873568204
 31
0.0
  0
LINE
  8
OUTLINE
  6
CONTINUOUS
 62
     3
 10
-136.5
 20
10.29999873568204
 30
0.0
 11
-139.40000000000009
 21
10.29999873568204
 31
0.0
  0
ARC
  8
OUTLINE
  6
CONTINUOUS
 62
     3
 10
-136.40000000000003
 20
10.299998735681983
 30
0.0
 40
3.0000000000000555
 50
91.910213171709245
 51
180.0
  0
LINE
  8
OUTLINE
  6
CONTINUOUS
 62
     3
 10
-136.5
 20
13.298331605795029
 30
0.0
 11
-136.5
 21
156.5
 31
0.0
  0
LINE
  8
OUTLINE
  6
CONTINUOUS
 62
     3
 10
-136.5
 20
156.5
 30
0.0
 11
-160.0
 21
156.5
 31
0.0
  0
LINE
  8
OUTLINE
  6
CONTINUOUS
 62
     3
 10
-160.0
 20
156.5
 30
0.0
 11
-160.0
 21
176.5
 31
0.0
  0
ARC
  8
OUTLINE
  6
CONTINUOUS
 62
     3
 10
-165.5
 20
176.5
 30
0.0
 40
5.5
 50
0.0
 51
180.0
  0
LINE
  8
OUTLINE
  6
CONTINUOUS
 62
     3
 10
-171.0
 20
176.5
 30
0.0
 11
-171.0
 21
156.5
 31
0.0
  0
LINE
  8
OUTLINE
  6
CONTINUOUS
 62
     3
 10
-171.0
 20
156.5
 30
0.0
 11
-185.5
 21
156.5
 31
0.0
  0
LINE
  8
OUTLINE
  6
CONTINUOUS
 62
     3
 10
-185.5
 20
156.5
 30
0.0
 11
-185.5
 21
197.0
 31
0.0
  0
ENDSEC
  0
EOF
