  0
SECTION
  2
HEADER
  9
$ACADVER
  1
AC1009
  9
$DWGCODEPAGE
  3
dos932
  9
$INSBASE
 10
0.0
 20
0.0
 30
0.0
  9
$EXTMIN
 10
-836.94486275676718
 20
-804.29076019708373
 30
-0.0015258207003583
  9
$EXTMAX
 10
1155.624401366365
 20
701.43128256480122
 30
0.0000000349246037
  9
$LIMMIN
 10
-2970.0
 20
-2100.0
  9
$LIMMAX
 10
2970.0
 20
2100.0
  9
$ORTHOMODE
 70
     0
  9
$REGENMODE
 70
     1
  9
$FILLMODE
 70
     1
  9
$QTEXTMODE
 70
     0
  9
$MIRRTEXT
 70
     0
  9
$LTSCALE
 40
20.0
  9
$ATTMODE
 70
     1
  9
$TEXTSIZE
 40
64.0
  9
$TRACEWID
 40
0.05
  9
$TEXTSTYLE
  7
STANDARD
  9
$CLAYER
  8
SIZE
  9
$CELTYPE
  6
CONTINUOUS
  9
$CECOLOR
 62
     7
  9
$DIMSCALE
 40
1.0
  9
$DIMASZ
 40
12.0
  9
$DIMEXO
 40
20.0
  9
$DIMDLI
 40
200.0
  9
$DIMRND
 40
0.0
  9
$DIMDLE
 40
0.0
  9
$DIMEXE
 40
20.0
  9
$DIMTP
 40
0.0
  9
$DIMTM
 40
0.0
  9
$DIMTXT
 40
64.0
  9
$DIMCEN
 40
0.09
  9
$DIMTSZ
 40
0.0
  9
$DIMTOL
 70
     0
  9
$DIMLIM
 70
     0
  9
$DIMTIH
 70
     0
  9
$DIMTOH
 70
     0
  9
$DIMSE1
 70
     0
  9
$DIMSE2
 70
     0
  9
$DIMTAD
 70
     1
  9
$DIMZIN
 70
     8
  9
$DIMBLK
  1

  9
$DIMASO
 70
     1
  9
$DIMSHO
 70
     0
  9
$DIMPOST
  1

  9
$DIMAPOST
  1

  9
$DIMALT
 70
     0
  9
$DIMALTD
 70
     2
  9
$DIMALTF
 40
25.399999999999999
  9
$DIMLFAC
 40
1.0
  9
$DIMTOFL
 70
     1
  9
$DIMTVP
 40
0.0
  9
$DIMTIX
 70
     1
  9
$DIMSOXD
 70
     0
  9
$DIMSAH
 70
     0
  9
$DIMBLK1
  1

  9
$DIMBLK2
  1

  9
$DIMSTYLE
  2
STANDARD
  9
$DIMCLRD
 70
     7
  9
$DIMCLRE
 70
     7
  9
$DIMCLRT
 70
     7
  9
$DIMTFAC
 40
1.0
  9
$DIMGAP
 40
25.0
  9
$LUNITS
 70
     2
  9
$LUPREC
 70
     4
  9
$SKETCHINC
 40
0.1
  9
$FILLETRAD
 40
3.0
  9
$AUNITS
 70
     1
  9
$AUPREC
 70
     3
  9
$MENU
  1
ACAD
  9
$ELEVATION
 40
0.0
  9
$PELEVATION
 40
0.0
  9
$THICKNESS
 40
50.0
  9
$LIMCHECK
 70
     0
  9
$CHAMFERA
 40
0.0
  9
$CHAMFERB
 40
0.0
  9
$SKPOLY
 70
     0
  9
$TDCREATE
 40
2453019.62301037
  9
$TDUPDATE
 40
2458659.371010717
  9
$TDINDWG
 40
1.7540321875
  9
$TDUSRTIMER
 40
1.7540321875
  9
$USRTIMER
 70
     1
  9
$ANGBASE
 50
0.0
  9
$ANGDIR
 70
     0
  9
$PDMODE
 70
     3
  9
$PDSIZE
 40
-2.0
  9
$PLINEWID
 40
0.0
  9
$SPLFRAME
 70
     0
  9
$SPLINETYPE
 70
     6
  9
$SPLINESEGS
 70
     8
  9
$SURFTAB1
 70
     6
  9
$SURFTAB2
 70
     6
  9
$SURFTYPE
 70
     6
  9
$SURFU
 70
     6
  9
$SURFV
 70
     6
  9
$UCSNAME
  2

  9
$UCSORG
 10
0.0
 20
0.0
 30
0.0
  9
$UCSXDIR
 10
1.0
 20
0.0
 30
0.0
  9
$UCSYDIR
 10
0.0
 20
1.0
 30
0.0
  9
$PUCSNAME
  2

  9
$PUCSORG
 10
0.0
 20
0.0
 30
0.0
  9
$PUCSXDIR
 10
1.0
 20
0.0
 30
0.0
  9
$PUCSYDIR
 10
0.0
 20
1.0
 30
0.0
  9
$USERI1
 70
     0
  9
$USERI2
 70
     0
  9
$USERI3
 70
     0
  9
$USERI4
 70
     0
  9
$USERI5
 70
     0
  9
$USERR1
 40
20.0
  9
$USERR2
 40
0.0
  9
$USERR3
 40
0.0
  9
$USERR4
 40
0.0
  9
$USERR5
 40
0.0
  9
$WORLDVIEW
 70
     1
  9
$SHADEDGE
 70
     3
  9
$SHADEDIF
 70
    70
  9
$TILEMODE
 70
     1
  9
$MAXACTVP
 70
    48
  9
$PINSBASE
 10
0.0
 20
0.0
 30
0.0
  9
$PLIMCHECK
 70
     0
  9
$PEXTMIN
 10
-100000000000000000000.0
 20
-100000000000000000000.0
 30
-100000000000000000000.0
  9
$PEXTMAX
 10
100000000000000000000.0
 20
100000000000000000000.0
 30
100000000000000000000.0
  9
$PLIMMIN
 10
0.0
 20
0.0
  9
$PLIMMAX
 10
12.0
 20
9.0
  9
$UNITMODE
 70
     0
  9
$VISRETAIN
 70
     0
  9
$PLINEGEN
 70
     0
  9
$PSLTSCALE
 70
     0
  9
$TREEDEPTH
 70
  3020
  9
$ATTDIA
 70
     0
  9
$ATTREQ
 70
     1
  9
$BLIPMODE
 70
     1
  9
$COORDS
 70
     1
  9
$DRAGMODE
 70
     2
  9
$OSMODE
 70
     0
  9
$HANDLING
 70
     0
  9
$HANDSEED
  5
F356
  0
ENDSEC
  0
SECTION
  2
TABLES
  0
TABLE
  2
LTYPE
 70
     2
  0
LTYPE
  2
CONTINUOUS
 70
     0
  3
実線
 72
    65
 73
     0
 40
0.0
  0
LTYPE
  2
DASHDOT
 70
     0
  3
____ _ ____ _ ____ _ ____ _ ____ _ ____ _ ____
 72
    65
 73
     4
 40
5.5
 49
4.0
 49
-0.6
 49
0.3
 49
-0.6
  0
ENDTAB
  0
TABLE
  2
LAYER
 70
    12
  0
LAYER
  2
0
 70
     0
 62
     7
  6
CONTINUOUS
  0
LAYER
  2
BASIS
 70
     0
 62
     6
  6
DASHDOT
  0
LAYER
  2
OUTLINE
 70
     0
 62
     3
  6
CONTINUOUS
  0
LAYER
  2
DETAIL
 70
     0
 62
     5
  6
CONTINUOUS
  0
LAYER
  2
SIZE
 70
     0
 62
    30
  6
CONTINUOUS
  0
LAYER
  2
ARRANGE
 70
     0
 62
     1
  6
CONTINUOUS
  0
LAYER
  2
DEFPOINTS
 70
     0
 62
     7
  6
CONTINUOUS
  0
LAYER
  2
ETC
 70
     0
 62
    61
  6
CONTINUOUS
  0
LAYER
  2
FIX
 70
     0
 62
    11
  6
CONTINUOUS
  0
LAYER
  2
NOTE
 70
     0
 62
     4
  6
CONTINUOUS
  0
LAYER
  2
SERVICESPACE
 70
    64
 62
     2
  6
DASHDOT
  0
LAYER
  2
SYMBOLLINE
 70
    64
 62
    15
  6
CONTINUOUS
  0
ENDTAB
  0
TABLE
  2
STYLE
 70
     1
  0
STYLE
  2
STANDARD
 70
     0
 40
64.0
 41
0.9
 50
0.0
 71
     0
 42
64.0
  3
SIMPLEX.shx
  4
BIGFONT.shx
  0
ENDTAB
  0
TABLE
  2
APPID
 70
    17
  0
APPID
  2
ACAD
 70
     0
  0
APPID
  2
AUTOCAD_POSTSCRIPT_FIGURE
 70
     0
  0
APPID
  2
ACAD_EXEMPT_FROM_CAD_STANDARDS
 70
     0
  0
APPID
  2
ACAD_PSEXT
 70
     0
  0
APPID
  2
ACAUTHENVIRON
 70
     0
  0
APPID
  2
GENIUS_GENOENT_13
 70
     0
  0
APPID
  2
GENIUS_GENCFG_13
 70
     0
  0
APPID
  2
GENIUS_GENCFG0_13
 70
     0
  0
APPID
  2
GENIUS_GENCFG1_13
 70
     0
  0
APPID
  2
GENIUS_GENCFG2_13
 70
     0
  0
APPID
  2
GENIUS_GENCFG3_13
 70
     0
  0
APPID
  2
GENIUS_GENCFG4_13
 70
     0
  0
APPID
  2
GENIUS_GEVCFG0_13
 70
     0
  0
APPID
  2
CONTENTBLOCKICON
 70
     0
  0
APPID
  2
CONTENTBLOCKDESCRIPTION
 70
     0
  0
APPID
  2
ACAD_NAV_VCDISPLAY
 70
     0
  0
APPID
  2
ACAD_MLEADERVER
 70
     0
  0
ENDTAB
  0
TABLE
  2
DIMSTYLE
 70
     1
  0
DIMSTYLE
  2
STANDARD
 70
     0
  3

  4

  5
_ORIGIN
  6

  7

 40
1.0
 41
12.0
 42
20.0
 43
200.0
 44
20.0
 45
0.0
 46
0.0
 47
0.0
 48
0.0
140
64.0
141
0.09
142
0.0
143
25.399999999999999
144
1.0
145
0.0
146
1.0
147
25.0
 71
     0
 72
     0
 73
     0
 74
     0
 75
     0
 76
     0
 77
     1
 78
     8
170
     0
171
     2
172
     1
173
     0
174
     1
175
     0
176
     7
177
     7
178
     7
  0
ENDTAB
  0
TABLE
  2
VIEW
 70
     1
  0
VIEW
  2
ALL
 70
     0
 40
4282.6198079999986
 10
0.0
 20
41.309904000000003
 41
5940.0
 11
0.0
 21
0.0
 31
1.0
 12
0.0
 22
0.0
 32
0.0
 42
50.0
 43
0.0
 44
0.0
 50
0.0
 71
     0
  0
ENDTAB
  0
TABLE
  2
UCS
 70
     0
  0
ENDTAB
  0
TABLE
  2
VPORT
 70
     1
  0
VPORT
  2
*ACTIVE
 70
     0
 10
0.0
 20
0.0
 11
1.0
 21
1.0
 12
158.91993858407611
 22
178.13881461898561
 13
0.0
 23
0.0
 14
1.0
 24
1.0
 15
0.0
 25
0.0
 16
0.0
 26
0.0
 36
1.0
 17
0.0
 27
0.0
 37
0.0
 40
2423.92727318878
 41
1.996865203761756
 42
50.0
 43
0.0
 44
0.0
 50
0.0
 51
0.0
 71
     0
 72
  1000
 73
     1
 74
     3
 75
     0
 76
     0
 77
     0
 78
     0
  0
ENDTAB
  0
ENDSEC
  0
SECTION
  2
BLOCKS
  0
BLOCK
  8
0
  2
_ORIGIN
 70
     0
 10
0.0
 20
0.0
 30
0.0
  3
_ORIGIN
  1
_ORIGIN
  0
CIRCLE
  8
0
  6
CONTINUOUS
 62
     7
 10
0.0
 20
0.0
 30
0.0
 40
0.5
  0
LINE
  8
0
  6
CONTINUOUS
 62
     7
 10
0.0
 20
0.0
 30
0.0
 11
-1.0
 21
0.0
 31
0.0
  0
ENDBLK
  8
0
  0
ENDSEC
  0
SECTION
  2
ENTITIES
  0
LINE
  8
OUTLINE
  6
CONTINUOUS
 62
     3
 10
162.494631
 20
-211.5
 30
0.0
 11
-162.505369
 21
-211.5
 31
0.0
  0
LINE
  8
OUTLINE
  6
CONTINUOUS
 62
     3
 10
-162.505369
 20
211.5
 30
0.0
 11
162.494631
 21
211.5
 31
0.0
  0
LINE
  8
SIZE
  6
CONTINUOUS
 62
    30
 10
162.5
 20
-224.33973700000001
 30
0.0
 11
162.5
 21
-600.42343300000005
 31
0.0
  0
LINE
  8
SIZE
  6
CONTINUOUS
 62
    30
 10
-162.5
 20
-225.50369656146631
 30
0.0
 11
-162.5
 21
-600.42343300000005
 31
0.0
  0
LINE
  8
SIZE
  6
CONTINUOUS
 62
    30
 10
160.5
 20
-570.42343300000005
 30
0.0
 11
-160.5
 21
-570.42343300000005
 31
0.0
  0
CIRCLE
  8
SIZE
  6
CONTINUOUS
 62
    30
 10
162.5
 20
-570.42343300000005
 30
0.0
 40
6.0
  0
CIRCLE
  8
SIZE
  6
CONTINUOUS
 62
    30
 10
-162.5
 20
-570.42343300000005
 30
0.0
 40
6.0
  0
TEXT
  8
SIZE
  6
CONTINUOUS
 62
    30
 10
-74.05714285714285
 20
-550.42343300000005
 30
0.0
 40
64.0
  1
325
 41
0.9
 72
     1
 11
0.0
 21
-550.42343300000005
 31
0.0
  0
POINT
  8
DEFPOINTS
  6
CONTINUOUS
 62
    30
 10
162.5
 20
-204.33973700000001
 30
0.0
  0
POINT
  8
DEFPOINTS
  6
CONTINUOUS
 62
    30
 10
-162.5
 20
-190.58280099999999
 30
0.0
  0
POINT
  8
DEFPOINTS
  6
CONTINUOUS
 62
    30
 10
-162.5
 20
-570.42343300000005
 30
0.0
  0
LINE
  8
SIZE
  6
CONTINUOUS
 62
    30
 10
-200.49996300000001
 20
-231.42746793556759
 30
0.0
 11
-200.49996300000001
 21
-704.38437999999996
 31
0.0
  0
LINE
  8
SIZE
  6
CONTINUOUS
 62
    30
 10
200.49999900000009
 20
-235.13815878165499
 30
0.0
 11
200.49999900000009
 21
-704.38437999999996
 31
0.0
  0
LINE
  8
SIZE
  6
CONTINUOUS
 62
    30
 10
-198.49996300000001
 20
-674.38437999999996
 30
0.0
 11
198.49999900000009
 21
-674.38437999999996
 31
0.0
  0
CIRCLE
  8
SIZE
  6
CONTINUOUS
 62
    30
 10
-200.49996300000001
 20
-674.38437999999996
 30
0.0
 40
6.0
  0
CIRCLE
  8
SIZE
  6
CONTINUOUS
 62
    30
 10
200.49999900000009
 20
-674.38437999999996
 30
0.0
 40
6.0
  0
TEXT
  8
SIZE
  6
CONTINUOUS
 62
    30
 10
-61.714267714285747
 20
-654.38437999999996
 30
0.0
 40
64.0
  1
401
 41
0.9
 72
     1
 11
0.0000179999999546
 21
-654.38437999999996
 31
0.0
  0
POINT
  8
DEFPOINTS
  6
CONTINUOUS
 62
    30
 10
-200.49996300000001
 20
-193.99999800000001
 30
0.0
  0
POINT
  8
DEFPOINTS
  6
CONTINUOUS
 62
    30
 10
200.49999900000009
 20
-193.99999800000001
 30
0.0
  0
POINT
  8
DEFPOINTS
  6
CONTINUOUS
 62
    30
 10
200.49999900000009
 20
-674.38437999999996
 30
0.0
  0
LINE
  8
SIZE
  6
CONTINUOUS
 62
    30
 10
220.5
 20
-223.40304399999999
 30
0.0
 11
220.5
 21
-803.97369400000002
 31
0.0
  0
LINE
  8
SIZE
  6
CONTINUOUS
 62
    30
 10
-220.5
 20
-223.40304399999999
 30
0.0
 11
-220.5
 21
-803.97369400000002
 31
0.0
  0
LINE
  8
SIZE
  6
CONTINUOUS
 62
    30
 10
218.5
 20
-773.97369400000002
 30
0.0
 11
-218.5
 21
-773.97369400000002
 31
0.0
  0
CIRCLE
  8
SIZE
  6
CONTINUOUS
 62
    30
 10
220.5
 20
-773.97369400000002
 30
0.0
 40
6.0
  0
CIRCLE
  8
SIZE
  6
CONTINUOUS
 62
    30
 10
-220.5
 20
-773.97369400000002
 30
0.0
 40
6.0
  0
TEXT
  8
SIZE
  6
CONTINUOUS
 62
    30
 10
-61.714285714285708
 20
-753.97369400000002
 30
0.0
 40
64.0
  1
441
 41
0.9
 72
     1
 11
0.0
 21
-753.97369400000002
 31
0.0
  0
POINT
  8
DEFPOINTS
  6
CONTINUOUS
 62
    30
 10
220.5
 20
-203.40304399999999
 30
0.0
  0
POINT
  8
DEFPOINTS
  6
CONTINUOUS
 62
    30
 10
-220.5
 20
-203.40304399999999
 30
0.0
  0
POINT
  8
DEFPOINTS
  6
CONTINUOUS
 62
    30
 10
-220.5
 20
-773.97369400000002
 30
0.0
  0
LINE
  8
DETAIL
  6
CONTINUOUS
 62
     5
 10
-162.5
 20
211.5
 30
0.0
 11
162.5
 21
211.5
 31
0.0
  0
LINE
  8
DETAIL
  6
CONTINUOUS
 62
     5
 10
-95.994631000000027
 20
296.5
 30
0.0
 11
96.005368999999973
 21
296.5
 31
0.0
  0
LINE
  8
DETAIL
  6
CONTINUOUS
 62
     5
 10
-96.892761000000064
 20
287.01441699999992
 30
0.0
 11
96.892761000000064
 21
287.01441699999992
 31
0.0
  0
LINE
  8
DETAIL
  6
CONTINUOUS
 62
     5
 10
-103.6098259999999
 20
215.64560099999991
 30
0.0
 11
103.6128859999999
 21
215.61308799999989
 31
0.0
  0
LINE
  8
DETAIL
  6
CONTINUOUS
 62
     5
 10
-103.6113559999999
 20
-215.64560099999991
 30
0.0
 11
103.6113559999999
 21
-215.61308799999989
 31
0.0
  0
LINE
  8
DETAIL
  6
CONTINUOUS
 62
     5
 10
-95.996161000000029
 20
-296.5
 30
0.0
 11
96.003838999999971
 21
-296.5
 31
0.0
  0
LINE
  8
DETAIL
  6
CONTINUOUS
 62
     5
 10
-96.894291000000067
 20
-287.01441699999998
 30
0.0
 11
96.891231000000062
 21
-287.01441699999998
 31
0.0
  0
LINE
  8
DETAIL
  6
CONTINUOUS
 62
     5
 10
162.5
 20
-211.5
 30
0.0
 11
-162.5
 21
-211.5
 31
0.0
  0
LINE
  8
SIZE
  6
CONTINUOUS
 62
    30
 10
104.0
 20
264.0
 30
0.0
 11
104.0
 21
631.29127599999993
 31
0.0
  0
LINE
  8
SIZE
  6
CONTINUOUS
 62
    30
 10
-104.0
 20
264.0
 30
0.0
 11
-104.0
 21
631.29127599999993
 31
0.0
  0
LINE
  8
SIZE
  6
CONTINUOUS
 62
    30
 10
106.0
 20
601.29127599999993
 30
0.0
 11
108.0
 21
601.29127599999993
 31
0.0
  0
LINE
  8
SIZE
  6
CONTINUOUS
 62
    30
 10
-106.0
 20
601.29127599999993
 30
0.0
 11
-108.0
 21
601.29127599999993
 31
0.0
  0
LINE
  8
SIZE
  6
CONTINUOUS
 62
    30
 10
104.0
 20
601.29127599999993
 30
0.0
 11
-348.32037773714552
 21
601.29127599999993
 31
0.0
  0
CIRCLE
  8
SIZE
  6
CONTINUOUS
 62
    30
 10
104.0
 20
601.29127599999993
 30
0.0
 40
6.0
  0
CIRCLE
  8
SIZE
  6
CONTINUOUS
 62
    30
 10
-104.0
 20
601.29127599999993
 30
0.0
 40
6.0
  0
TEXT
  8
SIZE
  6
CONTINUOUS
 62
    30
 10
-351.80453822021917
 20
621.29127599999993
 30
0.0
 40
64.0
  1
φ208
 41
0.9
 72
     1
 11
-237.42739536307641
 21
621.29127599999993
 31
0.0
  0
POINT
  8
DEFPOINTS
  6
CONTINUOUS
 62
    30
 10
104.0
 20
244.0
 30
0.0
  0
POINT
  8
DEFPOINTS
  6
CONTINUOUS
 62
    30
 10
-104.0
 20
244.0
 30
0.0
  0
POINT
  8
DEFPOINTS
  6
CONTINUOUS
 62
    30
 10
-104.0
 20
601.29127599999993
 30
0.0
  0
LINE
  8
SIZE
  6
CONTINUOUS
 62
    30
 10
-95.994631000000027
 20
349.0
 30
0.0
 11
-95.994631000000027
 21
520.58512199999996
 31
0.0
  0
LINE
  8
SIZE
  6
CONTINUOUS
 62
    30
 10
96.005368999999973
 20
349.0
 30
0.0
 11
96.005368999999973
 21
520.58512199999996
 31
0.0
  0
LINE
  8
SIZE
  6
CONTINUOUS
 62
    30
 10
-97.994631000000027
 20
490.58512200000001
 30
0.0
 11
-99.994631000000027
 21
490.58512200000001
 31
0.0
  0
LINE
  8
SIZE
  6
CONTINUOUS
 62
    30
 10
98.005368999999973
 20
490.58512200000001
 30
0.0
 11
100.005369
 21
490.58512200000001
 31
0.0
  0
LINE
  8
SIZE
  6
CONTINUOUS
 62
    30
 10
-342.66256479347072
 20
490.58512200000001
 30
0.0
 11
96.005368999999973
 21
490.58512200000001
 31
0.0
  0
CIRCLE
  8
SIZE
  6
CONTINUOUS
 62
    30
 10
-95.994631000000027
 20
490.58512200000001
 30
0.0
 40
6.0
  0
CIRCLE
  8
SIZE
  6
CONTINUOUS
 62
    30
 10
96.005368999999973
 20
490.58512200000001
 30
0.0
 40
6.0
  0
TEXT
  8
SIZE
  6
CONTINUOUS
 62
    30
 10
-346.31882393450491
 20
510.58512200000001
 30
0.0
 40
64.0
  1
φ192
 41
0.9
 72
     1
 11
-237.42739536307641
 21
510.58512200000001
 31
0.0
  0
POINT
  8
DEFPOINTS
  6
CONTINUOUS
 62
    30
 10
-95.994631000000027
 20
329.0
 30
0.0
  0
POINT
  8
DEFPOINTS
  6
CONTINUOUS
 62
    30
 10
96.005368999999973
 20
329.0
 30
0.0
  0
POINT
  8
DEFPOINTS
  6
CONTINUOUS
 62
    30
 10
96.005368999999973
 20
490.58512200000001
 30
0.0
  0
CIRCLE
  8
ARRANGE
  6
CONTINUOUS
 62
     1
 10
0.0
 20
0.0
 30
0.0
 40
44.210526000000002
  0
POINT
  8
ARRANGE
  6
CONTINUOUS
 62
     1
 10
0.0
 20
0.0
 30
0.0
  0
LINE
  8
BASIS
  6
DASHDOT
 62
     6
 10
-298.23421100000002
 20
0.0
 30
0.0
 11
298.23421100000002
 21
0.0
 31
0.0
  0
LINE
  8
OUTLINE
  6
CONTINUOUS
 62
     3
 10
-162.505369
 20
-211.5
 30
0.0
 11
-162.505369
 21
211.5
 31
0.0
  0
LINE
  8
SIZE
  6
CONTINUOUS
 62
    30
 10
-235.22566400000011
 20
214.5
 30
0.0
 11
-625.34323499999982
 21
214.5
 31
0.0
  0
LINE
  8
SIZE
  6
CONTINUOUS
 62
    30
 10
-234.254187
 20
-214.5
 30
0.0
 11
-625.34323499999982
 21
-214.5
 31
0.0
  0
LINE
  8
SIZE
  6
CONTINUOUS
 62
    30
 10
-595.34323499999982
 20
212.5
 30
0.0
 11
-595.34323499999982
 21
-212.5
 31
0.0
  0
CIRCLE
  8
SIZE
  6
CONTINUOUS
 62
    30
 10
-595.34323499999982
 20
214.5
 30
0.0
 40
6.0
  0
CIRCLE
  8
SIZE
  6
CONTINUOUS
 62
    30
 10
-595.34323499999982
 20
-214.5
 30
0.0
 40
6.0
  0
TEXT
  8
SIZE
  6
CONTINUOUS
 62
    30
 10
-615.34323499999982
 20
-72.685714285714283
 30
0.0
 40
64.0
  1
429
 50
90.0
 41
0.9
 72
     1
 11
-615.34323499999982
 21
0.0
 31
0.0
  0
POINT
  8
DEFPOINTS
  6
CONTINUOUS
 62
    30
 10
-215.22566400000011
 20
214.5
 30
0.0
  0
POINT
  8
DEFPOINTS
  6
CONTINUOUS
 62
    30
 10
-214.254187
 20
-214.5
 30
0.0
  0
POINT
  8
DEFPOINTS
  6
CONTINUOUS
 62
    30
 10
-595.34323499999982
 20
-214.5
 30
0.0
  0
LINE
  8
SIZE
  6
CONTINUOUS
 62
    30
 10
-166.8694970139895
 20
211.5
 30
0.0
 11
-481.09675099999998
 21
211.5
 31
0.0
  0
LINE
  8
SIZE
  6
CONTINUOUS
 62
    30
 10
-167.46970599999989
 20
-211.5
 30
0.0
 11
-481.09675099999998
 21
-211.5
 31
0.0
  0
LINE
  8
SIZE
  6
CONTINUOUS
 62
    30
 10
-451.09675099999998
 20
209.5
 30
0.0
 11
-451.09675099999998
 21
-209.5
 31
0.0
  0
CIRCLE
  8
SIZE
  6
CONTINUOUS
 62
    30
 10
-451.09675099999998
 20
211.5
 30
0.0
 40
6.0
  0
CIRCLE
  8
SIZE
  6
CONTINUOUS
 62
    30
 10
-451.09675099999998
 20
-211.5
 30
0.0
 40
6.0
  0
TEXT
  8
SIZE
  6
CONTINUOUS
 62
    30
 10
-471.09675099999998
 20
-74.057142857142836
 30
0.0
 40
64.0
  1
423
 50
90.0
 41
0.9
 72
     1
 11
-471.09675099999998
 21
0.0
 31
0.0
  0
POINT
  8
DEFPOINTS
  6
CONTINUOUS
 62
    30
 10
-143.38462100000021
 20
211.5
 30
0.0
  0
POINT
  8
DEFPOINTS
  6
CONTINUOUS
 62
    30
 10
-147.46970599999989
 20
-211.5
 30
0.0
  0
POINT
  8
DEFPOINTS
  6
CONTINUOUS
 62
    30
 10
-451.09675099999998
 20
-211.5
 30
0.0
  0
LINE
  8
SIZE
  6
CONTINUOUS
 62
    30
 10
-232.2492173853243
 20
193.999999
 30
0.0
 11
-350.68131299999999
 21
193.999999
 31
0.0
  0
LINE
  8
SIZE
  6
CONTINUOUS
 62
    30
 10
-220.49996300000001
 20
-193.99999800000001
 30
0.0
 11
-350.68131299999999
 21
-193.99999800000001
 31
0.0
  0
LINE
  8
SIZE
  6
CONTINUOUS
 62
    30
 10
-320.68131299999999
 20
191.999999
 30
0.0
 11
-320.68131299999999
 21
-191.99999800000001
 31
0.0
  0
CIRCLE
  8
SIZE
  6
CONTINUOUS
 62
    30
 10
-320.68131299999999
 20
193.999999
 30
0.0
 40
6.0
  0
CIRCLE
  8
SIZE
  6
CONTINUOUS
 62
    30
 10
-320.68131299999999
 20
-193.99999800000001
 30
0.0
 40
6.0
  0
TEXT
  8
SIZE
  6
CONTINUOUS
 62
    30
 10
-340.68131299999999
 20
-74.057142857142836
 30
0.0
 40
64.0
  1
388
 50
90.0
 41
0.9
 72
     1
 11
-340.68131299999999
 21
0.0
 31
0.0
  0
POINT
  8
DEFPOINTS
  6
CONTINUOUS
 62
    30
 10
-200.49999900000009
 20
193.999999
 30
0.0
  0
POINT
  8
DEFPOINTS
  6
CONTINUOUS
 62
    30
 10
-200.49996300000001
 20
-193.99999800000001
 30
0.0
  0
POINT
  8
DEFPOINTS
  6
CONTINUOUS
 62
    30
 10
-320.68131299999999
 20
-193.99999800000001
 30
0.0
  0
LINE
  8
DETAIL
  6
CONTINUOUS
 62
     5
 10
-162.5
 20
-211.5
 30
0.0
 11
-162.5
 21
211.5
 31
0.0
  0
LINE
  8
BASIS
  6
DASHDOT
 62
     6
 10
0.0
 20
-447.69740999999999
 30
0.0
 11
0.0
 21
447.69740999999999
 31
0.0
  0
LINE
  8
SIZE
  6
CONTINUOUS
 62
    30
 10
-124.00153
 20
-296.5
 30
0.0
 11
-481.09675099999998
 21
-296.5
 31
0.0
  0
LINE
  8
SIZE
  6
CONTINUOUS
 62
    30
 10
-168.34112879413439
 20
-211.5
 30
0.0
 11
-481.09675099999998
 21
-211.5
 31
0.0
  0
LINE
  8
SIZE
  6
CONTINUOUS
 62
    30
 10
-451.09675099999998
 20
-294.5
 30
0.0
 11
-451.09675099999998
 21
-213.5
 31
0.0
  0
LINE
  8
SIZE
  6
CONTINUOUS
 62
    30
 10
-451.09675099999998
 20
-463.01884999999999
 30
0.0
 11
-451.09675099999998
 21
-296.5
 31
0.0
  0
TEXT
  8
SIZE
  6
CONTINUOUS
 62
    30
 10
-471.09675099999998
 20
-443.01885042857151
 30
0.0
 40
64.0
  1
85
 50
90.0
 41
0.9
 72
     1
 11
-471.09675099999998
 21
-396.39027900000002
 31
0.0
  0
CIRCLE
  8
SIZE
  6
CONTINUOUS
 62
    30
 10
-451.09675099999998
 20
-296.5
 30
0.0
 40
6.0
  0
CIRCLE
  8
SIZE
  6
CONTINUOUS
 62
    30
 10
-451.09675099999998
 20
-211.5
 30
0.0
 40
6.0
  0
POINT
  8
DEFPOINTS
  6
CONTINUOUS
 62
    30
 10
-104.00153
 20
-296.5
 30
0.0
  0
POINT
  8
DEFPOINTS
  6
CONTINUOUS
 62
    30
 10
-104.00153
 20
-211.5
 30
0.0
  0
POINT
  8
DEFPOINTS
  6
CONTINUOUS
 62
    30
 10
-451.09675099999998
 20
-211.5
 30
0.0
  0
LINE
  8
DETAIL
  6
CONTINUOUS
 62
     5
 10
-195.0
 20
-174.0
 30
0.0
 11
-162.5
 21
-174.0
 31
0.0
  0
LINE
  8
DETAIL
  6
CONTINUOUS
 62
     5
 10
-131.78065100000001
 20
-214.5
 30
0.0
 11
-220.5
 21
-214.5
 31
0.0
  0
LINE
  8
DETAIL
  6
CONTINUOUS
 62
     5
 10
-185.99267900000001
 20
-215.0
 30
0.0
 11
-155.99267900000001
 21
-215.0
 31
0.0
  0
LINE
  8
DETAIL
  6
CONTINUOUS
 62
     5
 10
-220.5
 20
-174.0
 30
0.0
 11
-206.0
 21
-174.0
 31
0.0
  0
LINE
  8
NOTE
  6
CONTINUOUS
 62
     4
 10
-178.39470000000011
 20
-193.99999800000001
 30
0.0
 11
-222.60522700000001
 21
-193.99999800000001
 31
0.0
  0
LINE
  8
DETAIL
  6
CONTINUOUS
 62
     5
 10
-220.5
 20
-174.0
 30
0.0
 11
-220.5
 21
-214.5
 31
0.0
  0
LINE
  8
NOTE
  6
CONTINUOUS
 62
     4
 10
-200.49996300000001
 20
-216.1052609999999
 30
0.0
 11
-200.49996300000001
 21
-171.894735
 31
0.0
  0
LINE
  8
DETAIL
  6
CONTINUOUS
 62
     5
 10
-185.99264500000001
 20
-215.0
 30
0.0
 11
-185.99264500000001
 21
-214.5
 31
0.0
  0
ARC
  8
DETAIL
  6
CONTINUOUS
 62
     5
 10
-200.49996300000001
 20
-193.99999600000001
 30
0.0
 40
5.5000019999999994
 50
180.000020000002
 51
359.99995900000113
  0
CIRCLE
  8
FIX
  6
CONTINUOUS
 62
    11
 10
-200.49996300000001
 20
-193.99999800000001
 30
0.0
 40
5.5
  0
LINE
  8
DETAIL
  6
CONTINUOUS
 62
     5
 10
-206.0
 20
-174.0
 30
0.0
 11
-206.0
 21
-194.0
 31
0.0
  0
LINE
  8
DETAIL
  6
CONTINUOUS
 62
     5
 10
-195.0
 20
-174.0
 30
0.0
 11
-194.99999600000001
 21
-194.0
 31
0.0
  0
LINE
  8
DETAIL
  6
CONTINUOUS
 62
     5
 10
-131.78065100000001
 20
-214.5
 30
0.0
 11
-131.78065100000001
 21
-211.5
 31
0.0
  0
LINE
  8
DETAIL
  6
CONTINUOUS
 62
     5
 10
-155.99267900000001
 20
-215.0
 30
0.0
 11
-155.99267900000001
 21
-214.5
 31
0.0
  0
LINE
  8
DETAIL
  6
CONTINUOUS
 62
     5
 10
-96.001530000000002
 20
-296.5
 30
0.0
 11
-104.00153
 21
-211.5
 31
0.0
  0
LINE
  8
SIZE
  6
CONTINUOUS
 62
    30
 10
-116.0
 20
296.5
 30
0.0
 11
-481.09675099999998
 21
296.5
 31
0.0
  0
LINE
  8
SIZE
  6
CONTINUOUS
 62
    30
 10
-166.8694970139895
 20
211.5
 30
0.0
 11
-481.09675099999998
 21
211.5
 31
0.0
  0
LINE
  8
SIZE
  6
CONTINUOUS
 62
    30
 10
-451.09675099999998
 20
294.5
 30
0.0
 11
-451.09675099999998
 21
213.5
 31
0.0
  0
LINE
  8
SIZE
  6
CONTINUOUS
 62
    30
 10
-451.09675099999998
 20
445.20811600000002
 30
0.0
 11
-451.09675099999998
 21
296.5
 31
0.0
  0
TEXT
  8
SIZE
  6
CONTINUOUS
 62
    30
 10
-471.09675099999998
 20
331.95097357142862
 30
0.0
 40
64.0
  1
85
 50
90.0
 41
0.9
 72
     1
 11
-471.09675099999998
 21
378.57954500000011
 31
0.0
  0
CIRCLE
  8
SIZE
  6
CONTINUOUS
 62
    30
 10
-451.09675099999998
 20
296.5
 30
0.0
 40
6.0
  0
CIRCLE
  8
SIZE
  6
CONTINUOUS
 62
    30
 10
-451.09675099999998
 20
211.5
 30
0.0
 40
6.0
  0
POINT
  8
DEFPOINTS
  6
CONTINUOUS
 62
    30
 10
-96.0
 20
296.5
 30
0.0
  0
POINT
  8
DEFPOINTS
  6
CONTINUOUS
 62
    30
 10
-103.6098259999999
 20
211.5
 30
0.0
  0
POINT
  8
DEFPOINTS
  6
CONTINUOUS
 62
    30
 10
-451.09675099999998
 20
211.5
 30
0.0
  0
LINE
  8
DETAIL
  6
CONTINUOUS
 62
     5
 10
-195.0
 20
174.0
 30
0.0
 11
-162.5
 21
174.0
 31
0.0
  0
LINE
  8
DETAIL
  6
CONTINUOUS
 62
     5
 10
-131.78065100000001
 20
214.5
 30
0.0
 11
-220.5
 21
214.5
 31
0.0
  0
LINE
  8
DETAIL
  6
CONTINUOUS
 62
     5
 10
-185.99267900000001
 20
215.0
 30
0.0
 11
-155.99267900000001
 21
215.0
 31
0.0
  0
LINE
  8
DETAIL
  6
CONTINUOUS
 62
     5
 10
-220.5
 20
174.0
 30
0.0
 11
-206.0
 21
174.0
 31
0.0
  0
LINE
  8
NOTE
  6
CONTINUOUS
 62
     4
 10
-178.39473599999999
 20
193.99999800000001
 30
0.0
 11
-222.60526200000001
 21
193.99999800000001
 31
0.0
  0
LINE
  8
DETAIL
  6
CONTINUOUS
 62
     5
 10
-206.0
 20
174.0
 30
0.0
 11
-206.0
 21
194.0
 31
0.0
  0
LINE
  8
DETAIL
  6
CONTINUOUS
 62
     5
 10
-195.0
 20
174.0
 30
0.0
 11
-194.99999600000001
 21
194.0
 31
0.0
  0
LINE
  8
DETAIL
  6
CONTINUOUS
 62
     5
 10
-185.99267900000001
 20
215.0
 30
0.0
 11
-185.99267900000001
 21
214.5
 31
0.0
  0
ARC
  8
DETAIL
  6
CONTINUOUS
 62
     5
 10
-200.49999800000001
 20
193.99999600000001
 30
0.0
 40
5.5000019999999994
 50
0.0000409999989153
 51
179.999979999998
  0
CIRCLE
  8
FIX
  6
CONTINUOUS
 62
    11
 10
-200.49999900000009
 20
193.99999800000001
 30
0.0
 40
5.5
  0
LINE
  8
DETAIL
  6
CONTINUOUS
 62
     5
 10
-220.5
 20
174.0
 30
0.0
 11
-220.5
 21
214.5
 31
0.0
  0
LINE
  8
NOTE
  6
CONTINUOUS
 62
     4
 10
-200.49999900000009
 20
216.1052609999999
 30
0.0
 11
-200.49999900000009
 21
171.894735
 31
0.0
  0
LINE
  8
DETAIL
  6
CONTINUOUS
 62
     5
 10
-155.99267900000001
 20
215.0
 30
0.0
 11
-155.99267900000001
 21
214.5
 31
0.0
  0
LINE
  8
DETAIL
  6
CONTINUOUS
 62
     5
 10
-131.78065100000001
 20
214.5
 30
0.0
 11
-131.78065100000001
 21
211.5
 31
0.0
  0
LINE
  8
DETAIL
  6
CONTINUOUS
 62
     5
 10
-96.0
 20
296.5
 30
0.0
 11
-104.0
 21
211.5
 31
0.0
  0
LINE
  8
OUTLINE
  6
CONTINUOUS
 62
     3
 10
162.494631
 20
211.5
 30
0.0
 11
162.494631
 21
-211.5
 31
0.0
  0
LINE
  8
SIZE
  6
CONTINUOUS
 62
    30
 10
220.49999900000009
 20
-154.0
 30
0.0
 11
220.49999900000009
 21
17.154360999999991
 31
0.0
  0
LINE
  8
SIZE
  6
CONTINUOUS
 62
    30
 10
200.49999900000009
 20
-154.99341299999989
 30
0.0
 11
200.49999900000009
 21
17.154360999999991
 31
0.0
  0
LINE
  8
SIZE
  6
CONTINUOUS
 62
    30
 10
222.49999900000009
 20
-12.845639000000009
 30
0.0
 11
224.49999900000009
 21
-12.845639000000009
 31
0.0
  0
LINE
  8
SIZE
  6
CONTINUOUS
 62
    30
 10
198.49999900000009
 20
-12.845639000000009
 30
0.0
 11
196.49999900000009
 21
-12.845639000000009
 31
0.0
  0
LINE
  8
SIZE
  6
CONTINUOUS
 62
    30
 10
418.25057300000032
 20
-12.845639000000009
 30
0.0
 11
220.49999900000009
 21
-12.845639000000009
 31
0.0
  0
TEXT
  8
SIZE
  6
CONTINUOUS
 62
    30
 10
304.99343057142858
 20
7.1543609999999944
 30
0.0
 40
64.0
  1
20
 41
0.9
 72
     1
 11
351.62200200000012
 21
7.1543609999999944
 31
0.0
  0
LINE
  8
SIZE
  6
CONTINUOUS
 62
    30
 10
220.49999900000009
 20
-12.845639000000009
 30
0.0
 11
200.49999900000009
 21
-12.845639000000009
 31
0.0
  0
LINE
  8
SIZE
  6
CONTINUOUS
 62
    30
 10
220.49999900000009
 20
-12.845639000000009
 30
0.0
 11
200.49999900000009
 21
-12.845639000000009
 31
0.0
  0
CIRCLE
  8
SIZE
  6
CONTINUOUS
 62
    30
 10
220.49999900000009
 20
-12.845639000000009
 30
0.0
 40
6.0
  0
CIRCLE
  8
SIZE
  6
CONTINUOUS
 62
    30
 10
200.49999900000009
 20
-12.845639000000009
 30
0.0
 40
6.0
  0
POINT
  8
DEFPOINTS
  6
CONTINUOUS
 62
    30
 10
220.49999900000009
 20
-174.0
 30
0.0
  0
POINT
  8
DEFPOINTS
  6
CONTINUOUS
 62
    30
 10
200.49999900000009
 20
-174.99341299999989
 30
0.0
  0
POINT
  8
DEFPOINTS
  6
CONTINUOUS
 62
    30
 10
200.49999900000009
 20
-12.845639000000009
 30
0.0
  0
LINE
  8
DETAIL
  6
CONTINUOUS
 62
     5
 10
162.5
 20
211.5
 30
0.0
 11
162.5
 21
-211.5
 31
0.0
  0
LINE
  8
SIZE
  6
CONTINUOUS
 62
    30
 10
233.25
 20
-174.0
 30
0.0
 11
477.59231499999993
 21
-174.0
 31
0.0
  0
LINE
  8
SIZE
  6
CONTINUOUS
 62
    30
 10
226.03088900000009
 20
-215.0
 30
0.0
 11
477.59231499999993
 21
-215.0
 31
0.0
  0
LINE
  8
SIZE
  6
CONTINUOUS
 62
    30
 10
447.59231499999993
 20
-172.0
 30
0.0
 11
447.59231499999993
 21
-170.0
 31
0.0
  0
LINE
  8
SIZE
  6
CONTINUOUS
 62
    30
 10
447.59231499999993
 20
-217.0
 30
0.0
 11
447.59231499999993
 21
-219.0
 31
0.0
  0
LINE
  8
SIZE
  6
CONTINUOUS
 62
    30
 10
447.59231499999993
 20
-393.79847799999999
 30
0.0
 11
447.59231499999993
 21
-215.0
 31
0.0
  0
TEXT
  8
SIZE
  6
CONTINUOUS
 62
    30
 10
427.59231499999993
 20
-373.79847828571428
 30
0.0
 40
64.0
  1
41
 50
90.0
 41
0.9
 72
     1
 11
427.59231499999993
 21
-339.512764
 31
0.0
  0
LINE
  8
SIZE
  6
CONTINUOUS
 62
    30
 10
447.59231499999993
 20
-174.0
 30
0.0
 11
447.59231499999993
 21
-215.0
 31
0.0
  0
LINE
  8
SIZE
  6
CONTINUOUS
 62
    30
 10
447.59231499999993
 20
-174.0
 30
0.0
 11
447.59231499999993
 21
-215.0
 31
0.0
  0
CIRCLE
  8
SIZE
  6
CONTINUOUS
 62
    30
 10
447.59231499999993
 20
-174.0
 30
0.0
 40
6.0
  0
CIRCLE
  8
SIZE
  6
CONTINUOUS
 62
    30
 10
447.59231499999993
 20
-215.0
 30
0.0
 40
6.0
  0
POINT
  8
DEFPOINTS
  6
CONTINUOUS
 62
    30
 10
213.25
 20
-174.0
 30
0.0
  0
POINT
  8
DEFPOINTS
  6
CONTINUOUS
 62
    30
 10
206.03088900000009
 20
-215.0
 30
0.0
  0
POINT
  8
DEFPOINTS
  6
CONTINUOUS
 62
    30
 10
447.59231499999993
 20
-215.0
 30
0.0
  0
LINE
  8
SIZE
  6
CONTINUOUS
 62
    30
 10
233.25
 20
-193.99999800000001
 30
0.0
 11
357.20215400000012
 21
-193.99999800000001
 31
0.0
  0
LINE
  8
SIZE
  6
CONTINUOUS
 62
    30
 10
233.25
 20
-174.0
 30
0.0
 11
357.20215400000012
 21
-174.0
 31
0.0
  0
LINE
  8
SIZE
  6
CONTINUOUS
 62
    30
 10
327.20215400000012
 20
-195.99999800000001
 30
0.0
 11
327.20215400000012
 21
-197.99999800000001
 31
0.0
  0
LINE
  8
SIZE
  6
CONTINUOUS
 62
    30
 10
327.20215400000012
 20
-172.0
 30
0.0
 11
327.20215400000012
 21
-170.0
 31
0.0
  0
LINE
  8
SIZE
  6
CONTINUOUS
 62
    30
 10
327.20215400000012
 20
-344.84749900000003
 30
0.0
 11
327.20215400000012
 21
-193.99999800000001
 31
0.0
  0
TEXT
  8
SIZE
  6
CONTINUOUS
 62
    30
 10
307.20215400000012
 20
-324.84749942857138
 30
0.0
 40
64.0
  1
20
 50
90.0
 41
0.9
 72
     1
 11
307.20215400000012
 21
-278.21892800000001
 31
0.0
  0
LINE
  8
SIZE
  6
CONTINUOUS
 62
    30
 10
327.20215400000012
 20
-193.99999800000001
 30
0.0
 11
327.20215400000012
 21
-174.0
 31
0.0
  0
LINE
  8
SIZE
  6
CONTINUOUS
 62
    30
 10
327.20215400000012
 20
-193.99999800000001
 30
0.0
 11
327.20215400000012
 21
-174.0
 31
0.0
  0
CIRCLE
  8
SIZE
  6
CONTINUOUS
 62
    30
 10
327.20215400000012
 20
-193.99999800000001
 30
0.0
 40
6.0
  0
CIRCLE
  8
SIZE
  6
CONTINUOUS
 62
    30
 10
327.20215400000012
 20
-174.0
 30
0.0
 40
6.0
  0
POINT
  8
DEFPOINTS
  6
CONTINUOUS
 62
    30
 10
213.25
 20
-193.99999800000001
 30
0.0
  0
POINT
  8
DEFPOINTS
  6
CONTINUOUS
 62
    30
 10
213.25
 20
-174.0
 30
0.0
  0
POINT
  8
DEFPOINTS
  6
CONTINUOUS
 62
    30
 10
327.20215400000012
 20
-174.0
 30
0.0
  0
LINE
  8
SIZE
  6
CONTINUOUS
 62
    30
 10
195.0
 20
-153.999999
 30
0.0
 11
195.0
 21
-95.909220000000005
 31
0.0
  0
LINE
  8
SIZE
  6
CONTINUOUS
 62
    30
 10
206.0
 20
-153.999999
 30
0.0
 11
206.0
 21
-95.909220000000005
 31
0.0
  0
LINE
  8
SIZE
  6
CONTINUOUS
 62
    30
 10
193.0
 20
-125.90922
 30
0.0
 11
191.0
 21
-125.90922
 31
0.0
  0
LINE
  8
SIZE
  6
CONTINUOUS
 62
    30
 10
208.0
 20
-125.90922
 30
0.0
 11
210.0
 21
-125.90922
 31
0.0
  0
LINE
  8
SIZE
  6
CONTINUOUS
 62
    30
 10
378.89933500000012
 20
-125.90922
 30
0.0
 11
206.0
 21
-125.90922
 31
0.0
  0
TEXT
  8
SIZE
  6
CONTINUOUS
 62
    30
 10
301.29933499999993
 20
-105.90922
 30
0.0
 40
64.0
  1
11
 41
0.9
 72
     1
 11
330.09933499999988
 21
-105.90922
 31
0.0
  0
LINE
  8
SIZE
  6
CONTINUOUS
 62
    30
 10
195.0
 20
-125.90922
 30
0.0
 11
206.0
 21
-125.90922
 31
0.0
  0
LINE
  8
SIZE
  6
CONTINUOUS
 62
    30
 10
195.0
 20
-125.90922
 30
0.0
 11
206.0
 21
-125.90922
 31
0.0
  0
CIRCLE
  8
SIZE
  6
CONTINUOUS
 62
    30
 10
195.0
 20
-125.90922
 30
0.0
 40
6.0
  0
CIRCLE
  8
SIZE
  6
CONTINUOUS
 62
    30
 10
206.0
 20
-125.90922
 30
0.0
 40
6.0
  0
POINT
  8
DEFPOINTS
  6
CONTINUOUS
 62
    30
 10
195.0
 20
-173.999999
 30
0.0
  0
POINT
  8
DEFPOINTS
  6
CONTINUOUS
 62
    30
 10
206.0
 20
-173.999999
 30
0.0
  0
POINT
  8
DEFPOINTS
  6
CONTINUOUS
 62
    30
 10
206.0
 20
-125.90922
 30
0.0
  0
LINE
  8
DETAIL
  6
CONTINUOUS
 62
     5
 10
103.99847
 20
-211.5
 30
0.0
 11
95.998469999999998
 21
-296.5
 31
0.0
  0
LINE
  8
DETAIL
  6
CONTINUOUS
 62
     5
 10
131.78065100000001
 20
-214.5
 30
0.0
 11
220.5
 21
-214.5
 31
0.0
  0
LINE
  8
DETAIL
  6
CONTINUOUS
 62
     5
 10
185.99267900000001
 20
-215.0
 30
0.0
 11
155.99267900000001
 21
-215.0
 31
0.0
  0
LINE
  8
DETAIL
  6
CONTINUOUS
 62
     5
 10
195.0
 20
-174.0
 30
0.0
 11
162.5
 21
-174.0
 31
0.0
  0
LINE
  8
DETAIL
  6
CONTINUOUS
 62
     5
 10
131.78065100000001
 20
-214.5
 30
0.0
 11
131.78065100000001
 21
-211.5
 31
0.0
  0
LINE
  8
DETAIL
  6
CONTINUOUS
 62
     5
 10
155.99267900000001
 20
-215.0
 30
0.0
 11
155.99267900000001
 21
-214.5
 31
0.0
  0
LINE
  8
DETAIL
  6
CONTINUOUS
 62
     5
 10
220.5
 20
-174.0
 30
0.0
 11
206.0
 21
-174.0
 31
0.0
  0
LINE
  8
NOTE
  6
CONTINUOUS
 62
     4
 10
178.39473599999999
 20
-193.99999800000001
 30
0.0
 11
222.60526200000001
 21
-193.99999800000001
 31
0.0
  0
LINE
  8
NOTE
  6
CONTINUOUS
 62
     4
 10
200.49999900000009
 20
-216.1052609999999
 30
0.0
 11
200.49999900000009
 21
-171.894735
 31
0.0
  0
LINE
  8
DETAIL
  6
CONTINUOUS
 62
     5
 10
185.99267900000001
 20
-215.0
 30
0.0
 11
185.99267900000001
 21
-214.5
 31
0.0
  0
LINE
  8
DETAIL
  6
CONTINUOUS
 62
     5
 10
206.0
 20
-174.0
 30
0.0
 11
206.0
 21
-194.0
 31
0.0
  0
LINE
  8
DETAIL
  6
CONTINUOUS
 62
     5
 10
195.0
 20
-174.0
 30
0.0
 11
194.99999600000001
 21
-194.0
 31
0.0
  0
ARC
  8
DETAIL
  6
CONTINUOUS
 62
     5
 10
200.49999800000001
 20
-193.99999600000001
 30
0.0
 40
5.5000019999999994
 50
180.0000409999989
 51
359.999979999998
  0
CIRCLE
  8
FIX
  6
CONTINUOUS
 62
    11
 10
200.49999900000009
 20
-193.99999800000001
 30
0.0
 40
5.5
  0
LINE
  8
DETAIL
  6
CONTINUOUS
 62
     5
 10
220.5
 20
-174.0
 30
0.0
 11
220.5
 21
-214.5
 31
0.0
  0
LINE
  8
NOTE
  6
CONTINUOUS
 62
     4
 10
372.82962800000001
 20
472.47249699999998
 30
0.0
 11
545.29132838457554
 21
472.47249699999998
 31
0.0
  0
TEXT
  8
NOTE
  6
CONTINUOUS
 62
     4
 10
391.53287199999983
 20
508.10036700000001
 30
0.0
 40
70.73684200000001
  1
AH
 41
0.9
  0
TEXT
  8
NOTE
  6
CONTINUOUS
 62
     4
 10
-826.66009575676753
 20
-547.32220648083808
 30
0.0
 40
70.73684200000001
  1
端子カバ－
 41
0.9
  0
LINE
  8
NOTE
  6
CONTINUOUS
 62
     4
 10
-836.94486275676718
 20
-593.38037048083811
 30
0.0
 11
-417.45871475676722
 21
-593.38034548083806
 31
0.0
  0
LINE
  8
NOTE
  6
CONTINUOUS
 62
     4
 10
200.49999900000009
 20
193.99999800000001
 30
0.0
 11
372.82962800000001
 21
472.47249699999998
 31
0.0
  0
LINE
  8
NOTE
  6
CONTINUOUS
 62
     4
 10
-188.62213600000001
 20
-102.59532900000001
 30
0.0
 11
-417.45871475676722
 21
-593.38034548083806
 31
0.0
  0
LINE
  8
NOTE
  6
CONTINUOUS
 62
     4
 10
216.1816960000001
 20
235.33587200000011
 30
0.0
 11
200.49999900000009
 21
193.99999800000001
 31
0.0
  0
LINE
  8
NOTE
  6
CONTINUOUS
 62
     4
 10
200.49999900000009
 20
193.99999800000001
 30
0.0
 11
234.74868400000011
 21
221.95706599999991
 31
0.0
  0
LINE
  8
DETAIL
  6
CONTINUOUS
 62
     5
 10
-188.62213600000001
 20
-155.66256699999991
 30
0.0
 11
-188.62213600000001
 21
-34.726754999999997
 31
0.0
  0
LINE
  8
DETAIL
  6
CONTINUOUS
 62
     5
 10
-162.5
 20
-29.889321999999972
 30
0.0
 11
-183.78470300000001
 21
-29.889321999999972
 31
0.0
  0
ARC
  8
DETAIL
  6
CONTINUOUS
 62
     5
 10
-183.78470300000001
 20
-34.726754999999997
 30
0.0
 40
4.8374329999999999
 50
89.999999999999986
 51
180.0
  0
LINE
  8
DETAIL
  6
CONTINUOUS
 62
     5
 10
-162.5
 20
-160.5
 30
0.0
 11
-183.78470300000009
 21
-160.5
 31
0.0
  0
LINE
  8
NOTE
  6
CONTINUOUS
 62
     4
 10
-194.6936802143218
 20
-146.38695381809131
 30
0.0
 11
-188.62213600000001
 21
-102.59532900000001
 31
0.0
  0
LINE
  8
NOTE
  6
CONTINUOUS
 62
     4
 10
-188.62213600000001
 20
-102.59532900000001
 30
0.0
 11
-215.77606089267309
 21
-137.48421615066891
 31
0.0
  0
ARC
  8
DETAIL
  6
CONTINUOUS
 62
     5
 10
-183.78470300000009
 20
-155.66256699999991
 30
0.0
 40
4.8374329999999999
 50
180.0
 51
270.0
  0
LINE
  8
DETAIL
  6
CONTINUOUS
 62
     5
 10
104.0
 20
211.5
 30
0.0
 11
96.0
 21
296.5
 31
0.0
  0
LINE
  8
DETAIL
  6
CONTINUOUS
 62
     5
 10
131.78065100000001
 20
214.5
 30
0.0
 11
220.5
 21
214.5
 31
0.0
  0
LINE
  8
DETAIL
  6
CONTINUOUS
 62
     5
 10
195.0
 20
174.0
 30
0.0
 11
162.5
 21
174.0
 31
0.0
  0
LINE
  8
DETAIL
  6
CONTINUOUS
 62
     5
 10
185.99267900000001
 20
215.0
 30
0.0
 11
155.99267900000001
 21
215.0
 31
0.0
  0
LINE
  8
DETAIL
  6
CONTINUOUS
 62
     5
 10
155.99267900000001
 20
215.0
 30
0.0
 11
155.99267900000001
 21
214.5
 31
0.0
  0
LINE
  8
DETAIL
  6
CONTINUOUS
 62
     5
 10
131.78065100000001
 20
214.5
 30
0.0
 11
131.78065100000001
 21
211.5
 31
0.0
  0
LINE
  8
DETAIL
  6
CONTINUOUS
 62
     5
 10
220.5
 20
174.0
 30
0.0
 11
206.0
 21
174.0
 31
0.0
  0
LINE
  8
NOTE
  6
CONTINUOUS
 62
     4
 10
178.39473599999999
 20
193.99999800000001
 30
0.0
 11
222.60526200000001
 21
193.99999800000001
 31
0.0
  0
LINE
  8
NOTE
  6
CONTINUOUS
 62
     4
 10
200.49999900000009
 20
216.1052609999999
 30
0.0
 11
200.49999900000009
 21
171.894735
 31
0.0
  0
LINE
  8
DETAIL
  6
CONTINUOUS
 62
     5
 10
206.0
 20
174.0
 30
0.0
 11
206.0
 21
194.0
 31
0.0
  0
LINE
  8
DETAIL
  6
CONTINUOUS
 62
     5
 10
195.0
 20
174.0
 30
0.0
 11
194.99999600000001
 21
194.0
 31
0.0
  0
ARC
  8
DETAIL
  6
CONTINUOUS
 62
     5
 10
200.49999800000001
 20
193.99999600000001
 30
0.0
 40
5.5000019999999994
 50
0.0000200000020129
 51
179.9999590000011
  0
CIRCLE
  8
FIX
  6
CONTINUOUS
 62
    11
 10
200.49999900000009
 20
193.99999800000001
 30
0.0
 40
5.5
  0
LINE
  8
DETAIL
  6
CONTINUOUS
 62
     5
 10
185.99267900000001
 20
215.0
 30
0.0
 11
185.99267900000001
 21
214.5
 31
0.0
  0
LINE
  8
DETAIL
  6
CONTINUOUS
 62
     5
 10
220.5
 20
174.0
 30
0.0
 11
220.5
 21
214.5
 31
0.0
  0
TEXT
  8
ETC
  6
CONTINUOUS
 62
    61
 10
633.4637661977564
 20
641.29098369483313
 30
0.0
 40
60.0
  1
BFS-50SG2_6
 41
0.9
  0
TEXT
  8
ETC
  6
CONTINUOUS
 62
    61
 10
627.33643869775642
 20
547.17230119483293
 30
0.0
 40
60.0
  1
産業扇
 41
0.9
  0
TEXT
  8
ETC
  6
CONTINUOUS
 62
    61
 10
682.08754033267701
 20
476.59885879536932
 30
0.0
 40
40.0
  1
BFS-50SG2
 41
0.9
  0
ENDSEC
  0
EOF
