  0
SECTION
  2
HEADER
  9
$ACADVER
  1
AC1009
  9
$DWGCODEPAGE
  3
dos932
  9
$INSBASE
 10
0.0
 20
0.0
 30
0.0
  9
$EXTMIN
 10
-381.58262475810989
 20
-293.8384890950274
 30
-0.0030516297567118
  9
$EXTMAX
 10
877.36817545649501
 20
557.55616032699618
 30
50.001526135026353
  9
$LIMMIN
 10
-2970.0
 20
-2100.0
  9
$LIMMAX
 10
2970.0
 20
2100.0
  9
$ORTHOMODE
 70
     1
  9
$REGENMODE
 70
     1
  9
$FILLMODE
 70
     1
  9
$QTEXTMODE
 70
     0
  9
$MIRRTEXT
 70
     0
  9
$LTSCALE
 40
20.0
  9
$ATTMODE
 70
     1
  9
$TEXTSIZE
 40
64.0
  9
$TRACEWID
 40
0.05
  9
$TEXTSTYLE
  7
STANDARD
  9
$CLAYER
  8
SIZE
  9
$CELTYPE
  6
CONTINUOUS
  9
$CECOLOR
 62
     7
  9
$DIMSCALE
 40
1.0
  9
$DIMASZ
 40
12.0
  9
$DIMEXO
 40
20.0
  9
$DIMDLI
 40
200.0
  9
$DIMRND
 40
0.0
  9
$DIMDLE
 40
0.0
  9
$DIMEXE
 40
20.0
  9
$DIMTP
 40
0.0
  9
$DIMTM
 40
0.0
  9
$DIMTXT
 40
64.0
  9
$DIMCEN
 40
0.09
  9
$DIMTSZ
 40
0.0
  9
$DIMTOL
 70
     0
  9
$DIMLIM
 70
     0
  9
$DIMTIH
 70
     0
  9
$DIMTOH
 70
     0
  9
$DIMSE1
 70
     0
  9
$DIMSE2
 70
     0
  9
$DIMTAD
 70
     1
  9
$DIMZIN
 70
     8
  9
$DIMBLK
  1

  9
$DIMASO
 70
     1
  9
$DIMSHO
 70
     0
  9
$DIMPOST
  1

  9
$DIMAPOST
  1

  9
$DIMALT
 70
     0
  9
$DIMALTD
 70
     2
  9
$DIMALTF
 40
25.399999999999999
  9
$DIMLFAC
 40
1.0
  9
$DIMTOFL
 70
     1
  9
$DIMTVP
 40
0.0
  9
$DIMTIX
 70
     1
  9
$DIMSOXD
 70
     0
  9
$DIMSAH
 70
     0
  9
$DIMBLK1
  1

  9
$DIMBLK2
  1

  9
$DIMSTYLE
  2
STANDARD
  9
$DIMCLRD
 70
     7
  9
$DIMCLRE
 70
     7
  9
$DIMCLRT
 70
     7
  9
$DIMTFAC
 40
1.0
  9
$DIMGAP
 40
25.0
  9
$LUNITS
 70
     2
  9
$LUPREC
 70
     4
  9
$SKETCHINC
 40
0.1
  9
$FILLETRAD
 40
3.0
  9
$AUNITS
 70
     1
  9
$AUPREC
 70
     3
  9
$MENU
  1
ACAD
  9
$ELEVATION
 40
0.0
  9
$PELEVATION
 40
0.0
  9
$THICKNESS
 40
0.0
  9
$LIMCHECK
 70
     0
  9
$CHAMFERA
 40
0.0
  9
$CHAMFERB
 40
0.0
  9
$SKPOLY
 70
     0
  9
$TDCREATE
 40
2453019.62301037
  9
$TDUPDATE
 40
2459268.671414965
  9
$TDINDWG
 40
1.7190553356
  9
$TDUSRTIMER
 40
1.7190553356
  9
$USRTIMER
 70
     1
  9
$ANGBASE
 50
0.0
  9
$ANGDIR
 70
     0
  9
$PDMODE
 70
     3
  9
$PDSIZE
 40
-2.0
  9
$PLINEWID
 40
0.0
  9
$SPLFRAME
 70
     0
  9
$SPLINETYPE
 70
     6
  9
$SPLINESEGS
 70
     8
  9
$SURFTAB1
 70
     6
  9
$SURFTAB2
 70
     6
  9
$SURFTYPE
 70
     6
  9
$SURFU
 70
     6
  9
$SURFV
 70
     6
  9
$UCSNAME
  2

  9
$UCSORG
 10
0.0
 20
0.0
 30
0.0
  9
$UCSXDIR
 10
1.0
 20
0.0
 30
0.0
  9
$UCSYDIR
 10
0.0
 20
1.0
 30
0.0
  9
$PUCSNAME
  2

  9
$PUCSORG
 10
0.0
 20
0.0
 30
0.0
  9
$PUCSXDIR
 10
1.0
 20
0.0
 30
0.0
  9
$PUCSYDIR
 10
0.0
 20
1.0
 30
0.0
  9
$USERI1
 70
     0
  9
$USERI2
 70
     0
  9
$USERI3
 70
     0
  9
$USERI4
 70
     0
  9
$USERI5
 70
     0
  9
$USERR1
 40
20.0
  9
$USERR2
 40
0.0
  9
$USERR3
 40
0.0
  9
$USERR4
 40
0.0
  9
$USERR5
 40
0.0
  9
$WORLDVIEW
 70
     1
  9
$SHADEDGE
 70
     3
  9
$SHADEDIF
 70
    70
  9
$TILEMODE
 70
     1
  9
$MAXACTVP
 70
    48
  9
$PINSBASE
 10
0.0
 20
0.0
 30
0.0
  9
$PLIMCHECK
 70
     0
  9
$PEXTMIN
 10
-100000000000000000000.0
 20
-100000000000000000000.0
 30
-100000000000000000000.0
  9
$PEXTMAX
 10
100000000000000000000.0
 20
100000000000000000000.0
 30
100000000000000000000.0
  9
$PLIMMIN
 10
0.0
 20
0.0
  9
$PLIMMAX
 10
12.0
 20
9.0
  9
$UNITMODE
 70
     0
  9
$VISRETAIN
 70
     0
  9
$PLINEGEN
 70
     0
  9
$PSLTSCALE
 70
     0
  9
$TREEDEPTH
 70
  3020
  9
$ATTDIA
 70
     0
  9
$ATTREQ
 70
     1
  9
$BLIPMODE
 70
     1
  9
$COORDS
 70
     1
  9
$DRAGMODE
 70
     2
  9
$OSMODE
 70
     0
  9
$HANDLING
 70
     0
  9
$HANDSEED
  5
FC4F
  0
ENDSEC
  0
SECTION
  2
TABLES
  0
TABLE
  2
LTYPE
 70
     2
  0
LTYPE
  2
CONTINUOUS
 70
     0
  3
実線
 72
    65
 73
     0
 40
0.0
  0
LTYPE
  2
DASHDOT
 70
     0
  3
____ _ ____ _ ____ _ ____ _ ____ _ ____ _ ____
 72
    65
 73
     4
 40
5.5
 49
4.0
 49
-0.6
 49
0.3
 49
-0.6
  0
ENDTAB
  0
TABLE
  2
LAYER
 70
    12
  0
LAYER
  2
0
 70
     0
 62
     7
  6
CONTINUOUS
  0
LAYER
  2
BASIS
 70
     0
 62
     6
  6
DASHDOT
  0
LAYER
  2
OUTLINE
 70
     0
 62
     3
  6
CONTINUOUS
  0
LAYER
  2
DETAIL
 70
     0
 62
     5
  6
CONTINUOUS
  0
LAYER
  2
SIZE
 70
     0
 62
    30
  6
CONTINUOUS
  0
LAYER
  2
ARRANGE
 70
     0
 62
     1
  6
CONTINUOUS
  0
LAYER
  2
DEFPOINTS
 70
     0
 62
     7
  6
CONTINUOUS
  0
LAYER
  2
ETC
 70
     0
 62
    61
  6
CONTINUOUS
  0
LAYER
  2
FIX
 70
     0
 62
    11
  6
CONTINUOUS
  0
LAYER
  2
NOTE
 70
     0
 62
     4
  6
CONTINUOUS
  0
LAYER
  2
SERVICESPACE
 70
    64
 62
     2
  6
DASHDOT
  0
LAYER
  2
SYMBOLLINE
 70
    64
 62
    15
  6
CONTINUOUS
  0
ENDTAB
  0
TABLE
  2
STYLE
 70
     1
  0
STYLE
  2
STANDARD
 70
     0
 40
64.0
 41
0.9
 50
0.0
 71
     0
 42
64.0
  3
SIMPLEX.shx
  4
BIGFONT.shx
  0
ENDTAB
  0
TABLE
  2
APPID
 70
    19
  0
APPID
  2
ACAD
 70
     0
  0
APPID
  2
AUTOCAD_POSTSCRIPT_FIGURE
 70
     0
  0
APPID
  2
ACAD_EXEMPT_FROM_CAD_STANDARDS
 70
     0
  0
APPID
  2
ACAD_PSEXT
 70
     0
  0
APPID
  2
ACAUTHENVIRON
 70
     0
  0
APPID
  2
GENIUS_GENOENT_13
 70
     0
  0
APPID
  2
GENIUS_GENCFG_13
 70
     0
  0
APPID
  2
GENIUS_GENCFG0_13
 70
     0
  0
APPID
  2
GENIUS_GENCFG1_13
 70
     0
  0
APPID
  2
GENIUS_GENCFG2_13
 70
     0
  0
APPID
  2
GENIUS_GENCFG3_13
 70
     0
  0
APPID
  2
GENIUS_GENCFG4_13
 70
     0
  0
APPID
  2
GENIUS_GEVCFG0_13
 70
     0
  0
APPID
  2
CONTENTBLOCKICON
 70
     0
  0
APPID
  2
CONTENTBLOCKDESCRIPTION
 70
     0
  0
APPID
  2
ACAD_NAV_VCDISPLAY
 70
     0
  0
APPID
  2
ACAD_MLEADERVER
 70
     0
  0
APPID
  2
ACDBDYNAMICBLOCKTRUENAME
 70
     0
  0
APPID
  2
ACDBDYNAMICBLOCKGUID
 70
     0
  0
ENDTAB
  0
TABLE
  2
DIMSTYLE
 70
     1
  0
DIMSTYLE
  2
STANDARD
 70
     0
  3

  4

  5
_ORIGIN
  6

  7

 40
1.0
 41
12.0
 42
20.0
 43
200.0
 44
20.0
 45
0.0
 46
0.0
 47
0.0
 48
0.0
140
64.0
141
0.09
142
0.0
143
25.399999999999999
144
1.0
145
0.0
146
1.0
147
25.0
 71
     0
 72
     0
 73
     0
 74
     0
 75
     0
 76
     0
 77
     1
 78
     8
170
     0
171
     2
172
     1
173
     0
174
     1
175
     0
176
     7
177
     7
178
     7
  0
ENDTAB
  0
TABLE
  2
VIEW
 70
     1
  0
VIEW
  2
ALL
 70
     0
 40
4282.6198079999986
 10
0.0
 20
41.309904000000003
 41
5940.0
 11
0.0
 21
0.0
 31
1.0
 12
0.0
 22
0.0
 32
0.0
 42
50.0
 43
0.0
 44
0.0
 50
0.0
 71
     0
  0
ENDTAB
  0
TABLE
  2
UCS
 70
     0
  0
ENDTAB
  0
TABLE
  2
VPORT
 70
     1
  0
VPORT
  2
*ACTIVE
 70
     0
 10
0.0
 20
0.0
 11
1.0
 21
1.0
 12
247.89277534919259
 22
131.85883561598439
 13
0.0
 23
0.0
 14
1.0
 24
1.0
 15
0.0
 25
0.0
 16
0.0
 26
0.0
 36
1.0
 17
0.0
 27
0.0
 37
0.0
 40
643.54498445722857
 41
2.056631892697466
 42
50.0
 43
0.0
 44
0.0
 50
0.0
 51
0.0
 71
     0
 72
  1000
 73
     1
 74
     3
 75
     0
 76
     0
 77
     0
 78
     0
  0
ENDTAB
  0
ENDSEC
  0
SECTION
  2
BLOCKS
  0
BLOCK
  8
0
  2
_ORIGIN
 70
     0
 10
0.0
 20
0.0
 30
0.0
  3
_ORIGIN
  1
_ORIGIN
  0
CIRCLE
  8
SIZE
  6
CONTINUOUS
 62
    30
 10
0.0
 20
0.0
 30
0.0
 40
0.5
  0
LINE
  8
SIZE
  6
CONTINUOUS
 62
    30
 10
0.0
 20
0.0
 30
0.0
 11
-1.0
 21
0.0
 31
0.0
  0
ENDBLK
  8
0
  0
ENDSEC
  0
SECTION
  2
ENTITIES
  0
TEXT
  8
ETC
  6
CONTINUOUS
 62
    61
 10
257.37294259826098
 20
493.34354441365241
 30
0.0
 40
64.0
  1
BFS-50SKA2_2
 41
0.9
  0
TEXT
  8
ETC
  6
CONTINUOUS
 62
    61
 10
253.18694859826061
 20
375.38823439882123
 30
0.0
 40
64.0
  1
産業扇
 41
0.9
  0
CIRCLE
  8
ARRANGE
  6
CONTINUOUS
 62
     1
 10
0.0
 20
0.0
 30
0.0
 40
40.0
  0
POINT
  8
ARRANGE
  6
CONTINUOUS
 62
     1
 10
0.0
 20
0.0
 30
0.0
  0
LINE
  8
BASIS
  6
DASHDOT
 62
     6
 10
0.0
 20
-292.09838384513603
 30
0.0
 11
0.0
 21
59.79562996030927
 31
0.0
  0
LINE
  8
BASIS
  6
DASHDOT
 62
     6
 10
237.48295390272159
 20
-128.17028232366471
 30
0.0
 11
-237.48295390272159
 21
-128.17028232366471
 31
0.0
  0
TEXT
  8
ETC
  6
CONTINUOUS
 62
    61
 10
303.8883468468166
 20
267.23946151259588
 30
0.0
 40
40.0
  1
BFS-50SKA2
 41
0.9
  0
LINE
  8
SIZE
  6
CONTINUOUS
 62
    30
 10
-159.42167832233631
 20
17.181440550752651
 30
0.0
 11
-159.42167832233631
 21
180.83924562556419
 31
0.0
  0
LINE
  8
SIZE
  6
CONTINUOUS
 62
    30
 10
159.57002355650681
 20
17.181440550752651
 30
0.0
 11
159.57002355650681
 21
180.83924562556419
 31
0.0
  0
LINE
  8
SIZE
  6
CONTINUOUS
 62
    30
 10
-147.42167832233631
 20
160.83924562556419
 30
0.0
 11
147.57002355650681
 21
160.83924562556419
 31
0.0
  0
CIRCLE
  8
SIZE
  6
CONTINUOUS
 62
    30
 10
-159.42167832233631
 20
160.83924562556419
 30
0.0
 40
6.0
  0
LINE
  8
SIZE
  6
CONTINUOUS
 62
    30
 10
-159.42167832233631
 20
160.83924562556419
 30
0.0
 11
-147.42167832233631
 21
160.83924562556419
 31
0.0
  0
CIRCLE
  8
SIZE
  6
CONTINUOUS
 62
    30
 10
159.57002355650681
 20
160.83924562556419
 30
0.0
 40
6.0
  0
LINE
  8
SIZE
  6
CONTINUOUS
 62
    30
 10
159.57002355650681
 20
160.83924562556419
 30
0.0
 11
147.57002355650681
 21
160.83924562556419
 31
0.0
  0
TEXT
  8
SIZE
  6
CONTINUOUS
 62
    30
 10
-67.274994773950027
 20
185.83924562556419
 30
0.0
 40
64.0
  1
319
 41
0.9
 72
     1
 11
-0.0749947739500385
 21
185.83924562556419
 31
0.0
  0
POINT
  8
DEFPOINTS
  6
CONTINUOUS
 62
    30
 10
-159.42167832233631
 20
-2.818559449247346
 30
0.0
  0
POINT
  8
DEFPOINTS
  6
CONTINUOUS
 62
    30
 10
159.57002355650681
 20
-2.818559449247346
 30
0.0
  0
POINT
  8
DEFPOINTS
  6
CONTINUOUS
 62
    30
 10
159.57002355650681
 20
160.83924562556419
 30
0.0
  0
CIRCLE
  8
FIX
  6
CONTINUOUS
 62
    11
 10
197.5
 20
-117.6710139706645
 30
0.0
 40
5.0
  0
LINE
  8
NOTE
  6
CONTINUOUS
 62
     4
 10
197.5
 20
-141.09439563718161
 30
0.0
 11
197.5
 21
-94.447632304147419
 31
0.0
  0
LINE
  8
NOTE
  6
CONTINUOUS
 62
     4
 10
225.87302281108381
 20
-117.6710139706645
 30
0.0
 11
168.62697718891619
 21
-117.6710139706645
 31
0.0
  0
CIRCLE
  8
FIX
  6
CONTINUOUS
 62
    11
 10
-197.5
 20
-117.65480883240841
 30
0.0
 40
5.0
  0
LINE
  8
NOTE
  6
CONTINUOUS
 62
     4
 10
-197.5
 20
-141.07819049892549
 30
0.0
 11
-197.5
 21
-94.431427165891364
 31
0.0
  0
LINE
  8
NOTE
  6
CONTINUOUS
 62
     4
 10
-169.12697718891619
 20
-117.65480883240841
 30
0.0
 11
-225.87302281108381
 21
-117.65480883240841
 31
0.0
  0
LINE
  8
SIZE
  6
CONTINUOUS
 62
    30
 10
-197.5
 20
-74.431427165891336
 30
0.0
 11
-197.5
 21
333.29512106942269
 31
0.0
  0
LINE
  8
SIZE
  6
CONTINUOUS
 62
    30
 10
197.5
 20
-74.44763230414739
 30
0.0
 11
197.5
 21
333.29512106942269
 31
0.0
  0
LINE
  8
SIZE
  6
CONTINUOUS
 62
    30
 10
-185.5
 20
313.29512106942269
 30
0.0
 11
185.5
 21
313.29512106942269
 31
0.0
  0
CIRCLE
  8
SIZE
  6
CONTINUOUS
 62
    30
 10
-197.5
 20
313.29512106942269
 30
0.0
 40
6.0
  0
LINE
  8
SIZE
  6
CONTINUOUS
 62
    30
 10
-197.5
 20
313.29512106942269
 30
0.0
 11
-185.5
 21
313.29512106942269
 31
0.0
  0
CIRCLE
  8
SIZE
  6
CONTINUOUS
 62
    30
 10
197.5
 20
313.29512106942269
 30
0.0
 40
6.0
  0
LINE
  8
SIZE
  6
CONTINUOUS
 62
    30
 10
197.5
 20
313.29512106942269
 30
0.0
 11
185.5
 21
313.29512106942269
 31
0.0
  0
TEXT
  8
SIZE
  6
CONTINUOUS
 62
    30
 10
-74.057142857142821
 20
338.29512106942269
 30
0.0
 40
64.0
  1
395
 41
0.9
 72
     1
 11
0.0000000000000284
 21
338.29512106942269
 31
0.0
  0
POINT
  8
DEFPOINTS
  6
CONTINUOUS
 62
    30
 10
-197.5
 20
-94.431427165891364
 30
0.0
  0
POINT
  8
DEFPOINTS
  6
CONTINUOUS
 62
    30
 10
197.5
 20
-94.447632304147419
 30
0.0
  0
POINT
  8
DEFPOINTS
  6
CONTINUOUS
 62
    30
 10
197.5
 20
313.29512106942269
 30
0.0
  0
LINE
  8
SIZE
  6
CONTINUOUS
 62
    30
 10
217.47411329455139
 20
-97.687219108920544
 30
0.0
 11
217.4741132945515
 21
472.42961224260222
 31
0.0
  0
LINE
  8
SIZE
  6
CONTINUOUS
 62
    30
 10
-217.3257680603808
 20
-97.687219108920544
 30
0.0
 11
-217.3257680603808
 21
472.42961224260222
 31
0.0
  0
LINE
  8
SIZE
  6
CONTINUOUS
 62
    30
 10
205.4741132945515
 20
452.42961224260222
 30
0.0
 11
-205.3257680603808
 21
452.42961224260222
 31
0.0
  0
CIRCLE
  8
SIZE
  6
CONTINUOUS
 62
    30
 10
217.4741132945515
 20
452.42961224260222
 30
0.0
 40
6.0
  0
LINE
  8
SIZE
  6
CONTINUOUS
 62
    30
 10
217.4741132945515
 20
452.42961224260222
 30
0.0
 11
205.4741132945515
 21
452.42961224260222
 31
0.0
  0
CIRCLE
  8
SIZE
  6
CONTINUOUS
 62
    30
 10
-217.3257680603808
 20
452.42961224260222
 30
0.0
 40
6.0
  0
LINE
  8
SIZE
  6
CONTINUOUS
 62
    30
 10
-217.3257680603808
 20
452.42961224260222
 30
0.0
 11
-205.3257680603808
 21
452.42961224260222
 31
0.0
  0
TEXT
  8
SIZE
  6
CONTINUOUS
 62
    30
 10
-74.082141115126149
 20
477.42961224260222
 30
0.0
 40
64.0
  1
435
 41
0.9
 72
     1
 11
-0.0249982579832988
 21
477.42961224260222
 31
0.0
  0
POINT
  8
DEFPOINTS
  6
CONTINUOUS
 62
    30
 10
217.47411329455139
 20
-117.6872191089205
 30
0.0
  0
POINT
  8
DEFPOINTS
  6
CONTINUOUS
 62
    30
 10
-217.3257680603808
 20
-117.6872191089205
 30
0.0
  0
POINT
  8
DEFPOINTS
  6
CONTINUOUS
 62
    30
 10
-217.3257680603808
 20
452.42961224260222
 30
0.0
  0
LINE
  8
SIZE
  6
CONTINUOUS
 62
    30
 10
-168.34523417090841
 20
0.0
 30
0.0
 11
-312.17579164878958
 21
0.0000000000000568
 31
0.0
  0
LINE
  8
SIZE
  6
CONTINUOUS
 62
    30
 10
-178.33381327174951
 20
-255.45049324230399
 30
0.0
 11
-312.17579164878958
 21
-255.45049324230399
 31
0.0
  0
LINE
  8
SIZE
  6
CONTINUOUS
 62
    30
 10
-292.17579164878958
 20
-11.99999999999997
 30
0.0
 11
-292.17579164878958
 21
-243.45049324230399
 31
0.0
  0
CIRCLE
  8
SIZE
  6
CONTINUOUS
 62
    30
 10
-292.17579164878958
 20
0.0000000000000568
 30
0.0
 40
6.0
  0
LINE
  8
SIZE
  6
CONTINUOUS
 62
    30
 10
-292.17579164878958
 20
0.0000000000000568
 30
0.0
 11
-292.17579164878958
 21
-11.99999999999997
 31
0.0
  0
CIRCLE
  8
SIZE
  6
CONTINUOUS
 62
    30
 10
-292.17579164878958
 20
-255.45049324230399
 30
0.0
 40
6.0
  0
LINE
  8
SIZE
  6
CONTINUOUS
 62
    30
 10
-292.17579164878958
 20
-255.45049324230399
 30
0.0
 11
-292.17579164878958
 21
-243.45049324230399
 31
0.0
  0
TEXT
  8
SIZE
  6
CONTINUOUS
 62
    30
 10
-317.17579164878958
 20
-201.78238947829479
 30
0.0
 40
64.0
  1
255
 50
90.0
 41
0.9
 72
     1
 11
-317.17579164878958
 21
-127.725246621152
 31
0.0
  0
POINT
  8
DEFPOINTS
  6
CONTINUOUS
 62
    30
 10
-148.34523417090841
 20
0.0
 30
0.0
  0
POINT
  8
DEFPOINTS
  6
CONTINUOUS
 62
    30
 10
-158.33381327174951
 20
-255.45049324230399
 30
0.0
  0
POINT
  8
DEFPOINTS
  6
CONTINUOUS
 62
    30
 10
-292.17579164878958
 20
-255.45049324230399
 30
0.0
  0
TEXT
  8
NOTE
  6
CONTINUOUS
 62
     4
 10
282.06828482906582
 20
101.3653591665211
 30
0.0
 40
64.0
  1
AH
 41
0.9
  0
LINE
  8
NOTE
  6
CONTINUOUS
 62
     4
 10
200.8393575816946
 20
-112.43332457250629
 30
0.0
 11
197.5
 21
-117.6710139706645
 31
0.0
  0
LINE
  8
NOTE
  6
CONTINUOUS
 62
     4
 10
197.5
 20
-117.6710139706645
 30
0.0
 11
197.77311444742159
 21
-111.46536269230459
 31
0.0
  0
LINE
  8
NOTE
  6
CONTINUOUS
 62
     4
 10
197.5
 20
-117.6710139706645
 30
0.0
 11
201.11247202911611
 21
-106.2276732941464
 31
0.0
  0
LINE
  8
NOTE
  6
CONTINUOUS
 62
     4
 10
201.11247202911611
 20
-106.2276732941464
 30
0.0
 11
261.34091400399939
 21
84.559846824902706
 31
0.0
  0
LINE
  8
NOTE
  6
CONTINUOUS
 62
     4
 10
261.34091400399939
 20
84.559846824902706
 30
0.0
 11
397.08377114685652
 21
84.559846824902706
 31
0.0
  0
TEXT
  8
NOTE
  6
CONTINUOUS
 62
     4
 10
-47.300048776466639
 20
-161.37004873864629
 30
0.0
 40
64.0
  1
EA
 41
0.9
 72
     1
 11
0.6999512235333611
 21
-161.37004873864629
 31
0.0
  0
LINE
  8
DETAIL
  6
CONTINUOUS
 62
     5
 10
4.499805436517363
 20
-241.55548964162929
 30
0.0
 11
4.6975990820787956
 21
-240.07203729992031
 31
0.0
  0
LINE
  8
DETAIL
  6
CONTINUOUS
 62
     5
 10
3.7086308542725419
 20
-242.9400451605575
 30
0.0
 11
4.499805436517363
 21
-241.55548964162929
 31
0.0
  0
LINE
  8
DETAIL
  6
CONTINUOUS
 62
     5
 10
2.7196626264662882
 20
-244.0773586225346
 30
0.0
 11
3.7086308542725419
 21
-242.9400451605575
 31
0.0
  0
LINE
  8
DETAIL
  6
CONTINUOUS
 62
     5
 10
1.2362102847573619
 20
-244.5718427364375
 30
0.0
 11
2.7196626264662882
 21
-244.0773586225346
 31
0.0
  0
LINE
  8
DETAIL
  6
CONTINUOUS
 62
     5
 10
-0.296690468342149
 20
-244.76963638199871
 30
0.0
 11
1.2362102847573619
 21
-244.5718427364375
 31
0.0
  0
LINE
  8
DETAIL
  6
CONTINUOUS
 62
     5
 10
-1.780142810051075
 20
-244.27515226809561
 30
0.0
 11
-0.296690468342149
 21
-244.76963638199871
 31
0.0
  0
LINE
  8
DETAIL
  6
CONTINUOUS
 62
     5
 10
-2.966904683418079
 20
-243.48397768585099
 30
0.0
 11
-1.780142810051075
 21
-244.27515226809561
 31
0.0
  0
LINE
  8
DETAIL
  6
CONTINUOUS
 62
     5
 10
-4.0547697340055038
 20
-242.24776740109311
 30
0.0
 11
-2.966904683418079
 21
-243.48397768585099
 31
0.0
  0
LINE
  8
DETAIL
  6
CONTINUOUS
 62
     5
 10
-4.5492538479077211
 20
-240.76431505938399
 30
0.0
 11
-4.0547697340055038
 21
-242.24776740109311
 31
0.0
  0
LINE
  8
DETAIL
  6
CONTINUOUS
 62
     5
 10
-4.5492538479077211
 20
-239.28086271767481
 30
0.0
 11
-4.5492538479077211
 21
-240.76431505938399
 31
0.0
  0
LINE
  8
DETAIL
  6
CONTINUOUS
 62
     5
 10
-4.0547697340055038
 20
-237.74796196457601
 30
0.0
 11
-4.5492538479077211
 21
-239.28086271767481
 31
0.0
  0
LINE
  8
DETAIL
  6
CONTINUOUS
 62
     5
 10
-2.966904683418079
 20
-236.56120009120829
 30
0.0
 11
-4.0547697340055038
 21
-237.74796196457601
 31
0.0
  0
LINE
  8
DETAIL
  6
CONTINUOUS
 62
     5
 10
-1.780142810051075
 20
-235.7700255089635
 30
0.0
 11
-2.966904683418079
 21
-236.56120009120829
 31
0.0
  0
LINE
  8
DETAIL
  6
CONTINUOUS
 62
     5
 10
-0.296690468342149
 20
-235.2755413950606
 30
0.0
 11
-1.780142810051075
 21
-235.7700255089635
 31
0.0
  0
LINE
  8
DETAIL
  6
CONTINUOUS
 62
     5
 10
1.2362102847573619
 20
-235.47333504062181
 30
0.0
 11
-0.296690468342149
 21
-235.2755413950606
 31
0.0
  0
LINE
  8
DETAIL
  6
CONTINUOUS
 62
     5
 10
2.7196626264662882
 20
-235.9678191545247
 30
0.0
 11
1.2362102847573619
 21
-235.47333504062181
 31
0.0
  0
LINE
  8
DETAIL
  6
CONTINUOUS
 62
     5
 10
3.7086308542725419
 20
-237.2534778506724
 30
0.0
 11
2.7196626264662882
 21
-235.9678191545247
 31
0.0
  0
LINE
  8
DETAIL
  6
CONTINUOUS
 62
     5
 10
4.499805436517363
 20
-238.44023972403991
 30
0.0
 11
3.7086308542725419
 21
-237.2534778506724
 31
0.0
  0
LINE
  8
DETAIL
  6
CONTINUOUS
 62
     5
 10
4.6975990820787956
 20
-240.07203729992031
 30
0.0
 11
4.499805436517363
 21
-238.44023972403991
 31
0.0
  0
LINE
  8
DETAIL
  6
CONTINUOUS
 62
     5
 10
2.2251785125636161
 20
-240.07203729992031
 30
0.0
 11
-2.0768332783929959
 21
-240.07203729992031
 31
0.0
  0
LINE
  8
DETAIL
  6
CONTINUOUS
 62
     5
 10
0.0
 20
-237.94575561013681
 30
0.0
 11
0.0
 21
-242.04997375553191
 31
0.0
  0
LINE
  8
DETAIL
  6
CONTINUOUS
 62
     5
 10
-107.3525011283477
 20
-129.55483784259351
 30
0.0
 11
-107.15470748278609
 21
-128.17028232366471
 31
0.0
  0
LINE
  8
DETAIL
  6
CONTINUOUS
 62
     5
 10
-108.1436757105923
 20
-131.0877385956926
 30
0.0
 11
-107.3525011283477
 21
-129.55483784259351
 31
0.0
  0
LINE
  8
DETAIL
  6
CONTINUOUS
 62
     5
 10
-109.18209234978831
 20
-132.07670682349891
 30
0.0
 11
-108.1436757105923
 21
-131.0877385956926
 31
0.0
  0
LINE
  8
DETAIL
  6
CONTINUOUS
 62
     5
 10
-110.6655446914974
 20
-132.6700877601825
 30
0.0
 11
-109.18209234978831
 21
-132.07670682349891
 31
0.0
  0
LINE
  8
DETAIL
  6
CONTINUOUS
 62
     5
 10
-112.1489970332066
 20
-132.86788140574339
 30
0.0
 11
-110.6655446914974
 21
-132.6700877601825
 31
0.0
  0
LINE
  8
DETAIL
  6
CONTINUOUS
 62
     5
 10
-113.6818977863061
 20
-132.37339729184049
 30
0.0
 11
-112.1489970332066
 21
-132.86788140574339
 31
0.0
  0
LINE
  8
DETAIL
  6
CONTINUOUS
 62
     5
 10
-114.8686596596733
 20
-131.68111953237641
 30
0.0
 11
-113.6818977863061
 21
-132.37339729184049
 31
0.0
  0
LINE
  8
DETAIL
  6
CONTINUOUS
 62
     5
 10
-115.85762788747959
 20
-130.39546083622849
 30
0.0
 11
-114.8686596596733
 21
-131.68111953237641
 31
0.0
  0
LINE
  8
DETAIL
  6
CONTINUOUS
 62
     5
 10
-116.4510088241632
 20
-128.86256008312901
 30
0.0
 11
-115.85762788747959
 21
-130.39546083622849
 31
0.0
  0
LINE
  8
DETAIL
  6
CONTINUOUS
 62
     5
 10
-116.4510088241632
 20
-127.3791077414198
 30
0.0
 11
-116.4510088241632
 21
-128.86256008312901
 31
0.0
  0
LINE
  8
DETAIL
  6
CONTINUOUS
 62
     5
 10
-115.85762788747959
 20
-125.8956553997109
 30
0.0
 11
-116.4510088241632
 21
-127.3791077414198
 31
0.0
  0
LINE
  8
DETAIL
  6
CONTINUOUS
 62
     5
 10
-114.8686596596733
 20
-124.5605482921724
 30
0.0
 11
-115.85762788747959
 21
-125.8956553997109
 31
0.0
  0
LINE
  8
DETAIL
  6
CONTINUOUS
 62
     5
 10
-113.6818977863061
 20
-123.86827053270849
 30
0.0
 11
-114.8686596596733
 21
-124.5605482921724
 31
0.0
  0
LINE
  8
DETAIL
  6
CONTINUOUS
 62
     5
 10
-112.1489970332066
 20
-123.37378641880539
 30
0.0
 11
-113.6818977863061
 21
-123.86827053270849
 31
0.0
  0
LINE
  8
DETAIL
  6
CONTINUOUS
 62
     5
 10
-110.6655446914974
 20
-123.571580064367
 30
0.0
 11
-112.1489970332066
 21
-123.37378641880539
 31
0.0
  0
LINE
  8
DETAIL
  6
CONTINUOUS
 62
     5
 10
-109.18209234978831
 20
-124.1649610010504
 30
0.0
 11
-110.6655446914974
 21
-123.571580064367
 31
0.0
  0
LINE
  8
DETAIL
  6
CONTINUOUS
 62
     5
 10
-108.1436757105923
 20
-125.40117128580781
 30
0.0
 11
-109.18209234978831
 21
-124.1649610010504
 31
0.0
  0
LINE
  8
DETAIL
  6
CONTINUOUS
 62
     5
 10
-107.3525011283477
 20
-126.6868299819557
 30
0.0
 11
-108.1436757105923
 21
-125.40117128580781
 31
0.0
  0
LINE
  8
DETAIL
  6
CONTINUOUS
 62
     5
 10
-107.15470748278609
 20
-128.17028232366471
 30
0.0
 11
-107.3525011283477
 21
-126.6868299819557
 31
0.0
  0
LINE
  8
DETAIL
  6
CONTINUOUS
 62
     5
 10
-109.6765764636914
 20
-128.17028232366471
 30
0.0
 11
-113.978588254648
 21
-128.17028232366471
 31
0.0
  0
LINE
  8
DETAIL
  6
CONTINUOUS
 62
     5
 10
-111.95120338764561
 20
-126.0934490452721
 30
0.0
 11
-111.95120338764561
 21
-130.19766719066729
 31
0.0
  0
LINE
  8
DETAIL
  6
CONTINUOUS
 62
     5
 10
-135.3403019752586
 20
-161.84465048046081
 30
0.0
 11
-135.14250832969759
 21
-159.86671402484899
 31
0.0
  0
LINE
  8
DETAIL
  6
CONTINUOUS
 62
     5
 10
-136.4281670258454
 20
-163.32810282217019
 30
0.0
 11
-135.3403019752586
 21
-161.84465048046081
 31
0.0
  0
LINE
  8
DETAIL
  6
CONTINUOUS
 62
     5
 10
-137.6149288992128
 20
-164.86100357526931
 30
0.0
 11
-136.4281670258454
 21
-163.32810282217019
 31
0.0
  0
LINE
  8
DETAIL
  6
CONTINUOUS
 62
     5
 10
-139.6423137662151
 20
-165.6521781575143
 30
0.0
 11
-137.6149288992128
 21
-164.86100357526931
 31
0.0
  0
LINE
  8
DETAIL
  6
CONTINUOUS
 62
     5
 10
-141.42245657626569
 20
-165.6521781575143
 30
0.0
 11
-139.6423137662151
 21
-165.6521781575143
 31
0.0
  0
LINE
  8
DETAIL
  6
CONTINUOUS
 62
     5
 10
-143.3509446204877
 20
-165.1576940436112
 30
0.0
 11
-141.42245657626569
 21
-165.6521781575143
 31
0.0
  0
LINE
  8
DETAIL
  6
CONTINUOUS
 62
     5
 10
-144.83439696219691
 20
-164.11927740441459
 30
0.0
 11
-143.3509446204877
 21
-165.1576940436112
 31
0.0
  0
LINE
  8
DETAIL
  6
CONTINUOUS
 62
     5
 10
-146.120055658345
 20
-162.63582506270561
 30
0.0
 11
-144.83439696219691
 21
-164.11927740441459
 31
0.0
  0
LINE
  8
DETAIL
  6
CONTINUOUS
 62
     5
 10
-146.9112302405895
 20
-160.85568225265499
 30
0.0
 11
-146.120055658345
 21
-162.63582506270561
 31
0.0
  0
LINE
  8
DETAIL
  6
CONTINUOUS
 62
     5
 10
-146.9112302405895
 20
-158.8282973856526
 30
0.0
 11
-146.9112302405895
 21
-160.85568225265499
 31
0.0
  0
LINE
  8
DETAIL
  6
CONTINUOUS
 62
     5
 10
-146.120055658345
 20
-157.04815457560181
 30
0.0
 11
-146.9112302405895
 21
-158.8282973856526
 31
0.0
  0
LINE
  8
DETAIL
  6
CONTINUOUS
 62
     5
 10
-144.83439696219691
 20
-155.66359905667289
 30
0.0
 11
-146.120055658345
 21
-157.04815457560181
 31
0.0
  0
LINE
  8
DETAIL
  6
CONTINUOUS
 62
     5
 10
-143.3509446204877
 20
-154.32849194913479
 30
0.0
 11
-144.83439696219691
 21
-155.66359905667289
 31
0.0
  0
LINE
  8
DETAIL
  6
CONTINUOUS
 62
     5
 10
-141.42245657626569
 20
-153.83400783523209
 30
0.0
 11
-143.3509446204877
 21
-154.32849194913479
 31
0.0
  0
LINE
  8
DETAIL
  6
CONTINUOUS
 62
     5
 10
-139.6423137662151
 20
-154.13069830357381
 30
0.0
 11
-141.42245657626569
 21
-153.83400783523209
 31
0.0
  0
LINE
  8
DETAIL
  6
CONTINUOUS
 62
     5
 10
-137.6149288992128
 20
-154.8724244744283
 30
0.0
 11
-139.6423137662151
 21
-154.13069830357381
 31
0.0
  0
LINE
  8
DETAIL
  6
CONTINUOUS
 62
     5
 10
-136.4281670258454
 20
-156.0591863477953
 30
0.0
 11
-137.6149288992128
 21
-154.8724244744283
 31
0.0
  0
LINE
  8
DETAIL
  6
CONTINUOUS
 62
     5
 10
-135.3403019752586
 20
-157.83932915784641
 30
0.0
 11
-136.4281670258454
 21
-156.0591863477953
 31
0.0
  0
LINE
  8
DETAIL
  6
CONTINUOUS
 62
     5
 10
-135.14250832969759
 20
-159.86671402484899
 30
0.0
 11
-135.3403019752586
 21
-157.83932915784641
 31
0.0
  0
LINE
  8
DETAIL
  6
CONTINUOUS
 62
     5
 10
-139.14782965231211
 20
-158.13601962618799
 30
0.0
 11
-142.6092184496334
 21
-161.64685683489981
 31
0.0
  0
LINE
  8
DETAIL
  6
CONTINUOUS
 62
     5
 10
-142.6092184496334
 20
-158.13601962618799
 30
0.0
 11
-139.14782965231211
 21
-161.64685683489981
 31
0.0
  0
LINE
  8
DETAIL
  6
CONTINUOUS
 62
     5
 10
4.499805436517363
 20
-17.801428100509039
 30
0.0
 11
4.6975990820787956
 21
-16.2190789360194
 31
0.0
  0
LINE
  8
DETAIL
  6
CONTINUOUS
 62
     5
 10
3.7086308542725419
 20
-19.284880442218078
 30
0.0
 11
4.499805436517363
 21
-17.801428100509039
 31
0.0
  0
LINE
  8
DETAIL
  6
CONTINUOUS
 62
     5
 10
2.7196626264662882
 20
-20.273848670024218
 30
0.0
 11
3.7086308542725419
 21
-19.284880442218078
 31
0.0
  0
LINE
  8
DETAIL
  6
CONTINUOUS
 62
     5
 10
1.2362102847573619
 20
-20.768332783927239
 30
0.0
 11
2.7196626264662882
 21
-20.273848670024218
 31
0.0
  0
LINE
  8
DETAIL
  6
CONTINUOUS
 62
     5
 10
-0.296690468342149
 20
-21.015574840878681
 30
0.0
 11
1.2362102847573619
 21
-20.768332783927239
 31
0.0
  0
LINE
  8
DETAIL
  6
CONTINUOUS
 62
     5
 10
-1.780142810051075
 20
-20.471642315585651
 30
0.0
 11
-0.296690468342149
 21
-21.015574840878681
 31
0.0
  0
LINE
  8
DETAIL
  6
CONTINUOUS
 62
     5
 10
-2.966904683418079
 20
-19.680467733340489
 30
0.0
 11
-1.780142810051075
 21
-20.471642315585651
 31
0.0
  0
LINE
  8
DETAIL
  6
CONTINUOUS
 62
     5
 10
-4.0547697340055038
 20
-18.493705859973371
 30
0.0
 11
-2.966904683418079
 21
-19.680467733340489
 31
0.0
  0
LINE
  8
DETAIL
  6
CONTINUOUS
 62
     5
 10
-4.5492538479077211
 20
-17.010253518264111
 30
0.0
 11
-4.0547697340055038
 21
-18.493705859973371
 31
0.0
  0
LINE
  8
DETAIL
  6
CONTINUOUS
 62
     5
 10
-4.5492538479077211
 20
-15.47735276516482
 30
0.0
 11
-4.5492538479077211
 21
-17.010253518264111
 31
0.0
  0
LINE
  8
DETAIL
  6
CONTINUOUS
 62
     5
 10
-4.0547697340055038
 20
-13.9939004234559
 30
0.0
 11
-4.5492538479077211
 21
-15.47735276516482
 31
0.0
  0
LINE
  8
DETAIL
  6
CONTINUOUS
 62
     5
 10
-2.966904683418079
 20
-12.807138550088441
 30
0.0
 11
-4.0547697340055038
 21
-13.9939004234559
 31
0.0
  0
LINE
  8
DETAIL
  6
CONTINUOUS
 62
     5
 10
-1.780142810051075
 20
-12.015963967843501
 30
0.0
 11
-2.966904683418079
 21
-12.807138550088441
 31
0.0
  0
LINE
  8
DETAIL
  6
CONTINUOUS
 62
     5
 10
-0.296690468342149
 20
-11.52147985394083
 30
0.0
 11
-1.780142810051075
 21
-12.015963967843501
 31
0.0
  0
LINE
  8
DETAIL
  6
CONTINUOUS
 62
     5
 10
1.2362102847573619
 20
-11.81817032228264
 30
0.0
 11
-0.296690468342149
 21
-11.52147985394083
 31
0.0
  0
LINE
  8
DETAIL
  6
CONTINUOUS
 62
     5
 10
2.7196626264662882
 20
-12.21375761340494
 30
0.0
 11
1.2362102847573619
 21
-11.81817032228264
 31
0.0
  0
LINE
  8
DETAIL
  6
CONTINUOUS
 62
     5
 10
3.7086308542725419
 20
-13.499416309552769
 30
0.0
 11
2.7196626264662882
 21
-12.21375761340494
 31
0.0
  0
LINE
  8
DETAIL
  6
CONTINUOUS
 62
     5
 10
4.499805436517363
 20
-14.68617818291966
 30
0.0
 11
3.7086308542725419
 21
-13.499416309552769
 31
0.0
  0
LINE
  8
DETAIL
  6
CONTINUOUS
 62
     5
 10
4.6975990820787956
 20
-16.2190789360194
 30
0.0
 11
4.499805436517363
 21
-14.68617818291966
 31
0.0
  0
LINE
  8
DETAIL
  6
CONTINUOUS
 62
     5
 10
2.2251785125636161
 20
-16.2190789360194
 30
0.0
 11
-2.0768332783929959
 21
-16.2190789360194
 31
0.0
  0
LINE
  8
DETAIL
  6
CONTINUOUS
 62
     5
 10
0.0
 20
-14.29059089179748
 30
0.0
 11
0.0
 21
-18.295912214412169
 31
0.0
  0
LINE
  8
DETAIL
  6
CONTINUOUS
 62
     5
 10
116.40156041277309
 20
-129.55483784259351
 30
0.0
 11
116.599354058334
 21
-128.17028232366471
 31
0.0
  0
LINE
  8
DETAIL
  6
CONTINUOUS
 62
     5
 10
115.6103858305278
 20
-131.0877385956926
 30
0.0
 11
116.40156041277309
 21
-129.55483784259351
 31
0.0
  0
LINE
  8
DETAIL
  6
CONTINUOUS
 62
     5
 10
114.621417602722
 20
-132.07670682349891
 30
0.0
 11
115.6103858305278
 21
-131.0877385956926
 31
0.0
  0
LINE
  8
DETAIL
  6
CONTINUOUS
 62
     5
 10
113.08851684962249
 20
-132.6700877601825
 30
0.0
 11
114.621417602722
 21
-132.07670682349891
 31
0.0
  0
LINE
  8
DETAIL
  6
CONTINUOUS
 62
     5
 10
111.6050645079131
 20
-132.86788140574339
 30
0.0
 11
113.08851684962249
 21
-132.6700877601825
 31
0.0
  0
LINE
  8
DETAIL
  6
CONTINUOUS
 62
     5
 10
110.1216121662039
 20
-132.37339729184049
 30
0.0
 11
111.6050645079131
 21
-132.86788140574339
 31
0.0
  0
LINE
  8
DETAIL
  6
CONTINUOUS
 62
     5
 10
108.8854018814466
 20
-131.68111953237641
 30
0.0
 11
110.1216121662039
 21
-132.37339729184049
 31
0.0
  0
LINE
  8
DETAIL
  6
CONTINUOUS
 62
     5
 10
107.7975368308596
 20
-130.39546083622849
 30
0.0
 11
108.8854018814466
 21
-131.68111953237641
 31
0.0
  0
LINE
  8
DETAIL
  6
CONTINUOUS
 62
     5
 10
107.4019495397376
 20
-128.86256008312901
 30
0.0
 11
107.7975368308596
 21
-130.39546083622849
 31
0.0
  0
LINE
  8
DETAIL
  6
CONTINUOUS
 62
     5
 10
107.4019495397376
 20
-127.3791077414198
 30
0.0
 11
107.4019495397376
 21
-128.86256008312901
 31
0.0
  0
LINE
  8
DETAIL
  6
CONTINUOUS
 62
     5
 10
107.7975368308596
 20
-125.8956553997109
 30
0.0
 11
107.4019495397376
 21
-127.3791077414198
 31
0.0
  0
LINE
  8
DETAIL
  6
CONTINUOUS
 62
     5
 10
108.8854018814466
 20
-124.5605482921724
 30
0.0
 11
107.7975368308596
 21
-125.8956553997109
 31
0.0
  0
LINE
  8
DETAIL
  6
CONTINUOUS
 62
     5
 10
110.1216121662039
 20
-123.86827053270849
 30
0.0
 11
108.8854018814466
 21
-124.5605482921724
 31
0.0
  0
LINE
  8
DETAIL
  6
CONTINUOUS
 62
     5
 10
111.6050645079131
 20
-123.37378641880539
 30
0.0
 11
110.1216121662039
 21
-123.86827053270849
 31
0.0
  0
LINE
  8
DETAIL
  6
CONTINUOUS
 62
     5
 10
113.08851684962249
 20
-123.571580064367
 30
0.0
 11
111.6050645079131
 21
-123.37378641880539
 31
0.0
  0
LINE
  8
DETAIL
  6
CONTINUOUS
 62
     5
 10
114.621417602722
 20
-124.1649610010504
 30
0.0
 11
113.08851684962249
 21
-123.571580064367
 31
0.0
  0
LINE
  8
DETAIL
  6
CONTINUOUS
 62
     5
 10
115.6103858305278
 20
-125.40117128580781
 30
0.0
 11
114.621417602722
 21
-124.1649610010504
 31
0.0
  0
LINE
  8
DETAIL
  6
CONTINUOUS
 62
     5
 10
116.40156041277309
 20
-126.6868299819557
 30
0.0
 11
115.6103858305278
 21
-125.40117128580781
 31
0.0
  0
LINE
  8
DETAIL
  6
CONTINUOUS
 62
     5
 10
116.599354058334
 20
-128.17028232366471
 30
0.0
 11
116.40156041277309
 21
-126.6868299819557
 31
0.0
  0
LINE
  8
DETAIL
  6
CONTINUOUS
 62
     5
 10
114.12693348881859
 20
-128.17028232366471
 30
0.0
 11
109.9238185206425
 21
-128.17028232366471
 31
0.0
  0
LINE
  8
DETAIL
  6
CONTINUOUS
 62
     5
 10
111.90175497625501
 20
-126.0934490452721
 30
0.0
 11
111.90175497625501
 21
-130.19766719066729
 31
0.0
  0
LINE
  8
DETAIL
  6
CONTINUOUS
 62
     5
 10
146.86178182919909
 20
-161.84465048046081
 30
0.0
 11
147.05957547476009
 21
-159.86671402484899
 31
0.0
  0
LINE
  8
DETAIL
  6
CONTINUOUS
 62
     5
 10
145.7739167786124
 20
-163.32810282217019
 30
0.0
 11
146.86178182919909
 21
-161.84465048046081
 31
0.0
  0
LINE
  8
DETAIL
  6
CONTINUOUS
 62
     5
 10
144.38936125968391
 20
-164.86100357526931
 30
0.0
 11
145.7739167786124
 21
-163.32810282217019
 31
0.0
  0
LINE
  8
DETAIL
  6
CONTINUOUS
 62
     5
 10
142.55977003824299
 20
-165.6521781575143
 30
0.0
 11
144.38936125968391
 21
-164.86100357526931
 31
0.0
  0
LINE
  8
DETAIL
  6
CONTINUOUS
 62
     5
 10
140.58183358263071
 20
-165.6521781575143
 30
0.0
 11
142.55977003824299
 21
-165.6521781575143
 31
0.0
  0
LINE
  8
DETAIL
  6
CONTINUOUS
 62
     5
 10
138.90058759536029
 20
-165.1576940436112
 30
0.0
 11
140.58183358263071
 21
-165.6521781575143
 31
0.0
  0
LINE
  8
DETAIL
  6
CONTINUOUS
 62
     5
 10
137.07099637391889
 20
-164.11927740441459
 30
0.0
 11
138.90058759536029
 21
-165.1576940436112
 31
0.0
  0
LINE
  8
DETAIL
  6
CONTINUOUS
 62
     5
 10
136.08202814611329
 20
-162.63582506270561
 30
0.0
 11
137.07099637391889
 21
-164.11927740441459
 31
0.0
  0
LINE
  8
DETAIL
  6
CONTINUOUS
 62
     5
 10
135.2908535638683
 20
-160.85568225265499
 30
0.0
 11
136.08202814611329
 21
-162.63582506270561
 31
0.0
  0
LINE
  8
DETAIL
  6
CONTINUOUS
 62
     5
 10
135.2908535638683
 20
-158.8282973856526
 30
0.0
 11
135.2908535638683
 21
-160.85568225265499
 31
0.0
  0
LINE
  8
DETAIL
  6
CONTINUOUS
 62
     5
 10
136.08202814611329
 20
-157.04815457560181
 30
0.0
 11
135.2908535638683
 21
-158.8282973856526
 31
0.0
  0
LINE
  8
DETAIL
  6
CONTINUOUS
 62
     5
 10
137.07099637391889
 20
-155.66359905667289
 30
0.0
 11
136.08202814611329
 21
-157.04815457560181
 31
0.0
  0
LINE
  8
DETAIL
  6
CONTINUOUS
 62
     5
 10
138.90058759536029
 20
-154.32849194913479
 30
0.0
 11
137.07099637391889
 21
-155.66359905667289
 31
0.0
  0
LINE
  8
DETAIL
  6
CONTINUOUS
 62
     5
 10
140.58183358263071
 20
-153.83400783523209
 30
0.0
 11
138.90058759536029
 21
-154.32849194913479
 31
0.0
  0
LINE
  8
DETAIL
  6
CONTINUOUS
 62
     5
 10
142.55977003824299
 20
-154.13069830357381
 30
0.0
 11
140.58183358263071
 21
-153.83400783523209
 31
0.0
  0
LINE
  8
DETAIL
  6
CONTINUOUS
 62
     5
 10
144.38936125968391
 20
-154.8724244744283
 30
0.0
 11
142.55977003824299
 21
-154.13069830357381
 31
0.0
  0
LINE
  8
DETAIL
  6
CONTINUOUS
 62
     5
 10
145.7739167786124
 20
-156.0591863477953
 30
0.0
 11
144.38936125968391
 21
-154.8724244744283
 31
0.0
  0
LINE
  8
DETAIL
  6
CONTINUOUS
 62
     5
 10
146.86178182919909
 20
-157.83932915784641
 30
0.0
 11
145.7739167786124
 21
-156.0591863477953
 31
0.0
  0
LINE
  8
DETAIL
  6
CONTINUOUS
 62
     5
 10
147.05957547476009
 20
-159.86671402484899
 30
0.0
 11
146.86178182919909
 21
-157.83932915784641
 31
0.0
  0
LINE
  8
DETAIL
  6
CONTINUOUS
 62
     5
 10
139.39507170926299
 20
-158.13601962618799
 30
0.0
 11
142.75756368380419
 21
-161.64685683489981
 31
0.0
  0
LINE
  8
DETAIL
  6
CONTINUOUS
 62
     5
 10
142.75756368380419
 20
-158.13601962618799
 30
0.0
 11
139.39507170926299
 21
-161.64685683489981
 31
0.0
  0
LINE
  8
DETAIL
  6
CONTINUOUS
 62
     5
 10
-181.57456662519189
 20
-203.48021287109549
 30
0.0
 11
-181.57456662519189
 21
-166.8389400308815
 31
0.0
  0
LINE
  8
DETAIL
  6
CONTINUOUS
 62
     5
 10
-171.58598752435071
 20
-213.46879197193681
 30
0.0
 11
-160.31174972736159
 21
-213.46879197193681
 31
0.0
  0
LINE
  8
DETAIL
  6
CONTINUOUS
 62
     5
 10
-160.31174972736159
 20
-114.9181080710637
 30
0.0
 11
-171.58598752435071
 21
-114.9181080710637
 31
0.0
  0
LINE
  8
DETAIL
  6
CONTINUOUS
 62
     5
 10
-174.80013426472021
 20
-213.270998326376
 30
0.0
 11
-171.58598752435071
 21
-213.46879197193681
 31
0.0
  0
LINE
  8
DETAIL
  6
CONTINUOUS
 62
     5
 10
-177.56924530257729
 20
-211.78754598466659
 30
0.0
 11
-174.80013426472021
 21
-213.270998326376
 31
0.0
  0
LINE
  8
DETAIL
  6
CONTINUOUS
 62
     5
 10
-179.89332063792159
 20
-209.61181588349359
 30
0.0
 11
-177.56924530257729
 21
-211.78754598466659
 31
0.0
  0
LINE
  8
DETAIL
  6
CONTINUOUS
 62
     5
 10
-181.08008251128911
 20
-206.7932564342461
 30
0.0
 11
-179.89332063792159
 21
-209.61181588349359
 31
0.0
  0
LINE
  8
DETAIL
  6
CONTINUOUS
 62
     5
 10
-181.57456662519189
 20
-203.48021287109549
 30
0.0
 11
-181.08008251128911
 21
-206.7932564342461
 31
0.0
  0
LINE
  8
DETAIL
  6
CONTINUOUS
 62
     5
 10
-176.5802770747712
 20
-116.1048699444311
 30
0.0
 11
-178.90435241011551
 21
-117.6872191089205
 31
0.0
  0
LINE
  8
DETAIL
  6
CONTINUOUS
 62
     5
 10
-174.40454697359789
 20
-115.21479853940561
 30
0.0
 11
-176.5802770747712
 21
-116.1048699444311
 31
0.0
  0
LINE
  8
DETAIL
  6
CONTINUOUS
 62
     5
 10
-171.58598752435071
 20
-114.9181080710637
 30
0.0
 11
-174.40454697359789
 21
-115.21479853940561
 31
0.0
  0
LINE
  8
DETAIL
  6
CONTINUOUS
 62
     5
 10
190.03024497293339
 20
-165.8499718030755
 30
0.0
 11
191.51369731464229
 21
-164.86100357526931
 31
0.0
  0
LINE
  8
DETAIL
  6
CONTINUOUS
 62
     5
 10
188.54679263122441
 20
-166.6411463853203
 30
0.0
 11
190.03024497293339
 21
-165.8499718030755
 31
0.0
  0
LINE
  8
DETAIL
  6
CONTINUOUS
 62
     5
 10
186.5194077642212
 20
-166.8389400308815
 30
0.0
 11
188.54679263122441
 21
-166.6411463853203
 31
0.0
  0
LINE
  8
DETAIL
  6
CONTINUOUS
 62
     5
 10
217.27631964899001
 20
-137.66437731060319
 30
0.0
 11
217.47411329455139
 21
-135.88423450055231
 31
0.0
  0
LINE
  8
DETAIL
  6
CONTINUOUS
 62
     5
 10
216.78183553508759
 20
-139.34562329787329
 30
0.0
 11
217.27631964899001
 21
-137.66437731060319
 31
0.0
  0
LINE
  8
DETAIL
  6
CONTINUOUS
 62
     5
 10
215.49617683893919
 20
-140.8785240509726
 30
0.0
 11
216.78183553508759
 21
-139.34562329787329
 31
0.0
  0
LINE
  8
DETAIL
  6
CONTINUOUS
 62
     5
 10
215.49617683893919
 20
-140.8785240509726
 30
0.0
 11
191.51369731464229
 21
-164.86100357526931
 31
0.0
  0
LINE
  8
DETAIL
  6
CONTINUOUS
 62
     5
 10
160.7567854298741
 20
-121.69254043153551
 30
0.0
 11
160.7567854298741
 21
-117.6872191089205
 31
0.0
  0
LINE
  8
DETAIL
  6
CONTINUOUS
 62
     5
 10
141.07631769653341
 20
-153.33952372132919
 30
0.0
 11
135.09305991830709
 21
-153.33952372132919
 31
0.0
  0
LINE
  8
DETAIL
  6
CONTINUOUS
 62
     5
 10
147.55405958866319
 20
-159.86671402484899
 30
0.0
 11
147.55405958866319
 21
-165.8499718030755
 31
0.0
  0
LINE
  8
DETAIL
  6
CONTINUOUS
 62
     5
 10
143.0542541521456
 20
-153.83400783523209
 30
0.0
 11
141.07631769653341
 21
-153.33952372132919
 31
0.0
  0
LINE
  8
DETAIL
  6
CONTINUOUS
 62
     5
 10
144.88384537358709
 20
-154.57573400608629
 30
0.0
 11
143.0542541521456
 21
-153.83400783523209
 31
0.0
  0
LINE
  8
DETAIL
  6
CONTINUOUS
 62
     5
 10
146.36729771529599
 20
-156.0591863477953
 30
0.0
 11
144.88384537358709
 21
-154.57573400608629
 31
0.0
  0
LINE
  8
DETAIL
  6
CONTINUOUS
 62
     5
 10
147.35626594310219
 20
-157.83932915784641
 30
0.0
 11
146.36729771529599
 21
-156.0591863477953
 31
0.0
  0
LINE
  8
DETAIL
  6
CONTINUOUS
 62
     5
 10
147.55405958866319
 20
-159.86671402484899
 30
0.0
 11
147.35626594310219
 21
-157.83932915784641
 31
0.0
  0
LINE
  8
DETAIL
  6
CONTINUOUS
 62
     5
 10
217.47411329455139
 20
-117.6872191089205
 30
0.0
 11
217.47411329455139
 21
-135.88423450055231
 31
0.0
  0
LINE
  8
DETAIL
  6
CONTINUOUS
 62
     5
 10
186.5194077642212
 20
-166.8389400308815
 30
0.0
 11
139.0983812409213
 21
-166.8389400308815
 31
0.0
  0
LINE
  8
DETAIL
  6
CONTINUOUS
 62
     5
 10
136.87320272835811
 20
-166.3444559169784
 30
0.0
 11
139.0983812409213
 21
-166.8389400308815
 31
0.0
  0
LINE
  8
DETAIL
  6
CONTINUOUS
 62
     5
 10
134.89526627274611
 20
-165.35548768917241
 30
0.0
 11
136.87320272835811
 21
-166.3444559169784
 31
0.0
  0
LINE
  8
DETAIL
  6
CONTINUOUS
 62
     5
 10
133.26346869686611
 20
-163.52589646773089
 30
0.0
 11
134.89526627274611
 21
-165.35548768917241
 31
0.0
  0
LINE
  8
DETAIL
  6
CONTINUOUS
 62
     5
 10
132.37339729184049
 20
-161.64685683489981
 30
0.0
 11
133.26346869686611
 21
-163.52589646773089
 31
0.0
  0
LINE
  8
DETAIL
  6
CONTINUOUS
 62
     5
 10
132.07670682349891
 20
-159.3227814995553
 30
0.0
 11
132.37339729184049
 21
-161.64685683489981
 31
0.0
  0
LINE
  8
DETAIL
  6
CONTINUOUS
 62
     5
 10
132.76898458296299
 20
-157.04815457560181
 30
0.0
 11
132.07670682349891
 21
-159.3227814995553
 31
0.0
  0
LINE
  8
DETAIL
  6
CONTINUOUS
 62
     5
 10
173.56392397996271
 20
-140.6807304054114
 30
0.0
 11
171.83322958130179
 21
-140.3840399370695
 31
0.0
  0
LINE
  8
DETAIL
  6
CONTINUOUS
 62
     5
 10
174.84958267611071
 20
-141.37300816487601
 30
0.0
 11
173.56392397996271
 21
-140.6807304054114
 31
0.0
  0
LINE
  8
DETAIL
  6
CONTINUOUS
 62
     5
 10
176.03634454947769
 20
-142.36197639268181
 30
0.0
 11
174.84958267611071
 21
-141.37300816487601
 31
0.0
  0
LINE
  8
DETAIL
  6
CONTINUOUS
 62
     5
 10
176.53082866338079
 20
-143.84542873439071
 30
0.0
 11
176.03634454947769
 21
-142.36197639268181
 31
0.0
  0
LINE
  8
DETAIL
  6
CONTINUOUS
 62
     5
 10
176.82751913172271
 20
-145.37832948749019
 30
0.0
 11
176.53082866338079
 21
-143.84542873439071
 31
0.0
  0
LINE
  8
DETAIL
  6
CONTINUOUS
 62
     5
 10
176.53082866338079
 20
-146.86178182919909
 30
0.0
 11
176.82751913172271
 21
-145.37832948749019
 31
0.0
  0
LINE
  8
DETAIL
  6
CONTINUOUS
 62
     5
 10
176.03634454947769
 20
-148.3452341709083
 30
0.0
 11
176.53082866338079
 21
-146.86178182919909
 31
0.0
  0
LINE
  8
DETAIL
  6
CONTINUOUS
 62
     5
 10
174.84958267611071
 20
-149.3342023987143
 30
0.0
 11
176.03634454947769
 21
-148.3452341709083
 31
0.0
  0
LINE
  8
DETAIL
  6
CONTINUOUS
 62
     5
 10
173.56392397996271
 20
-150.1748253923495
 30
0.0
 11
174.84958267611071
 21
-149.3342023987143
 31
0.0
  0
LINE
  8
DETAIL
  6
CONTINUOUS
 62
     5
 10
171.83322958130179
 20
-150.37261903791091
 30
0.0
 11
173.56392397996271
 21
-150.1748253923495
 31
0.0
  0
LINE
  8
DETAIL
  6
CONTINUOUS
 62
     5
 10
148.2463373481273
 20
-150.37261903791091
 30
0.0
 11
171.83322958130179
 21
-150.37261903791091
 31
0.0
  0
LINE
  8
DETAIL
  6
CONTINUOUS
 62
     5
 10
146.565091360857
 20
-150.1748253923495
 30
0.0
 11
148.2463373481273
 21
-150.37261903791091
 31
0.0
  0
LINE
  8
DETAIL
  6
CONTINUOUS
 62
     5
 10
145.08163901914801
 20
-149.13640875315309
 30
0.0
 11
146.565091360857
 21
-150.1748253923495
 31
0.0
  0
LINE
  8
DETAIL
  6
CONTINUOUS
 62
     5
 10
143.89487714578081
 20
-147.8507500570054
 30
0.0
 11
145.08163901914801
 21
-149.13640875315309
 31
0.0
  0
LINE
  8
DETAIL
  6
CONTINUOUS
 62
     5
 10
143.25204779770709
 20
-146.0706072469543
 30
0.0
 11
143.89487714578081
 21
-147.8507500570054
 31
0.0
  0
LINE
  8
DETAIL
  6
CONTINUOUS
 62
     5
 10
143.25204779770709
 20
-144.33991284829401
 30
0.0
 11
143.25204779770709
 21
-146.0706072469543
 31
0.0
  0
LINE
  8
DETAIL
  6
CONTINUOUS
 62
     5
 10
143.89487714578081
 20
-142.85646050658471
 30
0.0
 11
143.25204779770709
 21
-144.33991284829401
 31
0.0
  0
LINE
  8
DETAIL
  6
CONTINUOUS
 62
     5
 10
145.08163901914801
 20
-141.66969863321759
 30
0.0
 11
143.89487714578081
 21
-142.85646050658471
 31
0.0
  0
LINE
  8
DETAIL
  6
CONTINUOUS
 62
     5
 10
146.565091360857
 20
-140.6807304054114
 30
0.0
 11
145.08163901914801
 21
-141.66969863321759
 31
0.0
  0
LINE
  8
DETAIL
  6
CONTINUOUS
 62
     5
 10
148.2463373481273
 20
-140.3840399370695
 30
0.0
 11
146.565091360857
 21
-140.6807304054114
 31
0.0
  0
LINE
  8
DETAIL
  6
CONTINUOUS
 62
     5
 10
171.83322958130179
 20
-140.3840399370695
 30
0.0
 11
148.2463373481273
 21
-140.3840399370695
 31
0.0
  0
LINE
  8
DETAIL
  6
CONTINUOUS
 62
     5
 10
214.50720861113291
 20
-117.6872191089205
 30
0.0
 11
211.4908555163247
 21
-122.6815086593413
 31
0.0
  0
LINE
  8
DETAIL
  6
CONTINUOUS
 62
     5
 10
208.82064130124849
 20
-117.6872191089205
 30
0.0
 11
211.4908555163247
 21
-122.6815086593413
 31
0.0
  0
LINE
  8
DETAIL
  6
CONTINUOUS
 62
     5
 10
211.4908555163247
 20
-122.6815086593413
 30
0.0
 11
211.4908555163247
 21
-117.6872191089205
 31
0.0
  0
LINE
  8
DETAIL
  6
CONTINUOUS
 62
     5
 10
180.73394363155671
 20
-117.6872191089205
 30
0.0
 11
183.55250308080349
 21
-122.6815086593413
 31
0.0
  0
LINE
  8
DETAIL
  6
CONTINUOUS
 62
     5
 10
186.5194077642212
 20
-117.6872191089205
 30
0.0
 11
183.55250308080349
 21
-122.6815086593413
 31
0.0
  0
LINE
  8
DETAIL
  6
CONTINUOUS
 62
     5
 10
183.55250308080349
 20
-122.6815086593413
 30
0.0
 11
183.55250308080349
 21
-117.6872191089205
 31
0.0
  0
LINE
  8
DETAIL
  6
CONTINUOUS
 62
     5
 10
160.7567854298741
 20
-121.69254043153551
 30
0.0
 11
146.86178182919909
 21
-121.69254043153551
 31
0.0
  0
LINE
  8
DETAIL
  6
CONTINUOUS
 62
     5
 10
140.28514311428901
 20
-126.0934490452721
 30
0.0
 11
139.88955582316609
 21
-128.17028232366471
 31
0.0
  0
LINE
  8
DETAIL
  6
CONTINUOUS
 62
     5
 10
141.37300816487499
 20
-124.36275464661141
 30
0.0
 11
140.28514311428901
 21
-126.0934490452721
 31
0.0
  0
LINE
  8
DETAIL
  6
CONTINUOUS
 62
     5
 10
142.75756368380419
 20
-122.8793023049025
 30
0.0
 11
141.37300816487499
 21
-124.36275464661141
 31
0.0
  0
LINE
  8
DETAIL
  6
CONTINUOUS
 62
     5
 10
144.88384537358709
 20
-122.0881277226579
 30
0.0
 11
142.75756368380419
 21
-122.8793023049025
 31
0.0
  0
LINE
  8
DETAIL
  6
CONTINUOUS
 62
     5
 10
146.86178182919909
 20
-121.69254043153551
 30
0.0
 11
144.88384537358709
 21
-122.0881277226579
 31
0.0
  0
LINE
  8
DETAIL
  6
CONTINUOUS
 62
     5
 10
138.55444871562781
 20
-138.15886142450589
 30
0.0
 11
139.88955582316609
 21
-128.17028232366471
 31
0.0
  0
LINE
  8
DETAIL
  6
CONTINUOUS
 62
     5
 10
136.08202814611329
 20
-147.65295641144391
 30
0.0
 11
138.55444871562781
 21
-138.15886142450589
 31
0.0
  0
LINE
  8
DETAIL
  6
CONTINUOUS
 62
     5
 10
132.76898458296299
 20
-157.04815457560181
 30
0.0
 11
136.08202814611329
 21
-147.65295641144391
 31
0.0
  0
LINE
  8
DETAIL
  6
CONTINUOUS
 62
     5
 10
160.7567854298741
 20
-119.56625874175231
 30
0.0
 11
159.57002355650681
 21
-119.56625874175231
 31
0.0
  0
LINE
  8
DETAIL
  6
CONTINUOUS
 62
     5
 10
217.47411329455139
 20
-117.6872191089205
 30
0.0
 11
159.57002355650681
 21
-117.6872191089205
 31
0.0
  0
LINE
  8
DETAIL
  6
CONTINUOUS
 62
     5
 10
-188.29955057427321
 20
-166.6411463853203
 30
0.0
 11
-186.37106253005129
 21
-166.8389400308815
 31
0.0
  0
LINE
  8
DETAIL
  6
CONTINUOUS
 62
     5
 10
-189.88189973876291
 20
-165.8499718030755
 30
0.0
 11
-188.29955057427321
 21
-166.6411463853203
 31
0.0
  0
LINE
  8
DETAIL
  6
CONTINUOUS
 62
     5
 10
-191.36535208047189
 20
-164.86100357526931
 30
0.0
 11
-189.88189973876291
 21
-165.8499718030755
 31
0.0
  0
LINE
  8
DETAIL
  6
CONTINUOUS
 62
     5
 10
-215.24893478198791
 20
-140.8785240509726
 30
0.0
 11
-191.36535208047189
 21
-164.86100357526931
 31
0.0
  0
LINE
  8
DETAIL
  6
CONTINUOUS
 62
     5
 10
-160.60844019570359
 20
-121.69254043153551
 30
0.0
 11
-160.60844019570359
 21
-117.6872191089205
 31
0.0
  0
LINE
  8
DETAIL
  6
CONTINUOUS
 62
     5
 10
-140.82907563958219
 20
-153.33952372132919
 30
0.0
 11
-134.84581786135601
 21
-153.33952372132919
 31
0.0
  0
LINE
  8
DETAIL
  6
CONTINUOUS
 62
     5
 10
-147.30681753171211
 20
-159.86671402484899
 30
0.0
 11
-147.30681753171211
 21
-165.8499718030755
 31
0.0
  0
LINE
  8
DETAIL
  6
CONTINUOUS
 62
     5
 10
-147.10902388615079
 20
-157.83932915784641
 30
0.0
 11
-147.30681753171211
 21
-159.86671402484899
 31
0.0
  0
LINE
  8
DETAIL
  6
CONTINUOUS
 62
     5
 10
-146.120055658345
 20
-156.0591863477953
 30
0.0
 11
-147.10902388615079
 21
-157.83932915784641
 31
0.0
  0
LINE
  8
DETAIL
  6
CONTINUOUS
 62
     5
 10
-144.63660331663601
 20
-154.57573400608629
 30
0.0
 11
-146.120055658345
 21
-156.0591863477953
 31
0.0
  0
LINE
  8
DETAIL
  6
CONTINUOUS
 62
     5
 10
-142.80701209519461
 20
-153.83400783523209
 30
0.0
 11
-144.63660331663601
 21
-154.57573400608629
 31
0.0
  0
LINE
  8
DETAIL
  6
CONTINUOUS
 62
     5
 10
-140.82907563958219
 20
-153.33952372132919
 30
0.0
 11
-142.80701209519461
 21
-153.83400783523209
 31
0.0
  0
LINE
  8
DETAIL
  6
CONTINUOUS
 62
     5
 10
-217.3257680603808
 20
-117.6872191089205
 30
0.0
 11
-159.42167832233631
 21
-117.6872191089205
 31
0.0
  0
LINE
  8
DETAIL
  6
CONTINUOUS
 62
     5
 10
-186.37106253005129
 20
-166.8389400308815
 30
0.0
 11
-138.95003600675111
 21
-166.8389400308815
 31
0.0
  0
LINE
  8
DETAIL
  6
CONTINUOUS
 62
     5
 10
-131.9283615893282
 20
-159.3227814995553
 30
0.0
 11
-132.62063934879191
 21
-157.04815457560181
 31
0.0
  0
LINE
  8
DETAIL
  6
CONTINUOUS
 62
     5
 10
-132.12615523488881
 20
-161.64685683489981
 30
0.0
 11
-131.9283615893282
 21
-159.3227814995553
 31
0.0
  0
LINE
  8
DETAIL
  6
CONTINUOUS
 62
     5
 10
-133.11512346269501
 20
-163.52589646773089
 30
0.0
 11
-132.12615523488881
 21
-161.64685683489981
 31
0.0
  0
LINE
  8
DETAIL
  6
CONTINUOUS
 62
     5
 10
-134.64802421579449
 20
-165.35548768917241
 30
0.0
 11
-133.11512346269501
 21
-163.52589646773089
 31
0.0
  0
LINE
  8
DETAIL
  6
CONTINUOUS
 62
     5
 10
-136.6259606714066
 20
-166.3444559169784
 30
0.0
 11
-134.64802421579449
 21
-165.35548768917241
 31
0.0
  0
LINE
  8
DETAIL
  6
CONTINUOUS
 62
     5
 10
-138.95003600675111
 20
-166.8389400308815
 30
0.0
 11
-136.6259606714066
 21
-166.3444559169784
 31
0.0
  0
LINE
  8
DETAIL
  6
CONTINUOUS
 62
     5
 10
-173.31668192301129
 20
-150.1748253923495
 30
0.0
 11
-171.88267799269249
 21
-150.37261903791091
 31
0.0
  0
LINE
  8
DETAIL
  6
CONTINUOUS
 62
     5
 10
-174.80013426472021
 20
-149.13640875315309
 30
0.0
 11
-173.31668192301129
 21
-150.1748253923495
 31
0.0
  0
LINE
  8
DETAIL
  6
CONTINUOUS
 62
     5
 10
-176.08579296086859
 20
-147.8507500570054
 30
0.0
 11
-174.80013426472021
 21
-149.13640875315309
 31
0.0
  0
LINE
  8
DETAIL
  6
CONTINUOUS
 62
     5
 10
-176.5802770747712
 20
-146.0706072469543
 30
0.0
 11
-176.08579296086859
 21
-147.8507500570054
 31
0.0
  0
LINE
  8
DETAIL
  6
CONTINUOUS
 62
     5
 10
-176.5802770747712
 20
-144.33991284829401
 30
0.0
 11
-176.5802770747712
 21
-146.0706072469543
 31
0.0
  0
LINE
  8
DETAIL
  6
CONTINUOUS
 62
     5
 10
-176.08579296086859
 20
-142.85646050658471
 30
0.0
 11
-176.5802770747712
 21
-144.33991284829401
 31
0.0
  0
LINE
  8
DETAIL
  6
CONTINUOUS
 62
     5
 10
-174.80013426472021
 20
-141.66969863321759
 30
0.0
 11
-176.08579296086859
 21
-142.85646050658471
 31
0.0
  0
LINE
  8
DETAIL
  6
CONTINUOUS
 62
     5
 10
-173.31668192301129
 20
-140.6807304054114
 30
0.0
 11
-174.80013426472021
 21
-141.66969863321759
 31
0.0
  0
LINE
  8
DETAIL
  6
CONTINUOUS
 62
     5
 10
-171.88267799269249
 20
-140.3840399370695
 30
0.0
 11
-173.31668192301129
 21
-140.6807304054114
 31
0.0
  0
LINE
  8
DETAIL
  6
CONTINUOUS
 62
     5
 10
-148.09799211395699
 20
-150.37261903791091
 30
0.0
 11
-171.88267799269249
 21
-150.37261903791091
 31
0.0
  0
LINE
  8
DETAIL
  6
CONTINUOUS
 62
     5
 10
-146.61453977224789
 20
-140.6807304054114
 30
0.0
 11
-148.09799211395699
 21
-140.3840399370695
 31
0.0
  0
LINE
  8
DETAIL
  6
CONTINUOUS
 62
     5
 10
-145.1310874305386
 20
-141.37300816487601
 30
0.0
 11
-146.61453977224789
 21
-140.6807304054114
 31
0.0
  0
LINE
  8
DETAIL
  6
CONTINUOUS
 62
     5
 10
-144.14211920273269
 20
-142.36197639268181
 30
0.0
 11
-145.1310874305386
 21
-141.37300816487601
 31
0.0
  0
LINE
  8
DETAIL
  6
CONTINUOUS
 62
     5
 10
-143.3509446204877
 20
-143.84542873439071
 30
0.0
 11
-144.14211920273269
 21
-142.36197639268181
 31
0.0
  0
LINE
  8
DETAIL
  6
CONTINUOUS
 62
     5
 10
-143.1037025635363
 20
-145.37832948749019
 30
0.0
 11
-143.3509446204877
 21
-143.84542873439071
 31
0.0
  0
LINE
  8
DETAIL
  6
CONTINUOUS
 62
     5
 10
-143.3509446204877
 20
-146.86178182919909
 30
0.0
 11
-143.1037025635363
 21
-145.37832948749019
 31
0.0
  0
LINE
  8
DETAIL
  6
CONTINUOUS
 62
     5
 10
-144.14211920273269
 20
-148.3452341709083
 30
0.0
 11
-143.3509446204877
 21
-146.86178182919909
 31
0.0
  0
LINE
  8
DETAIL
  6
CONTINUOUS
 62
     5
 10
-145.1310874305386
 20
-149.3342023987143
 30
0.0
 11
-144.14211920273269
 21
-148.3452341709083
 31
0.0
  0
LINE
  8
DETAIL
  6
CONTINUOUS
 62
     5
 10
-146.61453977224789
 20
-150.1748253923495
 30
0.0
 11
-145.1310874305386
 21
-149.3342023987143
 31
0.0
  0
LINE
  8
DETAIL
  6
CONTINUOUS
 62
     5
 10
-148.09799211395699
 20
-150.37261903791091
 30
0.0
 11
-146.61453977224789
 21
-150.1748253923495
 31
0.0
  0
LINE
  8
DETAIL
  6
CONTINUOUS
 62
     5
 10
-171.88267799269249
 20
-140.3840399370695
 30
0.0
 11
-148.09799211395699
 21
-140.3840399370695
 31
0.0
  0
LINE
  8
DETAIL
  6
CONTINUOUS
 62
     5
 10
-180.58559839738561
 20
-117.6872191089205
 30
0.0
 11
-183.30526102385241
 21
-122.6815086593413
 31
0.0
  0
LINE
  8
DETAIL
  6
CONTINUOUS
 62
     5
 10
-186.37106253005129
 20
-117.6872191089205
 30
0.0
 11
-183.30526102385241
 21
-122.6815086593413
 31
0.0
  0
LINE
  8
DETAIL
  6
CONTINUOUS
 62
     5
 10
-183.30526102385241
 20
-122.6815086593413
 30
0.0
 11
-183.30526102385241
 21
-117.6872191089205
 31
0.0
  0
LINE
  8
DETAIL
  6
CONTINUOUS
 62
     5
 10
-160.60844019570359
 20
-121.69254043153551
 30
0.0
 11
-146.61453977224789
 21
-121.69254043153551
 31
0.0
  0
LINE
  8
DETAIL
  6
CONTINUOUS
 62
     5
 10
-144.63660331663601
 20
-122.0881277226579
 30
0.0
 11
-146.61453977224789
 21
-121.69254043153551
 31
0.0
  0
LINE
  8
DETAIL
  6
CONTINUOUS
 62
     5
 10
-142.6092184496334
 20
-122.8793023049025
 30
0.0
 11
-144.63660331663601
 21
-122.0881277226579
 31
0.0
  0
LINE
  8
DETAIL
  6
CONTINUOUS
 62
     5
 10
-141.12576610792411
 20
-124.36275464661141
 30
0.0
 11
-142.6092184496334
 21
-122.8793023049025
 31
0.0
  0
LINE
  8
DETAIL
  6
CONTINUOUS
 62
     5
 10
-140.13679788011839
 20
-126.0934490452721
 30
0.0
 11
-141.12576610792411
 21
-124.36275464661141
 31
0.0
  0
LINE
  8
DETAIL
  6
CONTINUOUS
 62
     5
 10
-139.6423137662151
 20
-128.17028232366471
 30
0.0
 11
-140.13679788011839
 21
-126.0934490452721
 31
0.0
  0
LINE
  8
DETAIL
  6
CONTINUOUS
 62
     5
 10
-160.60844019570359
 20
-119.56625874175231
 30
0.0
 11
-159.42167832233631
 21
-119.56625874175231
 31
0.0
  0
LINE
  8
DETAIL
  6
CONTINUOUS
 62
     5
 10
-135.83478608916201
 20
-147.65295641144391
 30
0.0
 11
-132.62063934879191
 21
-157.04815457560181
 31
0.0
  0
LINE
  8
DETAIL
  6
CONTINUOUS
 62
     5
 10
-138.35665507006749
 20
-138.15886142450589
 30
0.0
 11
-135.83478608916201
 21
-147.65295641144391
 31
0.0
  0
LINE
  8
DETAIL
  6
CONTINUOUS
 62
     5
 10
-139.6423137662151
 20
-128.17028232366471
 30
0.0
 11
-138.35665507006749
 21
-138.15886142450589
 31
0.0
  0
LINE
  8
DETAIL
  6
CONTINUOUS
 62
     5
 10
-216.53459347813589
 20
-139.34562329787329
 30
0.0
 11
-215.24893478198791
 21
-140.8785240509726
 31
0.0
  0
LINE
  8
DETAIL
  6
CONTINUOUS
 62
     5
 10
-217.02907759203879
 20
-137.66437731060319
 30
0.0
 11
-216.53459347813589
 21
-139.34562329787329
 31
0.0
  0
LINE
  8
DETAIL
  6
CONTINUOUS
 62
     5
 10
-217.3257680603808
 20
-135.88423450055231
 30
0.0
 11
-217.02907759203879
 21
-137.66437731060319
 31
0.0
  0
LINE
  8
DETAIL
  6
CONTINUOUS
 62
     5
 10
-217.3257680603808
 20
-117.6872191089205
 30
0.0
 11
-217.3257680603808
 21
-135.88423450055231
 31
0.0
  0
LINE
  8
DETAIL
  6
CONTINUOUS
 62
     5
 10
-214.259966554182
 20
-117.6872191089205
 30
0.0
 11
-211.34251028215431
 21
-122.6815086593413
 31
0.0
  0
LINE
  8
DETAIL
  6
CONTINUOUS
 62
     5
 10
-208.57339924429709
 20
-117.6872191089205
 30
0.0
 11
-211.34251028215431
 21
-122.6815086593413
 31
0.0
  0
LINE
  8
DETAIL
  6
CONTINUOUS
 62
     5
 10
-211.34251028215431
 20
-122.6815086593413
 30
0.0
 11
-211.34251028215431
 21
-117.6872191089205
 31
0.0
  0
LINE
  8
DETAIL
  6
CONTINUOUS
 62
     5
 10
-160.31174972736159
 20
-117.6872191089205
 30
0.0
 11
-160.31174972736159
 21
-3.510837208711564
 31
0.0
  0
LINE
  8
DETAIL
  6
CONTINUOUS
 62
     5
 10
-159.61947196789751
 20
-256.24166782454893
 30
0.0
 11
-159.1249878539943
 21
-256.24166782454893
 31
0.0
  0
LINE
  8
DETAIL
  6
CONTINUOUS
 62
     5
 10
-159.81726561345869
 20
-255.94497735620709
 30
0.0
 11
-159.61947196789751
 21
-256.24166782454893
 31
0.0
  0
LINE
  8
DETAIL
  6
CONTINUOUS
 62
     5
 10
-160.11395608180061
 20
-255.74718371064549
 30
0.0
 11
-159.81726561345869
 21
-255.94497735620709
 31
0.0
  0
LINE
  8
DETAIL
  6
CONTINUOUS
 62
     5
 10
-160.31174972736159
 20
-255.25269959674301
 30
0.0
 11
-160.11395608180061
 21
-255.74718371064549
 31
0.0
  0
LINE
  8
DETAIL
  6
CONTINUOUS
 62
     5
 10
-160.11395608180061
 20
-254.75821548283989
 30
0.0
 11
-160.31174972736159
 21
-255.25269959674301
 31
0.0
  0
LINE
  8
DETAIL
  6
CONTINUOUS
 62
     5
 10
-160.11395608180061
 20
-254.56042183727851
 30
0.0
 11
-160.11395608180061
 21
-254.75821548283989
 31
0.0
  0
LINE
  8
DETAIL
  6
CONTINUOUS
 62
     5
 10
-159.81726561345869
 20
-254.2637313689365
 30
0.0
 11
-160.11395608180061
 21
-254.56042183727851
 31
0.0
  0
LINE
  8
DETAIL
  6
CONTINUOUS
 62
     5
 10
-159.42167832233631
 20
-254.06593772337561
 30
0.0
 11
-159.81726561345869
 21
-254.2637313689365
 31
0.0
  0
LINE
  8
DETAIL
  6
CONTINUOUS
 62
     5
 10
-158.33381327174951
 20
-254.06593772337561
 30
0.0
 11
-159.42167832233631
 21
-254.06593772337561
 31
0.0
  0
LINE
  8
DETAIL
  6
CONTINUOUS
 62
     5
 10
-151.41103567710721
 20
-257.23063605235478
 30
0.0
 11
-159.1249878539943
 21
-256.24166782454893
 31
0.0
  0
LINE
  8
DETAIL
  6
CONTINUOUS
 62
     5
 10
-151.41103567710721
 20
-256.53835829289068
 30
0.0
 11
-152.59779755047461
 21
-256.24166782454893
 31
0.0
  0
LINE
  8
DETAIL
  6
CONTINUOUS
 62
     5
 10
-151.41103567710721
 20
-256.53835829289068
 30
0.0
 11
-151.41103567710721
 21
-257.23063605235478
 31
0.0
  0
LINE
  8
DETAIL
  6
CONTINUOUS
 62
     5
 10
-159.42167832233631
 20
-2.225178512563502
 30
0.0
 11
-156.40532522752801
 21
-2.225178512563502
 31
0.0
  0
LINE
  8
DETAIL
  6
CONTINUOUS
 62
     5
 10
-159.81726561345869
 20
-2.027384867002525
 30
0.0
 11
-159.42167832233631
 21
-2.225178512563502
 31
0.0
  0
LINE
  8
DETAIL
  6
CONTINUOUS
 62
     5
 10
-160.11395608180061
 20
-1.8295912214414329
 30
0.0
 11
-159.81726561345869
 21
-2.027384867002525
 31
0.0
  0
LINE
  8
DETAIL
  6
CONTINUOUS
 62
     5
 10
-160.11395608180061
 20
-1.5329007530995109
 30
0.0
 11
-160.11395608180061
 21
-1.8295912214414329
 31
0.0
  0
LINE
  8
DETAIL
  6
CONTINUOUS
 62
     5
 10
-160.31174972736159
 20
-0.9889682278060263
 30
0.0
 11
-160.11395608180061
 21
-1.5329007530995109
 31
0.0
  0
LINE
  8
DETAIL
  6
CONTINUOUS
 62
     5
 10
-160.11395608180061
 20
-0.7911745822449348
 30
0.0
 11
-160.31174972736159
 21
-0.9889682278060263
 31
0.0
  0
LINE
  8
DETAIL
  6
CONTINUOUS
 62
     5
 10
-159.81726561345869
 20
-0.2966904683419216
 30
0.0
 11
-160.11395608180061
 21
-0.7911745822449348
 31
0.0
  0
LINE
  8
DETAIL
  6
CONTINUOUS
 62
     5
 10
-159.61947196789751
 20
0.0
 30
0.0
 11
-159.81726561345869
 21
-0.2966904683419216
 31
0.0
  0
LINE
  8
DETAIL
  6
CONTINUOUS
 62
     5
 10
-159.1249878539943
 20
0.0
 30
0.0
 11
-159.61947196789751
 21
0.0
 31
0.0
  0
LINE
  8
DETAIL
  6
CONTINUOUS
 62
     5
 10
-151.41103567710721
 20
0.9889682278059127
 30
0.0
 11
-159.1249878539943
 21
0.0
 31
0.0
  0
LINE
  8
DETAIL
  6
CONTINUOUS
 62
     5
 10
-151.41103567710721
 20
0.2966904683416942
 30
0.0
 11
-152.59779755047461
 21
0.0
 31
0.0
  0
LINE
  8
DETAIL
  6
CONTINUOUS
 62
     5
 10
-151.41103567710721
 20
0.2966904683416942
 30
0.0
 11
-151.41103567710721
 21
0.9889682278059127
 31
0.0
  0
LINE
  8
DETAIL
  6
CONTINUOUS
 62
     5
 10
-160.31174972736159
 20
-3.510837208711564
 30
0.0
 11
-159.42167832233631
 21
-3.510837208711564
 31
0.0
  0
LINE
  8
DETAIL
  6
CONTINUOUS
 62
     5
 10
-160.31174972736159
 20
-252.7308306158377
 30
0.0
 11
-160.31174972736159
 21
-166.8389400308815
 31
0.0
  0
LINE
  8
DETAIL
  6
CONTINUOUS
 62
     5
 10
-160.31174972736159
 20
-252.7308306158377
 30
0.0
 11
-159.42167832233631
 21
-252.7308306158377
 31
0.0
  0
LINE
  8
DETAIL
  6
CONTINUOUS
 62
     5
 10
150.76820632903261
 20
-121.69254043153551
 30
0.0
 11
150.76820632903261
 21
-7.8128489996678354
 31
0.0
  0
LINE
  8
DETAIL
  6
CONTINUOUS
 62
     5
 10
159.57002355650681
 20
-166.8389400308815
 30
0.0
 11
159.57002355650681
 21
-253.47255678669219
 31
0.0
  0
LINE
  8
DETAIL
  6
CONTINUOUS
 62
     5
 10
158.87774579704271
 20
-1.5329007530995109
 30
0.0
 11
158.87774579704271
 21
-0.9889682278060263
 31
0.0
  0
LINE
  8
DETAIL
  6
CONTINUOUS
 62
     5
 10
158.03712280340761
 20
-0.7911745822449348
 30
0.0
 11
158.03712280340761
 21
-1.5329007530995109
 31
0.0
  0
LINE
  8
DETAIL
  6
CONTINUOUS
 62
     5
 10
158.87774579704271
 20
-0.9889682278060263
 30
0.0
 11
158.58105532870081
 21
-0.7911745822449348
 31
0.0
  0
LINE
  8
DETAIL
  6
CONTINUOUS
 62
     5
 10
159.0755394426042
 20
-0.2966904683419216
 30
0.0
 11
158.87774579704271
 21
0.0
 31
0.0
  0
LINE
  8
DETAIL
  6
CONTINUOUS
 62
     5
 10
159.37222991094561
 20
-0.4944841139031269
 30
0.0
 11
159.0755394426042
 21
-0.2966904683419216
 31
0.0
  0
LINE
  8
DETAIL
  6
CONTINUOUS
 62
     5
 10
159.57002355650681
 20
-0.7911745822449348
 30
0.0
 11
159.37222991094561
 21
-0.4944841139031269
 31
0.0
  0
LINE
  8
DETAIL
  6
CONTINUOUS
 62
     5
 10
159.57002355650681
 20
-1.5329007530995109
 30
0.0
 11
159.57002355650681
 21
-0.7911745822449348
 31
0.0
  0
LINE
  8
DETAIL
  6
CONTINUOUS
 62
     5
 10
159.37222991094561
 20
-1.8295912214414329
 30
0.0
 11
159.57002355650681
 21
-1.5329007530995109
 31
0.0
  0
LINE
  8
DETAIL
  6
CONTINUOUS
 62
     5
 10
159.0755394426042
 20
-2.225178512563502
 30
0.0
 11
159.37222991094561
 21
-1.8295912214414329
 31
0.0
  0
LINE
  8
DETAIL
  6
CONTINUOUS
 62
     5
 10
150.57041268347189
 20
0.0
 30
0.0
 11
158.87774579704271
 21
0.0
 31
0.0
  0
LINE
  8
DETAIL
  6
CONTINUOUS
 62
     5
 10
150.57041268347189
 20
0.0
 30
0.0
 11
150.57041268347189
 21
-0.7911745822449348
 31
0.0
  0
LINE
  8
DETAIL
  6
CONTINUOUS
 62
     5
 10
150.57041268347189
 20
-256.24166782454893
 30
0.0
 11
158.87774579704271
 21
-256.24166782454893
 31
0.0
  0
LINE
  8
DETAIL
  6
CONTINUOUS
 62
     5
 10
158.87774579704271
 20
-254.06593772337561
 30
0.0
 11
158.23491644896851
 21
-254.06593772337561
 31
0.0
  0
LINE
  8
DETAIL
  6
CONTINUOUS
 62
     5
 10
159.0755394426042
 20
-254.2637313689365
 30
0.0
 11
158.87774579704271
 21
-254.06593772337561
 31
0.0
  0
LINE
  8
DETAIL
  6
CONTINUOUS
 62
     5
 10
159.57002355650681
 20
-254.75821548283989
 30
0.0
 11
159.0755394426042
 21
-254.2637313689365
 31
0.0
  0
LINE
  8
DETAIL
  6
CONTINUOUS
 62
     5
 10
159.57002355650681
 20
-255.45049324230399
 30
0.0
 11
159.57002355650681
 21
-254.75821548283989
 31
0.0
  0
LINE
  8
DETAIL
  6
CONTINUOUS
 62
     5
 10
159.37222991094561
 20
-255.74718371064549
 30
0.0
 11
159.57002355650681
 21
-255.45049324230399
 31
0.0
  0
LINE
  8
DETAIL
  6
CONTINUOUS
 62
     5
 10
159.0755394426042
 20
-255.94497735620709
 30
0.0
 11
159.37222991094561
 21
-255.74718371064549
 31
0.0
  0
LINE
  8
DETAIL
  6
CONTINUOUS
 62
     5
 10
158.87774579704271
 20
-256.24166782454893
 30
0.0
 11
159.0755394426042
 21
-255.94497735620709
 31
0.0
  0
LINE
  8
DETAIL
  6
CONTINUOUS
 62
     5
 10
150.57041268347189
 20
-255.45049324230399
 30
0.0
 11
150.57041268347189
 21
-256.24166782454893
 31
0.0
  0
LINE
  8
DETAIL
  6
CONTINUOUS
 62
     5
 10
150.76820632903261
 20
-248.47826723627139
 30
0.0
 11
150.76820632903261
 21
-166.8389400308815
 31
0.0
  0
LINE
  8
DETAIL
  6
CONTINUOUS
 62
     5
 10
158.58105532870081
 20
-255.45049324230399
 30
0.0
 11
158.23491644896851
 21
-254.75821548283989
 31
0.0
  0
LINE
  8
DETAIL
  6
CONTINUOUS
 62
     5
 10
159.57002355650681
 20
-253.47255678669219
 30
0.0
 11
155.76249587945381
 21
-253.47255678669219
 31
0.0
  0
LINE
  8
DETAIL
  6
CONTINUOUS
 62
     5
 10
159.57002355650681
 20
-2.818559449247346
 30
0.0
 11
159.57002355650681
 21
-121.69254043153551
 31
0.0
  0
LINE
  8
DETAIL
  6
CONTINUOUS
 62
     5
 10
151.06489679737459
 20
-6.2304998351781933
 30
0.0
 11
150.76820632903261
 21
-7.8128489996678354
 31
0.0
  0
LINE
  8
DETAIL
  6
CONTINUOUS
 62
     5
 10
151.85607137961981
 20
-4.6975990820787956
 30
0.0
 11
151.06489679737459
 21
-6.2304998351781933
 31
0.0
  0
LINE
  8
DETAIL
  6
CONTINUOUS
 62
     5
 10
152.74614278464509
 20
-3.708630854272656
 30
0.0
 11
151.85607137961981
 21
-4.6975990820787956
 31
0.0
  0
LINE
  8
DETAIL
  6
CONTINUOUS
 62
     5
 10
154.37794036052509
 20
-3.0163530948088919
 30
0.0
 11
152.74614278464509
 21
-3.708630854272656
 31
0.0
  0
LINE
  8
DETAIL
  6
CONTINUOUS
 62
     5
 10
155.76249587945381
 20
-2.818559449247346
 30
0.0
 11
154.37794036052509
 21
-3.0163530948088919
 31
0.0
  0
LINE
  8
DETAIL
  6
CONTINUOUS
 62
     5
 10
154.37794036052509
 20
-253.2253147297404
 30
0.0
 11
155.76249587945381
 21
-253.47255678669219
 31
0.0
  0
LINE
  8
DETAIL
  6
CONTINUOUS
 62
     5
 10
152.74614278464509
 20
-252.5330369702763
 30
0.0
 11
154.37794036052509
 21
-253.2253147297404
 31
0.0
  0
LINE
  8
DETAIL
  6
CONTINUOUS
 62
     5
 10
151.85607137961981
 20
-251.5440687424705
 30
0.0
 11
152.74614278464509
 21
-252.5330369702763
 31
0.0
  0
LINE
  8
DETAIL
  6
CONTINUOUS
 62
     5
 10
151.06489679737459
 20
-250.06061640076109
 30
0.0
 11
151.85607137961981
 21
-251.5440687424705
 31
0.0
  0
LINE
  8
DETAIL
  6
CONTINUOUS
 62
     5
 10
150.76820632903261
 20
-248.47826723627139
 30
0.0
 11
151.06489679737459
 21
-250.06061640076109
 31
0.0
  0
LINE
  8
DETAIL
  6
CONTINUOUS
 62
     5
 10
155.76249587945381
 20
-1.5329007530995109
 30
0.0
 11
158.87774579704271
 21
-1.5329007530995109
 31
0.0
  0
LINE
  8
DETAIL
  6
CONTINUOUS
 62
     5
 10
156.5536704616984
 20
-2.225178512563502
 30
0.0
 11
159.0755394426042
 21
-2.225178512563502
 31
0.0
  0
LINE
  8
DETAIL
  6
CONTINUOUS
 62
     5
 10
155.76249587945381
 20
-2.818559449247346
 30
0.0
 11
159.57002355650681
 21
-2.818559449247346
 31
0.0
  0
LINE
  8
DETAIL
  6
CONTINUOUS
 62
     5
 10
-150.6198610948625
 20
-121.69254043153551
 30
0.0
 11
-150.6198610948625
 21
-7.8128489996678354
 31
0.0
  0
LINE
  8
DETAIL
  6
CONTINUOUS
 62
     5
 10
-159.42167832233631
 20
-121.69254043153551
 30
0.0
 11
-159.42167832233631
 21
-2.818559449247346
 31
0.0
  0
LINE
  8
DETAIL
  6
CONTINUOUS
 62
     5
 10
-158.63050374009151
 20
-256.24166782454893
 30
0.0
 11
-150.32317062652041
 21
-256.24166782454893
 31
0.0
  0
LINE
  8
DETAIL
  6
CONTINUOUS
 62
     5
 10
-159.1249878539943
 20
-255.94497735620709
 30
0.0
 11
-158.63050374009151
 21
-256.24166782454893
 31
0.0
  0
LINE
  8
DETAIL
  6
CONTINUOUS
 62
     5
 10
-159.42167832233631
 20
-255.74718371064549
 30
0.0
 11
-159.1249878539943
 21
-255.94497735620709
 31
0.0
  0
LINE
  8
DETAIL
  6
CONTINUOUS
 62
     5
 10
-159.42167832233631
 20
-254.56042183727851
 30
0.0
 11
-159.42167832233631
 21
-255.74718371064549
 31
0.0
  0
LINE
  8
DETAIL
  6
CONTINUOUS
 62
     5
 10
-159.1249878539943
 20
-254.2637313689365
 30
0.0
 11
-159.42167832233631
 21
-254.56042183727851
 31
0.0
  0
LINE
  8
DETAIL
  6
CONTINUOUS
 62
     5
 10
-158.63050374009151
 20
-254.06593772337561
 30
0.0
 11
-159.1249878539943
 21
-254.2637313689365
 31
0.0
  0
LINE
  8
DETAIL
  6
CONTINUOUS
 62
     5
 10
-150.32317062652041
 20
-255.45049324230399
 30
0.0
 11
-150.32317062652041
 21
-256.24166782454893
 31
0.0
  0
LINE
  8
DETAIL
  6
CONTINUOUS
 62
     5
 10
-159.1249878539943
 20
-2.027384867002525
 30
0.0
 11
-158.63050374009151
 21
-2.225178512563502
 31
0.0
  0
LINE
  8
DETAIL
  6
CONTINUOUS
 62
     5
 10
-159.42167832233631
 20
-1.8295912214414329
 30
0.0
 11
-159.1249878539943
 21
-2.027384867002525
 31
0.0
  0
LINE
  8
DETAIL
  6
CONTINUOUS
 62
     5
 10
-159.42167832233631
 20
-0.4944841139031269
 30
0.0
 11
-159.42167832233631
 21
-1.8295912214414329
 31
0.0
  0
LINE
  8
DETAIL
  6
CONTINUOUS
 62
     5
 10
-159.1249878539943
 20
-0.2966904683419216
 30
0.0
 11
-159.42167832233631
 21
-0.4944841139031269
 31
0.0
  0
LINE
  8
DETAIL
  6
CONTINUOUS
 62
     5
 10
-158.63050374009151
 20
0.0
 30
0.0
 11
-159.1249878539943
 21
-0.2966904683419216
 31
0.0
  0
LINE
  8
DETAIL
  6
CONTINUOUS
 62
     5
 10
-150.32317062652041
 20
0.0
 30
0.0
 11
-158.63050374009151
 21
0.0
 31
0.0
  0
LINE
  8
DETAIL
  6
CONTINUOUS
 62
     5
 10
-150.32317062652041
 20
-0.7911745822449348
 30
0.0
 11
-150.32317062652041
 21
0.0
 31
0.0
  0
LINE
  8
DETAIL
  6
CONTINUOUS
 62
     5
 10
-150.81765474042359
 20
-250.06061640076109
 30
0.0
 11
-150.6198610948625
 21
-248.47826723627139
 31
0.0
  0
LINE
  8
DETAIL
  6
CONTINUOUS
 62
     5
 10
-151.6088293226685
 20
-251.5440687424705
 30
0.0
 11
-150.81765474042359
 21
-250.06061640076109
 31
0.0
  0
LINE
  8
DETAIL
  6
CONTINUOUS
 62
     5
 10
-152.59779755047461
 20
-252.5330369702763
 30
0.0
 11
-151.6088293226685
 21
-251.5440687424705
 31
0.0
  0
LINE
  8
DETAIL
  6
CONTINUOUS
 62
     5
 10
-154.13069830357381
 20
-253.2253147297404
 30
0.0
 11
-152.59779755047461
 21
-252.5330369702763
 31
0.0
  0
LINE
  8
DETAIL
  6
CONTINUOUS
 62
     5
 10
-155.61415064528299
 20
-253.47255678669219
 30
0.0
 11
-154.13069830357381
 21
-253.2253147297404
 31
0.0
  0
LINE
  8
DETAIL
  6
CONTINUOUS
 62
     5
 10
-154.13069830357381
 20
-3.0163530948088919
 30
0.0
 11
-155.61415064528299
 21
-2.818559449247346
 31
0.0
  0
LINE
  8
DETAIL
  6
CONTINUOUS
 62
     5
 10
-152.59779755047461
 20
-3.708630854272656
 30
0.0
 11
-154.13069830357381
 21
-3.0163530948088919
 31
0.0
  0
LINE
  8
DETAIL
  6
CONTINUOUS
 62
     5
 10
-151.6088293226685
 20
-4.6975990820787956
 30
0.0
 11
-152.59779755047461
 21
-3.708630854272656
 31
0.0
  0
LINE
  8
DETAIL
  6
CONTINUOUS
 62
     5
 10
-150.81765474042359
 20
-6.2304998351781933
 30
0.0
 11
-151.6088293226685
 21
-4.6975990820787956
 31
0.0
  0
LINE
  8
DETAIL
  6
CONTINUOUS
 62
     5
 10
-150.6198610948625
 20
-7.8128489996678354
 30
0.0
 11
-150.81765474042359
 21
-6.2304998351781933
 31
0.0
  0
LINE
  8
DETAIL
  6
CONTINUOUS
 62
     5
 10
-150.6198610948625
 20
-248.47826723627139
 30
0.0
 11
-150.6198610948625
 21
-166.8389400308815
 31
0.0
  0
LINE
  8
DETAIL
  6
CONTINUOUS
 62
     5
 10
-159.42167832233631
 20
-2.818559449247346
 30
0.0
 11
-155.61415064528299
 21
-2.818559449247346
 31
0.0
  0
LINE
  8
DETAIL
  6
CONTINUOUS
 62
     5
 10
-159.42167832233631
 20
-253.47255678669219
 30
0.0
 11
-159.42167832233631
 21
-166.8389400308815
 31
0.0
  0
LINE
  8
DETAIL
  6
CONTINUOUS
 62
     5
 10
-158.33381327174951
 20
-1.5329007530995109
 30
0.0
 11
-155.61415064528299
 21
-1.5329007530995109
 31
0.0
  0
LINE
  8
DETAIL
  6
CONTINUOUS
 62
     5
 10
-159.42167832233631
 20
-253.47255678669219
 30
0.0
 11
-155.61415064528299
 21
-253.47255678669219
 31
0.0
  0
LINE
  8
DETAIL
  6
CONTINUOUS
 62
     5
 10
155.2680117655502
 20
-1.236210284757703
 30
0.0
 11
157.0481545756013
 21
-2.818559449247346
 31
0.0
  0
LINE
  8
DETAIL
  6
CONTINUOUS
 62
     5
 10
-148.34523417090841
 20
-1.236210284757703
 30
0.0
 11
-155.31746017694101
 21
-1.236210284757703
 31
0.0
  0
LINE
  8
DETAIL
  6
CONTINUOUS
 62
     5
 10
155.2680117655502
 20
-1.236210284757703
 30
0.0
 11
148.2463373481273
 21
-1.236210284757703
 31
0.0
  0
LINE
  8
DETAIL
  6
CONTINUOUS
 62
     5
 10
148.2463373481273
 20
-1.236210284757703
 30
0.0
 11
148.2463373481273
 21
0.0
 31
0.0
  0
LINE
  8
DETAIL
  6
CONTINUOUS
 62
     5
 10
-148.34523417090841
 20
0.0
 30
0.0
 11
-148.34523417090841
 21
-1.236210284757703
 31
0.0
  0
LINE
  8
DETAIL
  6
CONTINUOUS
 62
     5
 10
-158.33381327174951
 20
-255.45049324230399
 30
0.0
 11
158.58105532870081
 21
-255.45049324230399
 31
0.0
  0
LINE
  8
DETAIL
  6
CONTINUOUS
 62
     5
 10
148.2463373481273
 20
0.0
 30
0.0
 11
-148.34523417090841
 21
0.0
 31
0.0
  0
LINE
  8
DETAIL
  6
CONTINUOUS
 62
     5
 10
158.23491644896851
 20
-255.45049324230399
 30
0.0
 11
158.23491644896851
 21
-253.47255678669219
 31
0.0
  0
LINE
  8
DETAIL
  6
CONTINUOUS
 62
     5
 10
-156.8998093414308
 20
-2.818559449247346
 30
0.0
 11
-155.31746017694101
 21
-1.236210284757703
 31
0.0
  0
LINE
  8
DETAIL
  6
CONTINUOUS
 62
     5
 10
-158.33381327174951
 20
-253.47255678669219
 30
0.0
 11
-158.33381327174951
 21
-255.45049324230399
 31
0.0
  0
LINE
  8
DETAIL
  6
CONTINUOUS
 62
     5
 10
-148.34523417090841
 20
-256.24166782454893
 30
0.0
 11
-148.34523417090841
 21
-255.45049324230399
 31
0.0
  0
LINE
  8
DETAIL
  6
CONTINUOUS
 62
     5
 10
148.2463373481273
 20
-256.24166782454893
 30
0.0
 11
148.2463373481273
 21
-255.45049324230399
 31
0.0
  0
LINE
  8
DETAIL
  6
CONTINUOUS
 62
     5
 10
158.23491644896851
 20
-1.5329007530995109
 30
0.0
 11
158.23491644896851
 21
-0.7911745822449348
 31
0.0
  0
LINE
  8
DETAIL
  6
CONTINUOUS
 62
     5
 10
158.23491644896851
 20
-2.818559449247346
 30
0.0
 11
158.23491644896851
 21
-2.225178512563502
 31
0.0
  0
LINE
  8
DETAIL
  6
CONTINUOUS
 62
     5
 10
-148.34523417090841
 20
-256.24166782454893
 30
0.0
 11
148.2463373481273
 21
-256.24166782454893
 31
0.0
  0
LINE
  8
DETAIL
  6
CONTINUOUS
 62
     5
 10
-158.33381327174951
 20
-0.7911745822449348
 30
0.0
 11
-148.34523417090841
 21
-0.7911745822449348
 31
0.0
  0
LINE
  8
DETAIL
  6
CONTINUOUS
 62
     5
 10
148.2463373481273
 20
-0.7911745822449348
 30
0.0
 11
158.58105532870081
 21
-0.7911745822449348
 31
0.0
  0
LINE
  8
DETAIL
  6
CONTINUOUS
 62
     5
 10
-158.33381327174951
 20
-1.5329007530995109
 30
0.0
 11
-158.33381327174951
 21
-0.7911745822449348
 31
0.0
  0
LINE
  8
DETAIL
  6
CONTINUOUS
 62
     5
 10
-158.33381327174951
 20
-2.818559449247346
 30
0.0
 11
-158.33381327174951
 21
-2.225178512563502
 31
0.0
  0
LINE
  8
DETAIL
  6
CONTINUOUS
 62
     5
 10
103.5944218626844
 20
-138.15886142450589
 30
0.0
 11
103.89111233102589
 21
-128.17028232366471
 31
0.0
  0
LINE
  8
DETAIL
  6
CONTINUOUS
 62
     5
 10
102.1109695209752
 20
-147.8507500570054
 30
0.0
 11
103.5944218626844
 21
-138.15886142450589
 31
0.0
  0
LINE
  8
DETAIL
  6
CONTINUOUS
 62
     5
 10
99.935239419801746
 20
-157.34484504394371
 30
0.0
 11
102.1109695209752
 21
-147.8507500570054
 31
0.0
  0
LINE
  8
DETAIL
  6
CONTINUOUS
 62
     5
 10
96.622195856651615
 20
-166.8389400308815
 30
0.0
 11
99.935239419801746
 21
-157.34484504394371
 31
0.0
  0
LINE
  8
DETAIL
  6
CONTINUOUS
 62
     5
 10
92.419080888475946
 20
-175.83855090391671
 30
0.0
 11
96.622195856651615
 21
-166.8389400308815
 31
0.0
  0
LINE
  8
DETAIL
  6
CONTINUOUS
 62
     5
 10
87.424791338055229
 20
-184.34367766304851
 30
0.0
 11
92.419080888475946
 21
-175.83855090391671
 31
0.0
  0
LINE
  8
DETAIL
  6
CONTINUOUS
 62
     5
 10
81.639327205389918
 20
-192.30487189688731
 30
0.0
 11
87.424791338055229
 21
-184.34367766304851
 31
0.0
  0
LINE
  8
DETAIL
  6
CONTINUOUS
 62
     5
 10
75.35937895882148
 20
-199.82103042821379
 30
0.0
 11
81.639327205389918
 21
-192.30487189688731
 31
0.0
  0
LINE
  8
DETAIL
  6
CONTINUOUS
 62
     5
 10
68.13991089583692
 20
-206.5954627886845
 30
0.0
 11
75.35937895882148
 21
-199.82103042821379
 31
0.0
  0
LINE
  8
DETAIL
  6
CONTINUOUS
 62
     5
 10
60.376510307559329
 20
-212.7765142124731
 30
0.0
 11
68.13991089583692
 21
-206.5954627886845
 31
0.0
  0
LINE
  8
DETAIL
  6
CONTINUOUS
 62
     5
 10
51.970280371208219
 20
-217.9685974084546
 30
0.0
 11
60.376510307559329
 21
-212.7765142124731
 31
0.0
  0
LINE
  8
DETAIL
  6
CONTINUOUS
 62
     5
 10
43.168463143734243
 20
-222.56729966775239
 30
0.0
 11
51.970280371208219
 21
-217.9685974084546
 31
0.0
  0
LINE
  8
DETAIL
  6
CONTINUOUS
 62
     5
 10
34.168852270698842
 20
-226.27593052202499
 30
0.0
 11
43.168463143734243
 21
-222.56729966775239
 31
0.0
  0
LINE
  8
DETAIL
  6
CONTINUOUS
 62
     5
 10
24.67475728376121
 20
-229.09448997127291
 30
0.0
 11
34.168852270698842
 21
-226.27593052202499
 31
0.0
  0
LINE
  8
DETAIL
  6
CONTINUOUS
 62
     5
 10
15.0323170626516
 20
-230.97352960410441
 30
0.0
 11
24.67475728376121
 21
-229.09448997127291
 31
0.0
  0
LINE
  8
DETAIL
  6
CONTINUOUS
 62
     5
 10
4.9942895504207172
 20
-232.06139465469099
 30
0.0
 11
15.0323170626516
 21
-230.97352960410441
 31
0.0
  0
LINE
  8
DETAIL
  6
CONTINUOUS
 62
     5
 10
-4.7470474934691538
 20
-232.06139465469099
 30
0.0
 11
4.9942895504207172
 21
-232.06139465469099
 31
0.0
  0
LINE
  8
DETAIL
  6
CONTINUOUS
 62
     5
 10
-14.78507500570049
 20
-230.97352960410441
 30
0.0
 11
-4.7470474934691538
 21
-232.06139465469099
 31
0.0
  0
LINE
  8
DETAIL
  6
CONTINUOUS
 62
     5
 10
-24.526412049590359
 20
-229.09448997127291
 30
0.0
 11
-14.78507500570049
 21
-230.97352960410441
 31
0.0
  0
LINE
  8
DETAIL
  6
CONTINUOUS
 62
     5
 10
-34.020507036527988
 20
-226.27593052202499
 30
0.0
 11
-24.526412049590359
 21
-229.09448997127291
 31
0.0
  0
LINE
  8
DETAIL
  6
CONTINUOUS
 62
     5
 10
-42.92122108678268
 20
-222.56729966775239
 30
0.0
 11
-34.020507036527988
 21
-226.27593052202499
 31
0.0
  0
LINE
  8
DETAIL
  6
CONTINUOUS
 62
     5
 10
-52.019728782598797
 20
-217.9685974084546
 30
0.0
 11
-42.92122108678268
 21
-222.56729966775239
 31
0.0
  0
LINE
  8
DETAIL
  6
CONTINUOUS
 62
     5
 10
-60.228165073388944
 20
-212.7765142124731
 30
0.0
 11
-52.019728782598797
 21
-217.9685974084546
 31
0.0
  0
LINE
  8
DETAIL
  6
CONTINUOUS
 62
     5
 10
-67.892668838886038
 20
-206.5954627886845
 30
0.0
 11
-60.228165073388944
 21
-212.7765142124731
 31
0.0
  0
LINE
  8
DETAIL
  6
CONTINUOUS
 62
     5
 10
-75.211033724650633
 20
-199.82103042821379
 30
0.0
 11
-67.892668838886038
 21
-206.5954627886845
 31
0.0
  0
LINE
  8
DETAIL
  6
CONTINUOUS
 62
     5
 10
-81.688775616780049
 20
-192.30487189688731
 30
0.0
 11
-75.211033724650633
 21
-199.82103042821379
 31
0.0
  0
LINE
  8
DETAIL
  6
CONTINUOUS
 62
     5
 10
-87.375342926665326
 20
-184.34367766304851
 30
0.0
 11
-81.688775616780049
 21
-192.30487189688731
 31
0.0
  0
LINE
  8
DETAIL
  6
CONTINUOUS
 62
     5
 10
-92.171838831524155
 20
-175.83855090391671
 30
0.0
 11
-87.375342926665326
 21
-184.34367766304851
 31
0.0
  0
LINE
  8
DETAIL
  6
CONTINUOUS
 62
     5
 10
-96.473850622480995
 20
-166.8389400308815
 30
0.0
 11
-92.171838831524155
 21
-175.83855090391671
 31
0.0
  0
LINE
  8
DETAIL
  6
CONTINUOUS
 62
     5
 10
-99.68799736285041
 20
-157.34484504394371
 30
0.0
 11
-96.473850622480995
 21
-166.8389400308815
 31
0.0
  0
LINE
  8
DETAIL
  6
CONTINUOUS
 62
     5
 10
-101.9626242868044
 20
-147.8507500570054
 30
0.0
 11
-99.68799736285041
 21
-157.34484504394371
 31
0.0
  0
LINE
  8
DETAIL
  6
CONTINUOUS
 62
     5
 10
-103.34717980573259
 20
-138.15886142450589
 30
0.0
 11
-101.9626242868044
 21
-147.8507500570054
 31
0.0
  0
LINE
  8
DETAIL
  6
CONTINUOUS
 62
     5
 10
-103.9900091538066
 20
-128.17028232366471
 30
0.0
 11
-103.34717980573259
 21
-138.15886142450589
 31
0.0
  0
LINE
  8
DETAIL
  6
CONTINUOUS
 62
     5
 10
-103.34717980573259
 20
-118.3794968683851
 30
0.0
 11
-103.9900091538066
 21
-128.17028232366471
 31
0.0
  0
LINE
  8
DETAIL
  6
CONTINUOUS
 62
     5
 10
-101.9626242868044
 20
-108.3909177675434
 30
0.0
 11
-103.34717980573259
 21
-118.3794968683851
 31
0.0
  0
LINE
  8
DETAIL
  6
CONTINUOUS
 62
     5
 10
-99.68799736285041
 20
-98.896822780605788
 30
0.0
 11
-101.9626242868044
 21
-108.3909177675434
 31
0.0
  0
LINE
  8
DETAIL
  6
CONTINUOUS
 62
     5
 10
-96.473850622480995
 20
-89.402727793667282
 30
0.0
 11
-99.68799736285041
 21
-98.896822780605788
 31
0.0
  0
LINE
  8
DETAIL
  6
CONTINUOUS
 62
     5
 10
-92.171838831524155
 20
-80.452565332022687
 30
0.0
 11
-96.473850622480995
 21
-89.402727793667282
 31
0.0
  0
LINE
  8
DETAIL
  6
CONTINUOUS
 62
     5
 10
-87.375342926665326
 20
-71.947438572890633
 30
0.0
 11
-92.171838831524155
 21
-80.452565332022687
 31
0.0
  0
LINE
  8
DETAIL
  6
CONTINUOUS
 62
     5
 10
-81.688775616780049
 20
-63.936795927661713
 30
0.0
 11
-87.375342926665326
 21
-71.947438572890633
 31
0.0
  0
LINE
  8
DETAIL
  6
CONTINUOUS
 62
     5
 10
-75.211033724650633
 20
-56.470085807725582
 30
0.0
 11
-81.688775616780049
 21
-63.936795927661713
 31
0.0
  0
LINE
  8
DETAIL
  6
CONTINUOUS
 62
     5
 10
-67.892668838886038
 20
-49.646205035863893
 30
0.0
 11
-75.211033724650633
 21
-56.470085807725582
 31
0.0
  0
LINE
  8
DETAIL
  6
CONTINUOUS
 62
     5
 10
-60.228165073388944
 20
-43.465153612076051
 30
0.0
 11
-67.892668838886038
 21
-49.646205035863893
 31
0.0
  0
LINE
  8
DETAIL
  6
CONTINUOUS
 62
     5
 10
-52.019728782598797
 20
-38.273070416094583
 30
0.0
 11
-60.228165073388944
 21
-43.465153612076051
 31
0.0
  0
LINE
  8
DETAIL
  6
CONTINUOUS
 62
     5
 10
-42.92122108678268
 20
-33.674368156796277
 30
0.0
 11
-52.019728782598797
 21
-38.273070416094583
 31
0.0
  0
LINE
  8
DETAIL
  6
CONTINUOUS
 62
     5
 10
-34.020507036527988
 20
-29.965737302523621
 30
0.0
 11
-42.92122108678268
 21
-33.674368156796277
 31
0.0
  0
LINE
  8
DETAIL
  6
CONTINUOUS
 62
     5
 10
-24.526412049590359
 20
-27.19662626466663
 30
0.0
 11
-34.020507036527988
 21
-29.965737302523621
 31
0.0
  0
LINE
  8
DETAIL
  6
CONTINUOUS
 62
     5
 10
-14.78507500570049
 20
-25.268138220444829
 30
0.0
 11
-24.526412049590359
 21
-27.19662626466663
 31
0.0
  0
LINE
  8
DETAIL
  6
CONTINUOUS
 62
     5
 10
-4.7470474934691538
 20
-24.476963638200228
 30
0.0
 11
-14.78507500570049
 21
-25.268138220444829
 31
0.0
  0
LINE
  8
DETAIL
  6
CONTINUOUS
 62
     5
 10
4.9942895504207172
 20
-24.476963638200228
 30
0.0
 11
-4.7470474934691538
 21
-24.476963638200228
 31
0.0
  0
LINE
  8
DETAIL
  6
CONTINUOUS
 62
     5
 10
15.0323170626516
 20
-25.268138220444829
 30
0.0
 11
4.9942895504207172
 21
-24.476963638200228
 31
0.0
  0
LINE
  8
DETAIL
  6
CONTINUOUS
 62
     5
 10
24.67475728376121
 20
-27.19662626466663
 30
0.0
 11
15.0323170626516
 21
-25.268138220444829
 31
0.0
  0
LINE
  8
DETAIL
  6
CONTINUOUS
 62
     5
 10
34.168852270698842
 20
-29.965737302523621
 30
0.0
 11
24.67475728376121
 21
-27.19662626466663
 31
0.0
  0
LINE
  8
DETAIL
  6
CONTINUOUS
 62
     5
 10
43.168463143734243
 20
-33.674368156796277
 30
0.0
 11
34.168852270698842
 21
-29.965737302523621
 31
0.0
  0
LINE
  8
DETAIL
  6
CONTINUOUS
 62
     5
 10
51.970280371208219
 20
-38.273070416094583
 30
0.0
 11
43.168463143734243
 21
-33.674368156796277
 31
0.0
  0
LINE
  8
DETAIL
  6
CONTINUOUS
 62
     5
 10
60.376510307559329
 20
-43.465153612076051
 30
0.0
 11
51.970280371208219
 21
-38.273070416094583
 31
0.0
  0
LINE
  8
DETAIL
  6
CONTINUOUS
 62
     5
 10
68.13991089583692
 20
-49.646205035863893
 30
0.0
 11
60.376510307559329
 21
-43.465153612076051
 31
0.0
  0
LINE
  8
DETAIL
  6
CONTINUOUS
 62
     5
 10
75.35937895882148
 20
-56.470085807725582
 30
0.0
 11
68.13991089583692
 21
-49.646205035863893
 31
0.0
  0
LINE
  8
DETAIL
  6
CONTINUOUS
 62
     5
 10
81.639327205389918
 20
-63.936795927661713
 30
0.0
 11
75.35937895882148
 21
-56.470085807725582
 31
0.0
  0
LINE
  8
DETAIL
  6
CONTINUOUS
 62
     5
 10
87.424791338055229
 20
-71.947438572890633
 30
0.0
 11
81.639327205389918
 21
-63.936795927661713
 31
0.0
  0
LINE
  8
DETAIL
  6
CONTINUOUS
 62
     5
 10
92.419080888475946
 20
-80.452565332022687
 30
0.0
 11
87.424791338055229
 21
-71.947438572890633
 31
0.0
  0
LINE
  8
DETAIL
  6
CONTINUOUS
 62
     5
 10
96.622195856651615
 20
-89.402727793667282
 30
0.0
 11
92.419080888475946
 21
-80.452565332022687
 31
0.0
  0
LINE
  8
DETAIL
  6
CONTINUOUS
 62
     5
 10
99.935239419801746
 20
-98.896822780605788
 30
0.0
 11
96.622195856651615
 21
-89.402727793667282
 31
0.0
  0
LINE
  8
DETAIL
  6
CONTINUOUS
 62
     5
 10
102.1109695209752
 20
-108.3909177675434
 30
0.0
 11
99.935239419801746
 21
-98.896822780605788
 31
0.0
  0
LINE
  8
DETAIL
  6
CONTINUOUS
 62
     5
 10
103.5944218626844
 20
-118.3794968683851
 30
0.0
 11
102.1109695209752
 21
-108.3909177675434
 31
0.0
  0
LINE
  8
DETAIL
  6
CONTINUOUS
 62
     5
 10
103.89111233102589
 20
-128.17028232366471
 30
0.0
 11
103.5944218626844
 21
-118.3794968683851
 31
0.0
  0
LINE
  8
DETAIL
  6
CONTINUOUS
 62
     5
 10
112.3962390901581
 20
-109.3798859953497
 30
0.0
 11
112.3962390901581
 21
-108.5887114131049
 31
0.0
  0
LINE
  8
DETAIL
  6
CONTINUOUS
 62
     5
 10
111.90175497625501
 20
-110.2205089889849
 30
0.0
 11
112.3962390901581
 21
-109.3798859953497
 31
0.0
  0
LINE
  8
DETAIL
  6
CONTINUOUS
 62
     5
 10
111.40727086235169
 20
-110.41830263454609
 30
0.0
 11
111.90175497625501
 21
-110.2205089889849
 31
0.0
  0
LINE
  8
DETAIL
  6
CONTINUOUS
 62
     5
 10
110.81388992566799
 20
-110.91278674844919
 30
0.0
 11
111.40727086235169
 21
-110.41830263454609
 31
0.0
  0
LINE
  8
DETAIL
  6
CONTINUOUS
 62
     5
 10
110.1216121662039
 20
-110.91278674844919
 30
0.0
 11
110.81388992566799
 21
-110.91278674844919
 31
0.0
  0
LINE
  8
DETAIL
  6
CONTINUOUS
 62
     5
 10
109.4293344067401
 20
-110.714993102888
 30
0.0
 11
110.1216121662039
 21
-110.91278674844919
 31
0.0
  0
LINE
  8
DETAIL
  6
CONTINUOUS
 62
     5
 10
108.8854018814466
 20
-110.41830263454609
 30
0.0
 11
109.4293344067401
 21
-110.714993102888
 31
0.0
  0
LINE
  8
DETAIL
  6
CONTINUOUS
 62
     5
 10
108.2920209447627
 20
-109.5776796409109
 30
0.0
 11
108.8854018814466
 21
-110.41830263454609
 31
0.0
  0
LINE
  8
DETAIL
  6
CONTINUOUS
 62
     5
 10
108.09422729920151
 20
-109.18209234978831
 30
0.0
 11
108.2920209447627
 21
-109.5776796409109
 31
0.0
  0
LINE
  8
DETAIL
  6
CONTINUOUS
 62
     5
 10
108.09422729920151
 20
-108.3909177675434
 30
0.0
 11
108.09422729920151
 21
-109.18209234978831
 31
0.0
  0
LINE
  8
DETAIL
  6
CONTINUOUS
 62
     5
 10
108.2920209447627
 20
-107.69864000807929
 30
0.0
 11
108.09422729920151
 21
-108.3909177675434
 31
0.0
  0
LINE
  8
DETAIL
  6
CONTINUOUS
 62
     5
 10
108.8854018814466
 20
-107.10525907139591
 30
0.0
 11
108.2920209447627
 21
-107.69864000807929
 31
0.0
  0
LINE
  8
DETAIL
  6
CONTINUOUS
 62
     5
 10
109.4293344067401
 20
-106.7096717802735
 30
0.0
 11
108.8854018814466
 21
-107.10525907139591
 31
0.0
  0
LINE
  8
DETAIL
  6
CONTINUOUS
 62
     5
 10
110.1216121662039
 20
-106.7096717802735
 30
0.0
 11
109.4293344067401
 21
-106.7096717802735
 31
0.0
  0
LINE
  8
DETAIL
  6
CONTINUOUS
 62
     5
 10
110.81388992566799
 20
-106.7096717802735
 30
0.0
 11
110.1216121662039
 21
-106.7096717802735
 31
0.0
  0
LINE
  8
DETAIL
  6
CONTINUOUS
 62
     5
 10
111.40727086235169
 20
-106.9074654258345
 30
0.0
 11
110.81388992566799
 21
-106.7096717802735
 31
0.0
  0
LINE
  8
DETAIL
  6
CONTINUOUS
 62
     5
 10
111.90175497625501
 20
-107.4019495397376
 30
0.0
 11
111.40727086235169
 21
-106.9074654258345
 31
0.0
  0
LINE
  8
DETAIL
  6
CONTINUOUS
 62
     5
 10
112.3962390901581
 20
-107.8964336536408
 30
0.0
 11
111.90175497625501
 21
-107.4019495397376
 31
0.0
  0
LINE
  8
DETAIL
  6
CONTINUOUS
 62
     5
 10
112.3962390901581
 20
-108.5887114131049
 30
0.0
 11
112.3962390901581
 21
-107.8964336536408
 31
0.0
  0
LINE
  8
DETAIL
  6
CONTINUOUS
 62
     5
 10
-17.257495575215671
 20
-18.69149950553447
 30
0.0
 11
-17.257495575215671
 21
-17.999221746070251
 31
0.0
  0
LINE
  8
DETAIL
  6
CONTINUOUS
 62
     5
 10
-17.751979689119029
 20
-19.284880442218078
 30
0.0
 11
-17.257495575215671
 21
-18.69149950553447
 31
0.0
  0
LINE
  8
DETAIL
  6
CONTINUOUS
 62
     5
 10
-18.246463803021701
 20
-19.680467733340489
 30
0.0
 11
-17.751979689119029
 21
-19.284880442218078
 31
0.0
  0
LINE
  8
DETAIL
  6
CONTINUOUS
 62
     5
 10
-18.740947916925052
 20
-19.977158201682411
 30
0.0
 11
-18.246463803021701
 21
-19.680467733340489
 31
0.0
  0
LINE
  8
DETAIL
  6
CONTINUOUS
 62
     5
 10
-19.532122499169649
 20
-19.977158201682411
 30
0.0
 11
-18.740947916925052
 21
-19.977158201682411
 31
0.0
  0
LINE
  8
DETAIL
  6
CONTINUOUS
 62
     5
 10
-20.273848670024559
 20
-19.977158201682411
 30
0.0
 11
-19.532122499169649
 21
-19.977158201682411
 31
0.0
  0
LINE
  8
DETAIL
  6
CONTINUOUS
 62
     5
 10
-20.768332783927011
 20
-19.482674087779628
 30
0.0
 11
-20.273848670024559
 21
-19.977158201682411
 31
0.0
  0
LINE
  8
DETAIL
  6
CONTINUOUS
 62
     5
 10
-21.262816897830131
 20
-18.988189973876391
 30
0.0
 11
-20.768332783927011
 21
-19.482674087779628
 31
0.0
  0
LINE
  8
DETAIL
  6
CONTINUOUS
 62
     5
 10
-21.55950736617206
 20
-18.295912214412169
 30
0.0
 11
-21.262816897830131
 21
-18.988189973876391
 31
0.0
  0
LINE
  8
DETAIL
  6
CONTINUOUS
 62
     5
 10
-21.55950736617206
 20
-17.504737632167231
 30
0.0
 11
-21.55950736617206
 21
-18.295912214412169
 31
0.0
  0
LINE
  8
DETAIL
  6
CONTINUOUS
 62
     5
 10
-21.262816897830131
 20
-17.010253518264111
 30
0.0
 11
-21.55950736617206
 21
-17.504737632167231
 31
0.0
  0
LINE
  8
DETAIL
  6
CONTINUOUS
 62
     5
 10
-20.768332783927011
 20
-16.515769404361318
 30
0.0
 11
-21.262816897830131
 21
-17.010253518264111
 31
0.0
  0
LINE
  8
DETAIL
  6
CONTINUOUS
 62
     5
 10
-20.273848670024559
 20
-16.021285290457971
 30
0.0
 11
-20.768332783927011
 21
-16.515769404361318
 31
0.0
  0
LINE
  8
DETAIL
  6
CONTINUOUS
 62
     5
 10
-19.532122499169649
 20
-15.774043233506751
 30
0.0
 11
-20.273848670024559
 21
-16.021285290457971
 31
0.0
  0
LINE
  8
DETAIL
  6
CONTINUOUS
 62
     5
 10
-18.740947916925052
 20
-16.021285290457971
 30
0.0
 11
-19.532122499169649
 21
-15.774043233506751
 31
0.0
  0
LINE
  8
DETAIL
  6
CONTINUOUS
 62
     5
 10
-18.246463803021701
 20
-16.2190789360194
 30
0.0
 11
-18.740947916925052
 21
-16.021285290457971
 31
0.0
  0
LINE
  8
DETAIL
  6
CONTINUOUS
 62
     5
 10
-17.751979689119029
 20
-16.81245987270313
 30
0.0
 11
-18.246463803021701
 21
-16.2190789360194
 31
0.0
  0
LINE
  8
DETAIL
  6
CONTINUOUS
 62
     5
 10
-17.257495575215671
 20
-17.20804716382543
 30
0.0
 11
-17.751979689119029
 21
-16.81245987270313
 31
0.0
  0
LINE
  8
DETAIL
  6
CONTINUOUS
 62
     5
 10
-17.257495575215671
 20
-17.999221746070251
 30
0.0
 11
-17.257495575215671
 21
-17.20804716382543
 31
0.0
  0
LINE
  8
DETAIL
  6
CONTINUOUS
 62
     5
 10
-108.1436757105923
 20
-148.3452341709083
 30
0.0
 11
-107.8469852422504
 21
-147.65295641144391
 31
0.0
  0
LINE
  8
DETAIL
  6
CONTINUOUS
 62
     5
 10
-108.3414693561535
 20
-148.8397182848114
 30
0.0
 11
-108.1436757105923
 21
-148.3452341709083
 31
0.0
  0
LINE
  8
DETAIL
  6
CONTINUOUS
 62
     5
 10
-108.9842987042275
 20
-149.3342023987143
 30
0.0
 11
-108.3414693561535
 21
-148.8397182848114
 31
0.0
  0
LINE
  8
DETAIL
  6
CONTINUOUS
 62
     5
 10
-109.6765764636914
 20
-149.58144445566609
 30
0.0
 11
-108.9842987042275
 21
-149.3342023987143
 31
0.0
  0
LINE
  8
DETAIL
  6
CONTINUOUS
 62
     5
 10
-110.1710605775947
 20
-149.58144445566609
 30
0.0
 11
-109.6765764636914
 21
-149.58144445566609
 31
0.0
  0
LINE
  8
DETAIL
  6
CONTINUOUS
 62
     5
 10
-110.86333833705859
 20
-149.58144445566609
 30
0.0
 11
-110.1710605775947
 21
-149.58144445566609
 31
0.0
  0
LINE
  8
DETAIL
  6
CONTINUOUS
 62
     5
 10
-111.6545129193037
 20
-149.13640875315309
 30
0.0
 11
-110.86333833705859
 21
-149.58144445566609
 31
0.0
  0
LINE
  8
DETAIL
  6
CONTINUOUS
 62
     5
 10
-111.95120338764561
 20
-148.5430278164695
 30
0.0
 11
-111.6545129193037
 21
-149.13640875315309
 31
0.0
  0
LINE
  8
DETAIL
  6
CONTINUOUS
 62
     5
 10
-112.1489970332066
 20
-147.8507500570054
 30
0.0
 11
-111.95120338764561
 21
-148.5430278164695
 31
0.0
  0
LINE
  8
DETAIL
  6
CONTINUOUS
 62
     5
 10
-112.1489970332066
 20
-147.05957547476049
 30
0.0
 11
-112.1489970332066
 21
-147.8507500570054
 31
0.0
  0
LINE
  8
DETAIL
  6
CONTINUOUS
 62
     5
 10
-111.95120338764561
 20
-146.66398818363791
 30
0.0
 11
-112.1489970332066
 21
-147.05957547476049
 31
0.0
  0
LINE
  8
DETAIL
  6
CONTINUOUS
 62
     5
 10
-111.6545129193037
 20
-146.0706072469543
 30
0.0
 11
-111.95120338764561
 21
-146.66398818363791
 31
0.0
  0
LINE
  8
DETAIL
  6
CONTINUOUS
 62
     5
 10
-110.86333833705859
 20
-145.67501995583211
 30
0.0
 11
-111.6545129193037
 21
-146.0706072469543
 31
0.0
  0
LINE
  8
DETAIL
  6
CONTINUOUS
 62
     5
 10
-110.1710605775947
 20
-145.37832948749019
 30
0.0
 11
-110.86333833705859
 21
-145.67501995583211
 31
0.0
  0
LINE
  8
DETAIL
  6
CONTINUOUS
 62
     5
 10
-109.6765764636914
 20
-145.67501995583211
 30
0.0
 11
-110.1710605775947
 21
-145.37832948749019
 31
0.0
  0
LINE
  8
DETAIL
  6
CONTINUOUS
 62
     5
 10
-108.9842987042275
 20
-145.87281360139309
 30
0.0
 11
-109.6765764636914
 21
-145.67501995583211
 31
0.0
  0
LINE
  8
DETAIL
  6
CONTINUOUS
 62
     5
 10
-108.3414693561535
 20
-146.36729771529619
 30
0.0
 11
-108.9842987042275
 21
-145.87281360139309
 31
0.0
  0
LINE
  8
DETAIL
  6
CONTINUOUS
 62
     5
 10
-108.1436757105923
 20
-146.86178182919909
 30
0.0
 11
-108.3414693561535
 21
-146.36729771529619
 31
0.0
  0
LINE
  8
DETAIL
  6
CONTINUOUS
 62
     5
 10
-107.8469852422504
 20
-147.65295641144391
 30
0.0
 11
-108.1436757105923
 21
-146.86178182919909
 31
0.0
  0
LINE
  8
DETAIL
  6
CONTINUOUS
 62
     5
 10
21.510058954781471
 20
-239.08306907211411
 30
0.0
 11
21.7078526003429
 21
-238.24244607847851
 31
0.0
  0
LINE
  8
DETAIL
  6
CONTINUOUS
 62
     5
 10
21.21336848643978
 20
-239.77534683157839
 30
0.0
 11
21.510058954781471
 21
-239.08306907211411
 31
0.0
  0
LINE
  8
DETAIL
  6
CONTINUOUS
 62
     5
 10
20.71888437253665
 20
-240.07203729992031
 30
0.0
 11
21.21336848643978
 21
-239.77534683157839
 31
0.0
  0
LINE
  8
DETAIL
  6
CONTINUOUS
 62
     5
 10
20.026606613072541
 20
-240.46762459104229
 30
0.0
 11
20.71888437253665
 21
-240.07203729992031
 31
0.0
  0
LINE
  8
DETAIL
  6
CONTINUOUS
 62
     5
 10
19.482674087779511
 20
-240.46762459104229
 30
0.0
 11
20.026606613072541
 21
-240.46762459104229
 31
0.0
  0
LINE
  8
DETAIL
  6
CONTINUOUS
 62
     5
 10
17.90032492328919
 20
-240.07203729992031
 30
0.0
 11
19.482674087779511
 21
-240.46762459104229
 31
0.0
  0
LINE
  8
DETAIL
  6
CONTINUOUS
 62
     5
 10
17.70253127772844
 20
-239.28086271767481
 30
0.0
 11
17.90032492328919
 21
-240.07203729992031
 31
0.0
  0
LINE
  8
DETAIL
  6
CONTINUOUS
 62
     5
 10
17.504737632167011
 20
-238.78637860377239
 30
0.0
 11
17.70253127772844
 21
-239.28086271767481
 31
0.0
  0
LINE
  8
DETAIL
  6
CONTINUOUS
 62
     5
 10
17.504737632167011
 20
-237.94575561013681
 30
0.0
 11
17.504737632167011
 21
-238.78637860377239
 31
0.0
  0
LINE
  8
DETAIL
  6
CONTINUOUS
 62
     5
 10
17.70253127772844
 20
-237.2534778506724
 30
0.0
 11
17.504737632167011
 21
-237.94575561013681
 31
0.0
  0
LINE
  8
DETAIL
  6
CONTINUOUS
 62
     5
 10
17.90032492328919
 20
-236.7589937367695
 30
0.0
 11
17.70253127772844
 21
-237.2534778506724
 31
0.0
  0
LINE
  8
DETAIL
  6
CONTINUOUS
 62
     5
 10
18.691499505534239
 20
-236.2645096228664
 30
0.0
 11
17.90032492328919
 21
-236.7589937367695
 31
0.0
  0
LINE
  8
DETAIL
  6
CONTINUOUS
 62
     5
 10
20.026606613072541
 20
-236.2645096228664
 30
0.0
 11
18.691499505534239
 21
-236.2645096228664
 31
0.0
  0
LINE
  8
DETAIL
  6
CONTINUOUS
 62
     5
 10
20.71888437253665
 20
-236.56120009120829
 30
0.0
 11
20.026606613072541
 21
-236.2645096228664
 31
0.0
  0
LINE
  8
DETAIL
  6
CONTINUOUS
 62
     5
 10
21.21336848643978
 20
-237.05568420511099
 30
0.0
 11
20.71888437253665
 21
-236.56120009120829
 31
0.0
  0
LINE
  8
DETAIL
  6
CONTINUOUS
 62
     5
 10
21.510058954781471
 20
-237.55016831901429
 30
0.0
 11
21.21336848643978
 21
-237.05568420511099
 31
0.0
  0
LINE
  8
DETAIL
  6
CONTINUOUS
 62
     5
 10
21.7078526003429
 20
-238.24244607847851
 30
0.0
 11
21.510058954781471
 21
-237.55016831901429
 31
0.0
  0
LINE
  8
DETAIL
  6
CONTINUOUS
 62
     5
 10
-117.1432865836273
 20
-126.3901395136138
 30
0.0
 11
-116.9454929380661
 21
-136.37871861445481
 31
0.0
  0
LINE
  8
DETAIL
  6
CONTINUOUS
 62
     5
 10
-116.6488024697244
 20
-116.4015604127726
 30
0.0
 11
-117.1432865836273
 21
-126.3901395136138
 31
0.0
  0
LINE
  8
DETAIL
  6
CONTINUOUS
 62
     5
 10
-115.3631437735767
 20
-106.7096717802735
 30
0.0
 11
-116.6488024697244
 21
-116.4015604127726
 31
0.0
  0
LINE
  8
DETAIL
  6
CONTINUOUS
 62
     5
 10
-113.13796526101279
 20
-96.918886324993309
 30
0.0
 11
-115.3631437735767
 21
-106.7096717802735
 31
0.0
  0
LINE
  8
DETAIL
  6
CONTINUOUS
 62
     5
 10
-109.87437010925279
 20
-87.424791338055456
 30
0.0
 11
-113.13796526101279
 21
-96.918886324993309
 31
0.0
  0
LINE
  8
DETAIL
  6
CONTINUOUS
 62
     5
 10
41.981701270366777
 20
-237.55016831901429
 30
0.0
 11
109.627128052301
 21
-169.85529312569
 31
0.0
  0
LINE
  8
DETAIL
  6
CONTINUOUS
 62
     5
 10
117.39052864057859
 20
-129.9009767223254
 30
0.0
 11
117.0938381722367
 21
-119.9123976214844
 31
0.0
  0
LINE
  8
DETAIL
  6
CONTINUOUS
 62
     5
 10
116.89604452667569
 20
-139.8895558231668
 30
0.0
 11
117.39052864057859
 21
-129.9009767223254
 31
0.0
  0
LINE
  8
DETAIL
  6
CONTINUOUS
 62
     5
 10
115.6103858305278
 20
-149.58144445566609
 30
0.0
 11
116.89604452667569
 21
-139.8895558231668
 31
0.0
  0
LINE
  8
DETAIL
  6
CONTINUOUS
 62
     5
 10
113.2863104951839
 20
-159.3227814995553
 30
0.0
 11
115.6103858305278
 21
-149.58144445566609
 31
0.0
  0
LINE
  8
DETAIL
  6
CONTINUOUS
 62
     5
 10
110.1216121662039
 20
-168.81687648649381
 30
0.0
 11
113.2863104951839
 21
-159.3227814995553
 31
0.0
  0
LINE
  8
DETAIL
  6
CONTINUOUS
 62
     5
 10
-109.4787828181304
 20
-86.435823110249203
 30
0.0
 11
-96.473850622480995
 21
-73.628684560161219
 31
0.0
  0
LINE
  8
DETAIL
  6
CONTINUOUS
 62
     5
 10
-89.897211907570636
 20
-66.953149022469688
 30
0.0
 11
-41.734459213415683
 21
-18.69149950553447
 31
0.0
  0
LINE
  8
DETAIL
  6
CONTINUOUS
 62
     5
 10
95.336537160503667
 20
-138.15886142450589
 30
0.0
 11
95.831021274406794
 21
-128.17028232366471
 31
0.0
  0
LINE
  8
DETAIL
  6
CONTINUOUS
 62
     5
 10
93.902533230184872
 20
-147.8507500570054
 30
0.0
 11
95.336537160503667
 21
-138.15886142450589
 31
0.0
  0
LINE
  8
DETAIL
  6
CONTINUOUS
 62
     5
 10
91.430112660669465
 20
-157.34484504394371
 30
0.0
 11
93.902533230184872
 21
-147.8507500570054
 31
0.0
  0
LINE
  8
DETAIL
  6
CONTINUOUS
 62
     5
 10
87.820378629177412
 20
-166.6411463853203
 30
0.0
 11
91.430112660669465
 21
-157.34484504394371
 31
0.0
  0
LINE
  8
DETAIL
  6
CONTINUOUS
 62
     5
 10
83.617263661001971
 20
-175.34406679001339
 30
0.0
 11
87.820378629177412
 21
-166.6411463853203
 31
0.0
  0
LINE
  8
DETAIL
  6
CONTINUOUS
 62
     5
 10
78.128489996678354
 20
-183.79974513775511
 30
0.0
 11
83.617263661001971
 21
-175.34406679001339
 31
0.0
  0
LINE
  8
DETAIL
  6
CONTINUOUS
 62
     5
 10
72.145232218451838
 20
-191.61259413742351
 30
0.0
 11
78.128489996678354
 21
-183.79974513775511
 31
0.0
  0
LINE
  8
DETAIL
  6
CONTINUOUS
 62
     5
 10
65.173006212418841
 20
-198.48592332067551
 30
0.0
 11
72.145232218451838
 21
-191.61259413742351
 31
0.0
  0
LINE
  8
DETAIL
  6
CONTINUOUS
 62
     5
 10
57.656847681092813
 20
-204.81531997863391
 30
0.0
 11
65.173006212418841
 21
-198.48592332067551
 31
0.0
  0
LINE
  8
DETAIL
  6
CONTINUOUS
 62
     5
 10
49.448411390302908
 20
-210.3040936429577
 30
0.0
 11
57.656847681092813
 21
-204.81531997863391
 31
0.0
  0
LINE
  8
DETAIL
  6
CONTINUOUS
 62
     5
 10
40.696042574218609
 20
-215.10058954781681
 30
0.0
 11
49.448411390302908
 21
-210.3040936429577
 31
0.0
  0
LINE
  8
DETAIL
  6
CONTINUOUS
 62
     5
 10
31.696431701184341
 20
-218.80922040208969
 30
0.0
 11
40.696042574218609
 21
-215.10058954781681
 31
0.0
  0
LINE
  8
DETAIL
  6
CONTINUOUS
 62
     5
 10
22.202336714245579
 20
-221.57833143994711
 30
0.0
 11
31.696431701184341
 21
-218.80922040208969
 31
0.0
  0
LINE
  8
DETAIL
  6
CONTINUOUS
 62
     5
 10
12.510448081746519
 20
-223.25957742721721
 30
0.0
 11
22.202336714245579
 21
-221.57833143994711
 31
0.0
  0
LINE
  8
DETAIL
  6
CONTINUOUS
 62
     5
 10
2.5218689809050829
 20
-224.10020042085239
 30
0.0
 11
12.510448081746519
 21
-223.25957742721721
 31
0.0
  0
LINE
  8
DETAIL
  6
CONTINUOUS
 62
     5
 10
-7.2689164743749188
 20
-223.8035099525105
 30
0.0
 11
2.5218689809050829
 21
-224.10020042085239
 31
0.0
  0
LINE
  8
DETAIL
  6
CONTINUOUS
 62
     5
 10
-17.059701929654469
 20
-222.56729966775239
 30
0.0
 11
-7.2689164743749188
 21
-223.8035099525105
 31
0.0
  0
LINE
  8
DETAIL
  6
CONTINUOUS
 62
     5
 10
-26.751590562153751
 20
-220.2926727437989
 30
0.0
 11
-17.059701929654469
 21
-222.56729966775239
 31
0.0
  0
LINE
  8
DETAIL
  6
CONTINUOUS
 62
     5
 10
-35.948995080750592
 20
-217.078526003429
 30
0.0
 11
-26.751590562153751
 21
-220.2926727437989
 31
0.0
  0
LINE
  8
DETAIL
  6
CONTINUOUS
 62
     5
 10
-44.948605953785318
 20
-212.7765142124731
 30
0.0
 11
-35.948995080750592
 21
-217.078526003429
 31
0.0
  0
LINE
  8
DETAIL
  6
CONTINUOUS
 62
     5
 10
-53.404284301526559
 20
-207.7822246620519
 30
0.0
 11
-44.948605953785318
 21
-212.7765142124731
 31
0.0
  0
LINE
  8
DETAIL
  6
CONTINUOUS
 62
     5
 10
-61.513823769536657
 20
-201.79896688382561
 30
0.0
 11
-53.404284301526559
 21
-207.7822246620519
 31
0.0
  0
LINE
  8
DETAIL
  6
CONTINUOUS
 62
     5
 10
-68.683843421130632
 20
-195.12343134613459
 30
0.0
 11
-61.513823769536657
 21
-201.79896688382561
 31
0.0
  0
LINE
  8
DETAIL
  6
CONTINUOUS
 62
     5
 10
-75.211033724650633
 20
-187.60727281480879
 30
0.0
 11
-68.683843421130632
 21
-195.12343134613459
 31
0.0
  0
LINE
  8
DETAIL
  6
CONTINUOUS
 62
     5
 10
-80.897601034535455
 20
-179.64607858096969
 30
0.0
 11
-75.211033724650633
 21
-187.60727281480879
 31
0.0
  0
LINE
  8
DETAIL
  6
CONTINUOUS
 62
     5
 10
-85.69409693939474
 20
-171.0420549990574
 30
0.0
 11
-80.897601034535455
 21
-179.64607858096969
 31
0.0
  0
LINE
  8
DETAIL
  6
CONTINUOUS
 62
     5
 10
-89.699418262009203
 20
-162.04244412602219
 30
0.0
 11
-85.69409693939474
 21
-171.0420549990574
 31
0.0
  0
LINE
  8
DETAIL
  6
CONTINUOUS
 62
     5
 10
-92.666322945427282
 20
-152.64724596186471
 30
0.0
 11
-89.699418262009203
 21
-162.04244412602219
 31
0.0
  0
LINE
  8
DETAIL
  6
CONTINUOUS
 62
     5
 10
-94.693707812429693
 20
-142.85646050658471
 30
0.0
 11
-92.666322945427282
 21
-152.64724596186471
 31
0.0
  0
LINE
  8
DETAIL
  6
CONTINUOUS
 62
     5
 10
-95.682676040236174
 20
-133.16457187408511
 30
0.0
 11
-94.693707812429693
 21
-142.85646050658471
 31
0.0
  0
LINE
  8
DETAIL
  6
CONTINUOUS
 62
     5
 10
-95.682676040236174
 20
-123.1759927732442
 30
0.0
 11
-95.682676040236174
 21
-133.16457187408511
 31
0.0
  0
LINE
  8
DETAIL
  6
CONTINUOUS
 62
     5
 10
-94.693707812429693
 20
-113.3852073179644
 30
0.0
 11
-95.682676040236174
 21
-123.1759927732442
 31
0.0
  0
LINE
  8
DETAIL
  6
CONTINUOUS
 62
     5
 10
-92.666322945427282
 20
-103.5944218626844
 30
0.0
 11
-94.693707812429693
 21
-113.3852073179644
 31
0.0
  0
LINE
  8
DETAIL
  6
CONTINUOUS
 62
     5
 10
-89.699418262009203
 20
-94.397017344088027
 30
0.0
 11
-92.666322945427282
 21
-103.5944218626844
 31
0.0
  0
LINE
  8
DETAIL
  6
CONTINUOUS
 62
     5
 10
-85.69409693939474
 20
-85.249061236882199
 30
0.0
 11
-89.699418262009203
 21
-94.397017344088027
 31
0.0
  0
LINE
  8
DETAIL
  6
CONTINUOUS
 62
     5
 10
-80.897601034535455
 20
-76.743934477750145
 30
0.0
 11
-85.69409693939474
 21
-85.249061236882199
 31
0.0
  0
LINE
  8
DETAIL
  6
CONTINUOUS
 62
     5
 10
-75.211033724650633
 20
-68.634395009740729
 30
0.0
 11
-80.897601034535455
 21
-76.743934477750145
 31
0.0
  0
LINE
  8
DETAIL
  6
CONTINUOUS
 62
     5
 10
-68.683843421130632
 20
-61.167684889804832
 30
0.0
 11
-75.211033724650633
 21
-68.634395009740729
 31
0.0
  0
LINE
  8
DETAIL
  6
CONTINUOUS
 62
     5
 10
-61.513823769536657
 20
-54.442700940723398
 30
0.0
 11
-68.683843421130632
 21
-61.167684889804832
 31
0.0
  0
LINE
  8
DETAIL
  6
CONTINUOUS
 62
     5
 10
-53.404284301526559
 20
-48.459443162496427
 30
0.0
 11
-61.513823769536657
 21
-54.442700940723398
 31
0.0
  0
LINE
  8
DETAIL
  6
CONTINUOUS
 62
     5
 10
-44.948605953785318
 20
-43.465153612076051
 30
0.0
 11
-53.404284301526559
 21
-48.459443162496427
 31
0.0
  0
LINE
  8
DETAIL
  6
CONTINUOUS
 62
     5
 10
-35.948995080750592
 20
-39.262038643900269
 30
0.0
 11
-44.948605953785318
 21
-43.465153612076051
 31
0.0
  0
LINE
  8
DETAIL
  6
CONTINUOUS
 62
     5
 10
-26.751590562153751
 20
-35.998443492140268
 30
0.0
 11
-35.948995080750592
 21
-39.262038643900269
 31
0.0
  0
LINE
  8
DETAIL
  6
CONTINUOUS
 62
     5
 10
-17.059701929654469
 20
-33.674368156796277
 30
0.0
 11
-26.751590562153751
 21
-35.998443492140268
 31
0.0
  0
LINE
  8
DETAIL
  6
CONTINUOUS
 62
     5
 10
-7.2689164743749188
 20
-32.487606283429272
 30
0.0
 11
-17.059701929654469
 21
-33.674368156796277
 31
0.0
  0
LINE
  8
DETAIL
  6
CONTINUOUS
 62
     5
 10
2.5218689809050829
 20
-32.190915815087237
 30
0.0
 11
-7.2689164743749188
 21
-32.487606283429272
 31
0.0
  0
LINE
  8
DETAIL
  6
CONTINUOUS
 62
     5
 10
12.510448081746519
 20
-32.982090397332058
 30
0.0
 11
2.5218689809050829
 21
-32.190915815087237
 31
0.0
  0
LINE
  8
DETAIL
  6
CONTINUOUS
 62
     5
 10
22.202336714245579
 20
-34.663336384602083
 30
0.0
 11
12.510448081746519
 21
-32.982090397332058
 31
0.0
  0
LINE
  8
DETAIL
  6
CONTINUOUS
 62
     5
 10
31.696431701184341
 20
-37.481895833849308
 30
0.0
 11
22.202336714245579
 21
-34.663336384602083
 31
0.0
  0
LINE
  8
DETAIL
  6
CONTINUOUS
 62
     5
 10
40.696042574218609
 20
-41.190526688122297
 30
0.0
 11
31.696431701184341
 21
-37.481895833849308
 31
0.0
  0
LINE
  8
DETAIL
  6
CONTINUOUS
 62
     5
 10
49.448411390302908
 20
-45.987022592981482
 30
0.0
 11
40.696042574218609
 21
-41.190526688122297
 31
0.0
  0
LINE
  8
DETAIL
  6
CONTINUOUS
 62
     5
 10
57.656847681092813
 20
-51.475796257305319
 30
0.0
 11
49.448411390302908
 21
-45.987022592981482
 31
0.0
  0
LINE
  8
DETAIL
  6
CONTINUOUS
 62
     5
 10
65.173006212418841
 20
-57.755744503873757
 30
0.0
 11
57.656847681092813
 21
-51.475796257305319
 31
0.0
  0
LINE
  8
DETAIL
  6
CONTINUOUS
 62
     5
 10
72.145232218451838
 20
-64.925764155467505
 30
0.0
 11
65.173006212418841
 21
-57.755744503873757
 31
0.0
  0
LINE
  8
DETAIL
  6
CONTINUOUS
 62
     5
 10
78.128489996678354
 20
-72.738613155135454
 30
0.0
 11
72.145232218451838
 21
-64.925764155467505
 31
0.0
  0
LINE
  8
DETAIL
  6
CONTINUOUS
 62
     5
 10
83.617263661001971
 20
-80.947049445925813
 30
0.0
 11
78.128489996678354
 21
-72.738613155135454
 31
0.0
  0
LINE
  8
DETAIL
  6
CONTINUOUS
 62
     5
 10
87.820378629177412
 20
-89.600521439228714
 30
0.0
 11
83.617263661001971
 21
-80.947049445925813
 31
0.0
  0
LINE
  8
DETAIL
  6
CONTINUOUS
 62
     5
 10
91.430112660669465
 20
-98.896822780605788
 30
0.0
 11
87.820378629177412
 21
-89.600521439228714
 31
0.0
  0
LINE
  8
DETAIL
  6
CONTINUOUS
 62
     5
 10
93.902533230184872
 20
-108.5887114131049
 30
0.0
 11
91.430112660669465
 21
-98.896822780605788
 31
0.0
  0
LINE
  8
DETAIL
  6
CONTINUOUS
 62
     5
 10
95.336537160503667
 20
-118.3794968683851
 30
0.0
 11
93.902533230184872
 21
-108.5887114131049
 31
0.0
  0
LINE
  8
DETAIL
  6
CONTINUOUS
 62
     5
 10
95.831021274406794
 20
-128.17028232366471
 30
0.0
 11
95.336537160503667
 21
-118.3794968683851
 31
0.0
  0
LINE
  8
DETAIL
  6
CONTINUOUS
 62
     5
 10
90.342247610083177
 20
-137.86217095616391
 30
0.0
 11
90.836731723985849
 21
-128.17028232366471
 31
0.0
  0
LINE
  8
DETAIL
  6
CONTINUOUS
 62
     5
 10
88.908243679764155
 20
-147.65295641144391
 30
0.0
 11
90.342247610083177
 21
-137.86217095616391
 31
0.0
  0
LINE
  8
DETAIL
  6
CONTINUOUS
 62
     5
 10
86.139132641907736
 20
-157.04815457560181
 30
0.0
 11
88.908243679764155
 21
-147.65295641144391
 31
0.0
  0
LINE
  8
DETAIL
  6
CONTINUOUS
 62
     5
 10
82.628295433195717
 20
-166.3444559169784
 30
0.0
 11
86.139132641907736
 21
-157.04815457560181
 31
0.0
  0
LINE
  8
DETAIL
  6
CONTINUOUS
 62
     5
 10
77.831799528336433
 20
-175.14627314445241
 30
0.0
 11
82.628295433195717
 21
-166.3444559169784
 31
0.0
  0
LINE
  8
DETAIL
  6
CONTINUOUS
 62
     5
 10
72.441922686793305
 20
-183.0085705555102
 30
0.0
 11
77.831799528336433
 21
-175.14627314445241
 31
0.0
  0
LINE
  8
DETAIL
  6
CONTINUOUS
 62
     5
 10
66.161974440225094
 20
-190.52472908683669
 30
0.0
 11
72.441922686793305
 21
-183.0085705555102
 31
0.0
  0
LINE
  8
DETAIL
  6
CONTINUOUS
 62
     5
 10
58.942506377240761
 20
-197.29916144730811
 30
0.0
 11
66.161974440225094
 21
-190.52472908683669
 31
0.0
  0
LINE
  8
DETAIL
  6
CONTINUOUS
 62
     5
 10
51.179105788962943
 20
-203.2824192255348
 30
0.0
 11
58.942506377240761
 21
-197.29916144730811
 31
0.0
  0
LINE
  8
DETAIL
  6
CONTINUOUS
 62
     5
 10
42.673979029831123
 20
-208.47450242151629
 30
0.0
 11
51.179105788962943
 21
-203.2824192255348
 31
0.0
  0
LINE
  8
DETAIL
  6
CONTINUOUS
 62
     5
 10
33.67436815679639
 20
-212.57872056691139
 30
0.0
 11
42.673979029831123
 21
-208.47450242151629
 31
0.0
  0
LINE
  8
DETAIL
  6
CONTINUOUS
 62
     5
 10
24.47696363819955
 20
-215.79286730728131
 30
0.0
 11
33.67436815679639
 21
-212.57872056691139
 31
0.0
  0
LINE
  8
DETAIL
  6
CONTINUOUS
 62
     5
 10
14.68617818292023
 20
-217.77080376289311
 30
0.0
 11
24.47696363819955
 21
-215.79286730728131
 31
0.0
  0
LINE
  8
DETAIL
  6
CONTINUOUS
 62
     5
 10
4.9942895504207172
 20
-219.1059108704317
 30
0.0
 11
14.68617818292023
 21
-217.77080376289311
 31
0.0
  0
LINE
  8
DETAIL
  6
CONTINUOUS
 62
     5
 10
-4.7470474934691538
 20
-219.1059108704317
 30
0.0
 11
4.9942895504207172
 21
-219.1059108704317
 31
0.0
  0
LINE
  8
DETAIL
  6
CONTINUOUS
 62
     5
 10
-14.537832948749379
 20
-217.77080376289311
 30
0.0
 11
-4.7470474934691538
 21
-219.1059108704317
 31
0.0
  0
LINE
  8
DETAIL
  6
CONTINUOUS
 62
     5
 10
-24.229721581248441
 20
-215.79286730728131
 30
0.0
 11
-14.537832948749379
 21
-217.77080376289311
 31
0.0
  0
LINE
  8
DETAIL
  6
CONTINUOUS
 62
     5
 10
-33.427126099844372
 20
-212.57872056691139
 30
0.0
 11
-24.229721581248441
 21
-215.79286730728131
 31
0.0
  0
LINE
  8
DETAIL
  6
CONTINUOUS
 62
     5
 10
-42.426736972880008
 20
-208.47450242151629
 30
0.0
 11
-33.427126099844372
 21
-212.57872056691139
 31
0.0
  0
LINE
  8
DETAIL
  6
CONTINUOUS
 62
     5
 10
-50.931863732011827
 20
-203.2824192255348
 30
0.0
 11
-42.426736972880008
 21
-208.47450242151629
 31
0.0
  0
LINE
  8
DETAIL
  6
CONTINUOUS
 62
     5
 10
-58.695264320289432
 20
-197.29916144730811
 30
0.0
 11
-50.931863732011827
 21
-203.2824192255348
 31
0.0
  0
LINE
  8
DETAIL
  6
CONTINUOUS
 62
     5
 10
-65.914732383273531
 20
-190.52472908683669
 30
0.0
 11
-58.695264320289432
 21
-197.29916144730811
 31
0.0
  0
LINE
  8
DETAIL
  6
CONTINUOUS
 62
     5
 10
-72.194680629841741
 20
-183.0085705555102
 30
0.0
 11
-65.914732383273531
 21
-190.52472908683669
 31
0.0
  0
LINE
  8
DETAIL
  6
CONTINUOUS
 62
     5
 10
-77.683454294165813
 20
-175.14627314445241
 30
0.0
 11
-72.194680629841741
 21
-183.0085705555102
 31
0.0
  0
LINE
  8
DETAIL
  6
CONTINUOUS
 62
     5
 10
-82.381053376244608
 20
-166.3444559169784
 30
0.0
 11
-77.683454294165813
 21
-175.14627314445241
 31
0.0
  0
LINE
  8
DETAIL
  6
CONTINUOUS
 62
     5
 10
-85.891890584956172
 20
-157.04815457560181
 30
0.0
 11
-82.381053376244608
 21
-166.3444559169784
 31
0.0
  0
LINE
  8
DETAIL
  6
CONTINUOUS
 62
     5
 10
-88.661001622813046
 20
-147.65295641144391
 30
0.0
 11
-85.891890584956172
 21
-157.04815457560181
 31
0.0
  0
LINE
  8
DETAIL
  6
CONTINUOUS
 62
     5
 10
-90.193902375912103
 20
-137.86217095616391
 30
0.0
 11
-88.661001622813046
 21
-147.65295641144391
 31
0.0
  0
LINE
  8
DETAIL
  6
CONTINUOUS
 62
     5
 10
-90.886180135376662
 20
-128.17028232366471
 30
0.0
 11
-90.193902375912103
 21
-137.86217095616391
 31
0.0
  0
LINE
  8
DETAIL
  6
CONTINUOUS
 62
     5
 10
-90.193902375912103
 20
-118.3794968683851
 30
0.0
 11
-90.886180135376662
 21
-128.17028232366471
 31
0.0
  0
LINE
  8
DETAIL
  6
CONTINUOUS
 62
     5
 10
-88.661001622813046
 20
-108.5887114131049
 30
0.0
 11
-90.193902375912103
 21
-118.3794968683851
 31
0.0
  0
LINE
  8
DETAIL
  6
CONTINUOUS
 62
     5
 10
-85.891890584956172
 20
-99.193513248947511
 30
0.0
 11
-88.661001622813046
 21
-108.5887114131049
 31
0.0
  0
LINE
  8
DETAIL
  6
CONTINUOUS
 62
     5
 10
-82.381053376244608
 20
-89.897211907570409
 30
0.0
 11
-85.891890584956172
 21
-99.193513248947511
 31
0.0
  0
LINE
  8
DETAIL
  6
CONTINUOUS
 62
     5
 10
-77.683454294165813
 20
-81.144843091486791
 30
0.0
 11
-82.381053376244608
 21
-89.897211907570409
 31
0.0
  0
LINE
  8
DETAIL
  6
CONTINUOUS
 62
     5
 10
-72.194680629841741
 20
-73.233097269038581
 30
0.0
 11
-77.683454294165813
 21
-81.144843091486791
 31
0.0
  0
LINE
  8
DETAIL
  6
CONTINUOUS
 62
     5
 10
-65.914732383273531
 20
-65.766387149102684
 30
0.0
 11
-72.194680629841741
 21
-73.233097269038581
 31
0.0
  0
LINE
  8
DETAIL
  6
CONTINUOUS
 62
     5
 10
-58.695264320289432
 20
-58.942506377241223
 30
0.0
 11
-65.914732383273531
 21
-65.766387149102684
 31
0.0
  0
LINE
  8
DETAIL
  6
CONTINUOUS
 62
     5
 10
-50.931863732011827
 20
-52.959248599014472
 30
0.0
 11
-58.695264320289432
 21
-58.942506377241223
 31
0.0
  0
LINE
  8
DETAIL
  6
CONTINUOUS
 62
     5
 10
-42.426736972880008
 20
-47.767165403032777
 30
0.0
 11
-50.931863732011827
 21
-52.959248599014472
 31
0.0
  0
LINE
  8
DETAIL
  6
CONTINUOUS
 62
     5
 10
-33.427126099844372
 20
-43.662947257637477
 30
0.0
 11
-42.426736972880008
 21
-47.767165403032777
 31
0.0
  0
LINE
  8
DETAIL
  6
CONTINUOUS
 62
     5
 10
-24.229721581248441
 20
-40.448800517267728
 30
0.0
 11
-33.427126099844372
 21
-43.662947257637477
 31
0.0
  0
LINE
  8
DETAIL
  6
CONTINUOUS
 62
     5
 10
-14.537832948749379
 20
-38.470864061655561
 30
0.0
 11
-24.229721581248441
 21
-40.448800517267728
 31
0.0
  0
LINE
  8
DETAIL
  6
CONTINUOUS
 62
     5
 10
-4.7470474934691538
 20
-37.481895833849308
 30
0.0
 11
-14.537832948749379
 21
-38.470864061655561
 31
0.0
  0
LINE
  8
DETAIL
  6
CONTINUOUS
 62
     5
 10
4.9942895504207172
 20
-37.481895833849308
 30
0.0
 11
-4.7470474934691538
 21
-37.481895833849308
 31
0.0
  0
LINE
  8
DETAIL
  6
CONTINUOUS
 62
     5
 10
14.68617818292023
 20
-38.470864061655561
 30
0.0
 11
4.9942895504207172
 21
-37.481895833849308
 31
0.0
  0
LINE
  8
DETAIL
  6
CONTINUOUS
 62
     5
 10
24.47696363819955
 20
-40.448800517267728
 30
0.0
 11
14.68617818292023
 21
-38.470864061655561
 31
0.0
  0
LINE
  8
DETAIL
  6
CONTINUOUS
 62
     5
 10
33.67436815679639
 20
-43.662947257637477
 30
0.0
 11
24.47696363819955
 21
-40.448800517267728
 31
0.0
  0
LINE
  8
DETAIL
  6
CONTINUOUS
 62
     5
 10
42.673979029831123
 20
-47.767165403032777
 30
0.0
 11
33.67436815679639
 21
-43.662947257637477
 31
0.0
  0
LINE
  8
DETAIL
  6
CONTINUOUS
 62
     5
 10
51.179105788962943
 20
-52.959248599014472
 30
0.0
 11
42.673979029831123
 21
-47.767165403032777
 31
0.0
  0
LINE
  8
DETAIL
  6
CONTINUOUS
 62
     5
 10
58.942506377240761
 20
-58.942506377241223
 30
0.0
 11
51.179105788962943
 21
-52.959248599014472
 31
0.0
  0
LINE
  8
DETAIL
  6
CONTINUOUS
 62
     5
 10
66.161974440225094
 20
-65.766387149102684
 30
0.0
 11
58.942506377240761
 21
-58.942506377241223
 31
0.0
  0
LINE
  8
DETAIL
  6
CONTINUOUS
 62
     5
 10
72.441922686793305
 20
-73.233097269038581
 30
0.0
 11
66.161974440225094
 21
-65.766387149102684
 31
0.0
  0
LINE
  8
DETAIL
  6
CONTINUOUS
 62
     5
 10
77.831799528336433
 20
-81.144843091486791
 30
0.0
 11
72.441922686793305
 21
-73.233097269038581
 31
0.0
  0
LINE
  8
DETAIL
  6
CONTINUOUS
 62
     5
 10
82.628295433195717
 20
-89.897211907570409
 30
0.0
 11
77.831799528336433
 21
-81.144843091486791
 31
0.0
  0
LINE
  8
DETAIL
  6
CONTINUOUS
 62
     5
 10
86.139132641907736
 20
-99.193513248947511
 30
0.0
 11
82.628295433195717
 21
-89.897211907570409
 31
0.0
  0
LINE
  8
DETAIL
  6
CONTINUOUS
 62
     5
 10
88.908243679764155
 20
-108.5887114131049
 30
0.0
 11
86.139132641907736
 21
-99.193513248947511
 31
0.0
  0
LINE
  8
DETAIL
  6
CONTINUOUS
 62
     5
 10
90.342247610083177
 20
-118.3794968683851
 30
0.0
 11
88.908243679764155
 21
-108.5887114131049
 31
0.0
  0
LINE
  8
DETAIL
  6
CONTINUOUS
 62
     5
 10
90.836731723985849
 20
-128.17028232366471
 30
0.0
 11
90.342247610083177
 21
-118.3794968683851
 31
0.0
  0
LINE
  8
DETAIL
  6
CONTINUOUS
 62
     5
 10
94.149775287136663
 20
-61.761065826487993
 30
0.0
 11
93.111358647939824
 21
-62.156653117610631
 31
0.0
  0
LINE
  8
DETAIL
  6
CONTINUOUS
 62
     5
 10
97.611164084457641
 20
-73.233097269038581
 30
0.0
 11
99.440755305898392
 21
-72.44192268679376
 31
0.0
  0
LINE
  8
DETAIL
  6
CONTINUOUS
 62
     5
 10
95.336537160503667
 20
-73.233097269038581
 30
0.0
 11
97.611164084457641
 21
-73.233097269038581
 31
0.0
  0
LINE
  8
DETAIL
  6
CONTINUOUS
 62
     5
 10
93.605842761843405
 20
-72.738613155135454
 30
0.0
 11
95.336537160503667
 21
-73.233097269038581
 31
0.0
  0
LINE
  8
DETAIL
  6
CONTINUOUS
 62
     5
 10
91.924596774572592
 20
-71.452954458987506
 30
0.0
 11
93.605842761843405
 21
-72.738613155135454
 31
0.0
  0
LINE
  8
DETAIL
  6
CONTINUOUS
 62
     5
 10
90.836731723985849
 20
-69.6233632375463
 30
0.0
 11
91.924596774572592
 21
-71.452954458987506
 31
0.0
  0
LINE
  8
DETAIL
  6
CONTINUOUS
 62
     5
 10
90.342247610083177
 20
-67.744323604714964
 30
0.0
 11
90.836731723985849
 21
-69.6233632375463
 31
0.0
  0
LINE
  8
DETAIL
  6
CONTINUOUS
 62
     5
 10
90.638938078425099
 20
-65.469696680760535
 30
0.0
 11
90.342247610083177
 21
-67.744323604714964
 31
0.0
  0
LINE
  8
DETAIL
  6
CONTINUOUS
 62
     5
 10
91.627906306230898
 20
-63.640105459319777
 30
0.0
 11
90.638938078425099
 21
-65.469696680760535
 31
0.0
  0
LINE
  8
DETAIL
  6
CONTINUOUS
 62
     5
 10
93.111358647939824
 20
-62.156653117610631
 30
0.0
 11
91.627906306230898
 21
-63.640105459319777
 31
0.0
  0
LINE
  8
DETAIL
  6
CONTINUOUS
 62
     5
 10
100.6275171792656
 20
-71.749644927329427
 30
0.0
 11
99.440755305898392
 21
-72.44192268679376
 31
0.0
  0
LINE
  8
DETAIL
  6
CONTINUOUS
 62
     5
 10
-90.391696021473308
 20
-69.425569591985095
 30
0.0
 11
-90.193902375912103
 21
-67.744323604714964
 31
0.0
  0
LINE
  8
DETAIL
  6
CONTINUOUS
 62
     5
 10
-91.479561072060278
 20
-70.958470345084834
 30
0.0
 11
-90.391696021473308
 21
-69.425569591985095
 31
0.0
  0
LINE
  8
DETAIL
  6
CONTINUOUS
 62
     5
 10
-92.666322945427282
 20
-72.145232218451611
 30
0.0
 11
-91.479561072060278
 21
-70.958470345084834
 31
0.0
  0
LINE
  8
DETAIL
  6
CONTINUOUS
 62
     5
 10
-94.199223698527021
 20
-72.936406800696432
 30
0.0
 11
-92.666322945427282
 21
-72.145232218451611
 31
0.0
  0
LINE
  8
DETAIL
  6
CONTINUOUS
 62
     5
 10
-95.880469685796925
 20
-73.233097269038581
 30
0.0
 11
-94.199223698527021
 21
-72.936406800696432
 31
0.0
  0
LINE
  8
DETAIL
  6
CONTINUOUS
 62
     5
 10
-30.954705530329871
 20
-14.9828686512617
 30
0.0
 11
-40.448800517267962
 21
-17.999221746070251
 31
0.0
  0
LINE
  8
DETAIL
  6
CONTINUOUS
 62
     5
 10
-21.55950736617206
 20
-12.807138550088441
 30
0.0
 11
-30.954705530329871
 21
-14.9828686512617
 31
0.0
  0
LINE
  8
DETAIL
  6
CONTINUOUS
 62
     5
 10
-11.57092826533108
 20
-11.2247893855988
 30
0.0
 11
-21.55950736617206
 21
-12.807138550088441
 31
0.0
  0
LINE
  8
DETAIL
  6
CONTINUOUS
 62
     5
 10
-1.58234916448987
 20
-10.77975368308614
 30
0.0
 11
-11.57092826533108
 21
-11.2247893855988
 31
0.0
  0
LINE
  8
DETAIL
  6
CONTINUOUS
 62
     5
 10
8.2084362907901323
 20
-10.97754732864723
 30
0.0
 11
-1.58234916448987
 21
-10.77975368308614
 31
0.0
  0
LINE
  8
DETAIL
  6
CONTINUOUS
 62
     5
 10
-22.05399148007541
 20
-243.48397768585099
 30
0.0
 11
-12.263206024794499
 21
-245.06632685034009
 31
0.0
  0
LINE
  8
DETAIL
  6
CONTINUOUS
 62
     5
 10
-31.745880112574469
 20
-240.96210870494559
 30
0.0
 11
-22.05399148007541
 21
-243.48397768585099
 31
0.0
  0
LINE
  8
DETAIL
  6
CONTINUOUS
 62
     5
 10
-41.239975099512549
 20
-237.94575561013681
 30
0.0
 11
-31.745880112574469
 21
-240.96210870494559
 31
0.0
  0
LINE
  8
DETAIL
  6
CONTINUOUS
 62
     5
 10
-50.437379618108707
 20
-234.0887795216934
 30
0.0
 11
-41.239975099512549
 21
-237.94575561013681
 31
0.0
  0
LINE
  8
DETAIL
  6
CONTINUOUS
 62
     5
 10
-59.239196845583137
 20
-229.58897408517561
 30
0.0
 11
-50.437379618108707
 21
-234.0887795216934
 31
0.0
  0
LINE
  8
DETAIL
  6
CONTINUOUS
 62
     5
 10
-67.694875193324833
 20
-224.10020042085239
 30
0.0
 11
-59.239196845583137
 21
-229.58897408517561
 31
0.0
  0
LINE
  8
DETAIL
  6
CONTINUOUS
 62
     5
 10
-75.408827370211839
 20
-217.77080376289311
 30
0.0
 11
-67.694875193324833
 21
-224.10020042085239
 31
0.0
  0
LINE
  8
DETAIL
  6
CONTINUOUS
 62
     5
 10
-82.875537490147508
 20
-210.996371402422
 30
0.0
 11
-75.408827370211839
 21
-217.77080376289311
 31
0.0
  0
LINE
  8
DETAIL
  6
CONTINUOUS
 62
     5
 10
-89.699418262009203
 20
-203.77690333943769
 30
0.0
 11
-82.875537490147508
 21
-210.996371402422
 31
0.0
  0
LINE
  8
DETAIL
  6
CONTINUOUS
 62
     5
 10
-95.682676040236174
 20
-195.8157091055991
 30
0.0
 11
-89.699418262009203
 21
-203.77690333943769
 31
0.0
  0
LINE
  8
DETAIL
  6
CONTINUOUS
 62
     5
 10
-101.17144970455929
 20
-187.60727281480879
 30
0.0
 11
-95.682676040236174
 21
-195.8157091055991
 31
0.0
  0
LINE
  8
DETAIL
  6
CONTINUOUS
 62
     5
 10
-105.8690487866384
 20
-178.5087651189933
 30
0.0
 11
-101.17144970455929
 21
-187.60727281480879
 31
0.0
  0
LINE
  8
DETAIL
  6
CONTINUOUS
 62
     5
 10
-109.6765764636914
 20
-169.5586026573483
 30
0.0
 11
-105.8690487866384
 21
-178.5087651189933
 31
0.0
  0
LINE
  8
DETAIL
  6
CONTINUOUS
 62
     5
 10
-112.8412747926711
 20
-160.16340449319071
 30
0.0
 11
-109.6765764636914
 21
-169.5586026573483
 31
0.0
  0
LINE
  8
DETAIL
  6
CONTINUOUS
 62
     5
 10
-115.16535012801521
 20
-150.37261903791091
 30
0.0
 11
-112.8412747926711
 21
-160.16340449319071
 31
0.0
  0
LINE
  8
DETAIL
  6
CONTINUOUS
 62
     5
 10
-116.6488024697244
 20
-140.3840399370695
 30
0.0
 11
-115.16535012801521
 21
-150.37261903791091
 31
0.0
  0
LINE
  8
DETAIL
  6
CONTINUOUS
 62
     5
 10
31.201947587280529
 20
-241.2587991732876
 30
0.0
 11
40.696042574218609
 21
-238.24244607847851
 31
0.0
  0
LINE
  8
DETAIL
  6
CONTINUOUS
 62
     5
 10
21.7078526003429
 20
-243.48397768585099
 30
0.0
 11
31.201947587280529
 21
-241.2587991732876
 31
0.0
  0
LINE
  8
DETAIL
  6
CONTINUOUS
 62
     5
 10
11.7192734995017
 20
-245.06632685034009
 30
0.0
 11
21.7078526003429
 21
-243.48397768585099
 31
0.0
  0
LINE
  8
DETAIL
  6
CONTINUOUS
 62
     5
 10
1.730694398660489
 20
-245.46191414146301
 30
0.0
 11
11.7192734995017
 21
-245.06632685034009
 31
0.0
  0
LINE
  8
DETAIL
  6
CONTINUOUS
 62
     5
 10
-7.9611942338387962
 20
-245.26412049590181
 30
0.0
 11
1.730694398660489
 21
-245.46191414146301
 31
0.0
  0
LINE
  8
DETAIL
  6
CONTINUOUS
 62
     5
 10
107.4019495397376
 20
-80.749255800364381
 30
0.0
 11
103.29773139434251
 21
-72.44192268679376
 31
0.0
  0
LINE
  8
DETAIL
  6
CONTINUOUS
 62
     5
 10
110.81388992566799
 20
-89.204934148106304
 30
0.0
 11
107.4019495397376
 21
-80.749255800364381
 31
0.0
  0
LINE
  8
DETAIL
  6
CONTINUOUS
 62
     5
 10
113.58300096352539
 20
-97.907854552799563
 30
0.0
 11
110.81388992566799
 21
-89.204934148106304
 31
0.0
  0
LINE
  8
DETAIL
  6
CONTINUOUS
 62
     5
 10
115.6103858305278
 20
-106.9074654258345
 30
0.0
 11
113.58300096352539
 21
-97.907854552799563
 31
0.0
  0
LINE
  8
DETAIL
  6
CONTINUOUS
 62
     5
 10
116.89604452667569
 20
-115.9070762988699
 30
0.0
 11
115.6103858305278
 21
-106.9074654258345
 31
0.0
  0
LINE
  8
DETAIL
  6
CONTINUOUS
 62
     5
 10
22.004543068684821
 20
-12.807138550088441
 30
0.0
 11
12.213757613405051
 21
-11.52147985394083
 31
0.0
  0
LINE
  8
DETAIL
  6
CONTINUOUS
 62
     5
 10
31.49863805562245
 20
-14.9828686512617
 30
0.0
 11
22.004543068684821
 21
-12.807138550088441
 31
0.0
  0
LINE
  8
DETAIL
  6
CONTINUOUS
 62
     5
 10
40.893836219780269
 20
-17.999221746070251
 30
0.0
 11
31.49863805562245
 21
-14.9828686512617
 31
0.0
  0
LINE
  8
DETAIL
  6
CONTINUOUS
 62
     5
 10
49.992343915595477
 20
-21.80674942312373
 30
0.0
 11
40.893836219780269
 21
-17.999221746070251
 31
0.0
  0
LINE
  8
DETAIL
  6
CONTINUOUS
 62
     5
 10
58.349125440556918
 20
-26.207658036860611
 30
0.0
 11
49.992343915595477
 21
-21.80674942312373
 31
0.0
  0
LINE
  8
DETAIL
  6
CONTINUOUS
 62
     5
 10
66.953149022469688
 20
-31.498638055623129
 30
0.0
 11
58.349125440556918
 21
-26.207658036860611
 31
0.0
  0
LINE
  8
DETAIL
  6
CONTINUOUS
 62
     5
 10
74.667101199357148
 20
-37.481895833849308
 30
0.0
 11
66.953149022469688
 21
-31.498638055623129
 31
0.0
  0
LINE
  8
DETAIL
  6
CONTINUOUS
 62
     5
 10
81.936017673731612
 20
-43.959637725979412
 30
0.0
 11
74.667101199357148
 21
-37.481895833849308
 31
0.0
  0
LINE
  8
DETAIL
  6
CONTINUOUS
 62
     5
 10
88.611553211422006
 20
-50.981312143402192
 30
0.0
 11
81.936017673731612
 21
-43.959637725979412
 31
0.0
  0
LINE
  8
DETAIL
  6
CONTINUOUS
 62
     5
 10
94.64425940103979
 20
-58.645815908899287
 30
0.0
 11
88.611553211422006
 21
-50.981312143402192
 31
0.0
  0
LINE
  8
DETAIL
  6
CONTINUOUS
 62
     5
 10
-109.6765764636914
 20
-86.930307224152102
 30
0.0
 11
-109.87437010925279
 21
-87.424791338055456
 31
0.0
  0
LINE
  8
DETAIL
  6
CONTINUOUS
 62
     5
 10
-109.4787828181304
 20
-86.435823110249203
 30
0.0
 11
-109.6765764636914
 21
-86.930307224152102
 31
0.0
  0
LINE
  8
DETAIL
  6
CONTINUOUS
 62
     5
 10
-41.239975099512549
 20
-18.295912214412169
 30
0.0
 11
-41.734459213415683
 21
-18.69149950553447
 31
0.0
  0
LINE
  8
DETAIL
  6
CONTINUOUS
 62
     5
 10
-40.448800517267962
 20
-17.999221746070251
 30
0.0
 11
-41.239975099512549
 21
-18.295912214412169
 31
0.0
  0
LINE
  8
DETAIL
  6
CONTINUOUS
 62
     5
 10
109.9238185206425
 20
-169.3608090117873
 30
0.0
 11
110.1216121662039
 21
-168.81687648649381
 31
0.0
  0
LINE
  8
DETAIL
  6
CONTINUOUS
 62
     5
 10
109.627128052301
 20
-169.85529312569
 30
0.0
 11
109.9238185206425
 21
-169.3608090117873
 31
0.0
  0
LINE
  8
DETAIL
  6
CONTINUOUS
 62
     5
 10
41.487217156463657
 20
-237.94575561013681
 30
0.0
 11
41.981701270366777
 21
-237.55016831901429
 31
0.0
  0
LINE
  8
DETAIL
  6
CONTINUOUS
 62
     5
 10
40.696042574218609
 20
-238.24244607847851
 30
0.0
 11
41.487217156463657
 21
-237.94575561013681
 31
0.0
  0
LINE
  8
DETAIL
  6
CONTINUOUS
 62
     5
 10
-95.880469685796925
 20
-73.233097269038581
 30
0.0
 11
-96.473850622480995
 21
-73.628684560161219
 31
0.0
  0
LINE
  8
DETAIL
  6
CONTINUOUS
 62
     5
 10
-89.897211907570636
 20
-66.953149022469688
 30
0.0
 11
-90.193902375912103
 21
-67.744323604714964
 31
0.0
  0
LINE
  8
DETAIL
  6
CONTINUOUS
 62
     5
 10
95.138743514942689
 20
-59.239196845582683
 30
0.0
 11
94.64425940103979
 21
-58.645815908899287
 31
0.0
  0
LINE
  8
DETAIL
  6
CONTINUOUS
 62
     5
 10
95.138743514942689
 20
-59.931474605047008
 30
0.0
 11
95.138743514942689
 21
-59.239196845582683
 31
0.0
  0
LINE
  8
DETAIL
  6
CONTINUOUS
 62
     5
 10
94.940949869381484
 20
-60.425958718949907
 30
0.0
 11
95.138743514942689
 21
-59.931474605047008
 31
0.0
  0
LINE
  8
DETAIL
  6
CONTINUOUS
 62
     5
 10
94.64425940103979
 20
-61.167684889804832
 30
0.0
 11
94.940949869381484
 21
-60.425958718949907
 31
0.0
  0
LINE
  8
DETAIL
  6
CONTINUOUS
 62
     5
 10
94.149775287136663
 20
-61.761065826487993
 30
0.0
 11
94.64425940103979
 21
-61.167684889804832
 31
0.0
  0
LINE
  8
DETAIL
  6
CONTINUOUS
 62
     5
 10
101.12200129316879
 20
-71.452954458987506
 30
0.0
 11
100.6275171792656
 21
-71.749644927329427
 31
0.0
  0
LINE
  8
DETAIL
  6
CONTINUOUS
 62
     5
 10
101.9131758754138
 20
-71.452954458987506
 30
0.0
 11
101.12200129316879
 21
-71.452954458987506
 31
0.0
  0
LINE
  8
DETAIL
  6
CONTINUOUS
 62
     5
 10
102.4076599893169
 20
-71.749644927329427
 30
0.0
 11
101.9131758754138
 21
-71.452954458987506
 31
0.0
  0
LINE
  8
DETAIL
  6
CONTINUOUS
 62
     5
 10
103.099937748781
 20
-71.947438572890633
 30
0.0
 11
102.4076599893169
 21
-71.749644927329427
 31
0.0
  0
LINE
  8
DETAIL
  6
CONTINUOUS
 62
     5
 10
103.29773139434251
 20
-72.44192268679376
 30
0.0
 11
103.099937748781
 21
-71.947438572890633
 31
0.0
  0
LINE
  8
DETAIL
  6
CONTINUOUS
 62
     5
 10
115.6103858305278
 20
-119.1706714506297
 30
0.0
 11
116.1048699444307
 21
-118.873980982288
 31
0.0
  0
LINE
  8
DETAIL
  6
CONTINUOUS
 62
     5
 10
115.3136953621856
 20
-117.0938381722372
 30
0.0
 11
115.80817947608899
 21
-116.89604452667599
 31
0.0
  0
LINE
  8
DETAIL
  6
CONTINUOUS
 62
     5
 10
115.3136953621856
 20
-118.873980982288
 30
0.0
 11
115.6103858305278
 21
-119.1706714506297
 31
0.0
  0
LINE
  8
DETAIL
  6
CONTINUOUS
 62
     5
 10
114.9181080710634
 20
-118.873980982288
 30
0.0
 11
115.3136953621856
 21
-118.873980982288
 31
0.0
  0
LINE
  8
DETAIL
  6
CONTINUOUS
 62
     5
 10
114.621417602722
 20
-118.57729051394629
 30
0.0
 11
114.9181080710634
 21
-118.873980982288
 31
0.0
  0
LINE
  8
DETAIL
  6
CONTINUOUS
 62
     5
 10
114.621417602722
 20
-118.3794968683851
 30
0.0
 11
114.621417602722
 21
-118.57729051394629
 31
0.0
  0
LINE
  8
DETAIL
  6
CONTINUOUS
 62
     5
 10
114.621417602722
 20
-117.88501275448171
 30
0.0
 11
114.621417602722
 21
-118.3794968683851
 31
0.0
  0
LINE
  8
DETAIL
  6
CONTINUOUS
 62
     5
 10
114.621417602722
 20
-117.6872191089205
 30
0.0
 11
114.621417602722
 21
-117.88501275448171
 31
0.0
  0
LINE
  8
DETAIL
  6
CONTINUOUS
 62
     5
 10
114.9181080710634
 20
-117.39052864057891
 30
0.0
 11
114.621417602722
 21
-117.6872191089205
 31
0.0
  0
LINE
  8
DETAIL
  6
CONTINUOUS
 62
     5
 10
115.1159017166249
 20
-117.0938381722372
 30
0.0
 11
114.9181080710634
 21
-117.39052864057891
 31
0.0
  0
LINE
  8
DETAIL
  6
CONTINUOUS
 62
     5
 10
115.3136953621856
 20
-117.0938381722372
 30
0.0
 11
115.1159017166249
 21
-117.0938381722372
 31
0.0
  0
LINE
  8
DETAIL
  6
CONTINUOUS
 62
     5
 10
116.40156041277309
 20
-119.1706714506297
 30
0.0
 11
116.1048699444307
 21
-118.873980982288
 31
0.0
  0
LINE
  8
DETAIL
  6
CONTINUOUS
 62
     5
 10
116.599354058334
 20
-119.1706714506297
 30
0.0
 11
116.40156041277309
 21
-119.1706714506297
 31
0.0
  0
LINE
  8
DETAIL
  6
CONTINUOUS
 62
     5
 10
116.89604452667569
 20
-119.3684650961907
 30
0.0
 11
116.599354058334
 21
-119.1706714506297
 31
0.0
  0
LINE
  8
DETAIL
  6
CONTINUOUS
 62
     5
 10
117.0938381722367
 20
-119.56625874175231
 30
0.0
 11
116.89604452667569
 21
-119.3684650961907
 31
0.0
  0
LINE
  8
DETAIL
  6
CONTINUOUS
 62
     5
 10
117.0938381722367
 20
-119.9123976214844
 30
0.0
 11
117.0938381722367
 21
-119.56625874175231
 31
0.0
  0
LINE
  8
DETAIL
  6
CONTINUOUS
 62
     5
 10
116.89604452667569
 20
-116.1048699444311
 30
0.0
 11
116.89604452667569
 21
-115.9070762988699
 31
0.0
  0
LINE
  8
DETAIL
  6
CONTINUOUS
 62
     5
 10
116.599354058334
 20
-116.6982508811143
 30
0.0
 11
116.89604452667569
 21
-116.1048699444311
 31
0.0
  0
LINE
  8
DETAIL
  6
CONTINUOUS
 62
     5
 10
116.1048699444307
 20
-116.89604452667599
 30
0.0
 11
116.599354058334
 21
-116.6982508811143
 31
0.0
  0
LINE
  8
DETAIL
  6
CONTINUOUS
 62
     5
 10
115.80817947608899
 20
-116.89604452667599
 30
0.0
 11
116.1048699444307
 21
-116.89604452667599
 31
0.0
  0
LINE
  8
DETAIL
  6
CONTINUOUS
 62
     5
 10
11.22478938559834
 20
-12.807138550088441
 30
0.0
 11
11.22478938559834
 21
-12.21375761340494
 31
0.0
  0
LINE
  8
DETAIL
  6
CONTINUOUS
 62
     5
 10
11.22478938559834
 20
-13.301622663991679
 30
0.0
 11
11.22478938559834
 21
-12.807138550088441
 31
0.0
  0
LINE
  8
DETAIL
  6
CONTINUOUS
 62
     5
 10
10.92809891725665
 20
-13.499416309552769
 30
0.0
 11
11.22478938559834
 21
-13.301622663991679
 31
0.0
  0
LINE
  8
DETAIL
  6
CONTINUOUS
 62
     5
 10
10.730305271695901
 20
-13.499416309552769
 30
0.0
 11
10.92809891725665
 21
-13.499416309552769
 31
0.0
  0
LINE
  8
DETAIL
  6
CONTINUOUS
 62
     5
 10
10.23582115779277
 20
-13.69720995511398
 30
0.0
 11
10.730305271695901
 21
-13.499416309552769
 31
0.0
  0
LINE
  8
DETAIL
  6
CONTINUOUS
 62
     5
 10
9.9885791008409797
 20
-13.69720995511398
 30
0.0
 11
10.23582115779277
 21
-13.69720995511398
 31
0.0
  0
LINE
  8
DETAIL
  6
CONTINUOUS
 62
     5
 10
9.6918886324990581
 20
-13.499416309552769
 30
0.0
 11
9.9885791008409797
 21
-13.69720995511398
 31
0.0
  0
LINE
  8
DETAIL
  6
CONTINUOUS
 62
     5
 10
9.4940949869383076
 20
-13.301622663991679
 30
0.0
 11
9.6918886324990581
 21
-13.499416309552769
 31
0.0
  0
LINE
  8
DETAIL
  6
CONTINUOUS
 62
     5
 10
9.197404518596386
 20
-13.00493219564976
 30
0.0
 11
9.4940949869383076
 21
-13.301622663991679
 31
0.0
  0
LINE
  8
DETAIL
  6
CONTINUOUS
 62
     5
 10
9.197404518596386
 20
-12.510448081746629
 30
0.0
 11
9.197404518596386
 21
-13.00493219564976
 31
0.0
  0
LINE
  8
DETAIL
  6
CONTINUOUS
 62
     5
 10
11.22478938559834
 20
-12.015963967843501
 30
0.0
 11
11.22478938559834
 21
-12.21375761340494
 31
0.0
  0
LINE
  8
DETAIL
  6
CONTINUOUS
 62
     5
 10
11.52147985394004
 20
-11.81817032228264
 30
0.0
 11
11.22478938559834
 21
-12.015963967843501
 31
0.0
  0
LINE
  8
DETAIL
  6
CONTINUOUS
 62
     5
 10
11.7192734995017
 20
-11.52147985394083
 30
0.0
 11
11.52147985394004
 21
-11.81817032228264
 31
0.0
  0
LINE
  8
DETAIL
  6
CONTINUOUS
 62
     5
 10
12.01596396784362
 20
-11.52147985394083
 30
0.0
 11
11.7192734995017
 21
-11.52147985394083
 31
0.0
  0
LINE
  8
DETAIL
  6
CONTINUOUS
 62
     5
 10
12.213757613405051
 20
-11.52147985394083
 30
0.0
 11
12.01596396784362
 21
-11.52147985394083
 31
0.0
  0
LINE
  8
DETAIL
  6
CONTINUOUS
 62
     5
 10
8.7029204046928044
 20
-11.2247893855988
 30
0.0
 11
8.2084362907901323
 21
-10.97754732864723
 31
0.0
  0
LINE
  8
DETAIL
  6
CONTINUOUS
 62
     5
 10
8.9996108730349533
 20
-11.2247893855988
 30
0.0
 11
8.7029204046928044
 21
-11.2247893855988
 31
0.0
  0
LINE
  8
DETAIL
  6
CONTINUOUS
 62
     5
 10
9.197404518596386
 20
-11.52147985394083
 30
0.0
 11
8.9996108730349533
 21
-11.2247893855988
 31
0.0
  0
LINE
  8
DETAIL
  6
CONTINUOUS
 62
     5
 10
9.197404518596386
 20
-11.81817032228264
 30
0.0
 11
9.197404518596386
 21
-11.52147985394083
 31
0.0
  0
LINE
  8
DETAIL
  6
CONTINUOUS
 62
     5
 10
9.197404518596386
 20
-12.21375761340494
 30
0.0
 11
9.197404518596386
 21
-11.81817032228264
 31
0.0
  0
LINE
  8
DETAIL
  6
CONTINUOUS
 62
     5
 10
9.197404518596386
 20
-12.510448081746629
 30
0.0
 11
9.197404518596386
 21
-12.21375761340494
 31
0.0
  0
LINE
  8
DETAIL
  6
CONTINUOUS
 62
     5
 10
-10.977547328647461
 20
-244.27515226809561
 30
0.0
 11
-10.977547328647461
 21
-243.2367356288994
 31
0.0
  0
LINE
  8
DETAIL
  6
CONTINUOUS
 62
     5
 10
-11.274237796989381
 20
-244.5718427364375
 30
0.0
 11
-10.977547328647461
 21
-244.27515226809561
 31
0.0
  0
LINE
  8
DETAIL
  6
CONTINUOUS
 62
     5
 10
-11.57092826533108
 20
-244.76963638199871
 30
0.0
 11
-11.274237796989381
 21
-244.5718427364375
 31
0.0
  0
LINE
  8
DETAIL
  6
CONTINUOUS
 62
     5
 10
-11.76872191089228
 20
-244.76963638199871
 30
0.0
 11
-11.57092826533108
 21
-244.76963638199871
 31
0.0
  0
LINE
  8
DETAIL
  6
CONTINUOUS
 62
     5
 10
-12.263206024794499
 20
-245.06632685034009
 30
0.0
 11
-11.76872191089228
 21
-244.76963638199871
 31
0.0
  0
LINE
  8
DETAIL
  6
CONTINUOUS
 62
     5
 10
-8.4556783477421504
 20
-245.26412049590181
 30
0.0
 11
-7.9611942338387962
 21
-245.26412049590181
 31
0.0
  0
LINE
  8
DETAIL
  6
CONTINUOUS
 62
     5
 10
-8.7523688160838446
 20
-245.06632685034009
 30
0.0
 11
-8.4556783477421504
 21
-245.26412049590181
 31
0.0
  0
LINE
  8
DETAIL
  6
CONTINUOUS
 62
     5
 10
-9.0490592844257662
 20
-244.76963638199871
 30
0.0
 11
-8.7523688160838446
 21
-245.06632685034009
 31
0.0
  0
LINE
  8
DETAIL
  6
CONTINUOUS
 62
     5
 10
-9.0490592844257662
 20
-243.2367356288994
 30
0.0
 11
-9.0490592844257662
 21
-244.76963638199871
 31
0.0
  0
LINE
  8
DETAIL
  6
CONTINUOUS
 62
     5
 10
-10.779753683085801
 20
-242.9400451605575
 30
0.0
 11
-10.977547328647461
 21
-243.2367356288994
 31
0.0
  0
LINE
  8
DETAIL
  6
CONTINUOUS
 62
     5
 10
-10.483063214743879
 20
-242.7422515149967
 30
0.0
 11
-10.779753683085801
 21
-242.9400451605575
 31
0.0
  0
LINE
  8
DETAIL
  6
CONTINUOUS
 62
     5
 10
-10.28526956918358
 20
-242.54445786943509
 30
0.0
 11
-10.483063214743879
 21
-242.7422515149967
 31
0.0
  0
LINE
  8
DETAIL
  6
CONTINUOUS
 62
     5
 10
-9.988579100841207
 20
-242.54445786943509
 30
0.0
 11
-10.28526956918358
 21
-242.54445786943509
 31
0.0
  0
LINE
  8
DETAIL
  6
CONTINUOUS
 62
     5
 10
-9.5435433983286657
 20
-242.7422515149967
 30
0.0
 11
-9.988579100841207
 21
-242.54445786943509
 31
0.0
  0
LINE
  8
DETAIL
  6
CONTINUOUS
 62
     5
 10
-9.2468529299869715
 20
-242.7422515149967
 30
0.0
 11
-9.5435433983286657
 21
-242.7422515149967
 31
0.0
  0
LINE
  8
DETAIL
  6
CONTINUOUS
 62
     5
 10
-9.2468529299869715
 20
-242.9400451605575
 30
0.0
 11
-9.2468529299869715
 21
-242.7422515149967
 31
0.0
  0
LINE
  8
DETAIL
  6
CONTINUOUS
 62
     5
 10
-9.0490592844257662
 20
-243.2367356288994
 30
0.0
 11
-9.2468529299869715
 21
-242.9400451605575
 31
0.0
  0
LINE
  8
DETAIL
  6
CONTINUOUS
 62
     5
 10
-115.16535012801521
 20
-139.14782965231211
 30
0.0
 11
-115.65983424191811
 21
-139.34562329787329
 31
0.0
  0
LINE
  8
DETAIL
  6
CONTINUOUS
 62
     5
 10
-115.16535012801521
 20
-137.36768684226129
 30
0.0
 11
-115.3631437735767
 21
-137.36768684226129
 31
0.0
  0
LINE
  8
DETAIL
  6
CONTINUOUS
 62
     5
 10
-114.8686596596733
 20
-137.36768684226129
 30
0.0
 11
-115.16535012801521
 21
-137.36768684226129
 31
0.0
  0
LINE
  8
DETAIL
  6
CONTINUOUS
 62
     5
 10
-114.67086601411189
 20
-137.66437731060319
 30
0.0
 11
-114.8686596596733
 21
-137.36768684226129
 31
0.0
  0
LINE
  8
DETAIL
  6
CONTINUOUS
 62
     5
 10
-114.4730723685511
 20
-137.86217095616391
 30
0.0
 11
-114.67086601411189
 21
-137.66437731060319
 31
0.0
  0
LINE
  8
DETAIL
  6
CONTINUOUS
 62
     5
 10
-114.4730723685511
 20
-138.15886142450589
 30
0.0
 11
-114.4730723685511
 21
-137.86217095616391
 31
0.0
  0
LINE
  8
DETAIL
  6
CONTINUOUS
 62
     5
 10
-114.4730723685511
 20
-138.35665507006709
 30
0.0
 11
-114.4730723685511
 21
-138.15886142450589
 31
0.0
  0
LINE
  8
DETAIL
  6
CONTINUOUS
 62
     5
 10
-114.4730723685511
 20
-138.85113918397019
 30
0.0
 11
-114.4730723685511
 21
-138.35665507006709
 31
0.0
  0
LINE
  8
DETAIL
  6
CONTINUOUS
 62
     5
 10
-114.67086601411189
 20
-139.14782965231211
 30
0.0
 11
-114.4730723685511
 21
-138.85113918397019
 31
0.0
  0
LINE
  8
DETAIL
  6
CONTINUOUS
 62
     5
 10
-114.8686596596733
 20
-139.14782965231211
 30
0.0
 11
-114.67086601411189
 21
-139.14782965231211
 31
0.0
  0
LINE
  8
DETAIL
  6
CONTINUOUS
 62
     5
 10
-115.16535012801521
 20
-139.14782965231211
 30
0.0
 11
-114.8686596596733
 21
-139.14782965231211
 31
0.0
  0
LINE
  8
DETAIL
  6
CONTINUOUS
 62
     5
 10
-116.6488024697244
 20
-140.1862462915085
 30
0.0
 11
-116.6488024697244
 21
-140.3840399370695
 31
0.0
  0
LINE
  8
DETAIL
  6
CONTINUOUS
 62
     5
 10
-116.4510088241632
 20
-139.8895558231668
 30
0.0
 11
-116.6488024697244
 21
-140.1862462915085
 31
0.0
  0
LINE
  8
DETAIL
  6
CONTINUOUS
 62
     5
 10
-116.4510088241632
 20
-139.54341694343429
 30
0.0
 11
-116.4510088241632
 21
-139.8895558231668
 31
0.0
  0
LINE
  8
DETAIL
  6
CONTINUOUS
 62
     5
 10
-116.1543183558215
 20
-139.34562329787329
 30
0.0
 11
-116.4510088241632
 21
-139.54341694343429
 31
0.0
  0
LINE
  8
DETAIL
  6
CONTINUOUS
 62
     5
 10
-115.65983424191811
 20
-139.34562329787329
 30
0.0
 11
-116.1543183558215
 21
-139.34562329787329
 31
0.0
  0
LINE
  8
DETAIL
  6
CONTINUOUS
 62
     5
 10
-116.1543183558215
 20
-137.36768684226129
 30
0.0
 11
-115.85762788747959
 21
-137.36768684226129
 31
0.0
  0
LINE
  8
DETAIL
  6
CONTINUOUS
 62
     5
 10
-116.4510088241632
 20
-137.07099637391929
 30
0.0
 11
-116.1543183558215
 21
-137.36768684226129
 31
0.0
  0
LINE
  8
DETAIL
  6
CONTINUOUS
 62
     5
 10
-116.6488024697244
 20
-136.87320272835791
 30
0.0
 11
-116.4510088241632
 21
-137.07099637391929
 31
0.0
  0
LINE
  8
DETAIL
  6
CONTINUOUS
 62
     5
 10
-116.9454929380661
 20
-136.6754090827967
 30
0.0
 11
-116.6488024697244
 21
-136.87320272835791
 31
0.0
  0
LINE
  8
DETAIL
  6
CONTINUOUS
 62
     5
 10
-116.9454929380661
 20
-136.37871861445481
 30
0.0
 11
-116.9454929380661
 21
-136.6754090827967
 31
0.0
  0
LINE
  8
DETAIL
  6
CONTINUOUS
 62
     5
 10
-115.3631437735767
 20
-137.36768684226129
 30
0.0
 11
-115.85762788747959
 21
-137.36768684226129
 31
0.0
  0
LINE
  8
OUTLINE
  6
CONTINUOUS
 62
     3
 10
-160.3117497273619
 20
-3.510837208711564
 30
0.0
 11
-159.42167832233659
 21
-3.510837208711564
 31
0.0
  0
LINE
  8
OUTLINE
  6
CONTINUOUS
 62
     3
 10
-160.3117497273619
 20
-252.7308306158377
 30
0.0
 11
-160.3117497273619
 21
-3.510837208711564
 31
0.0
  0
LINE
  8
OUTLINE
  6
CONTINUOUS
 62
     3
 10
-160.3117497273619
 20
-252.7308306158377
 30
0.0
 11
-159.42167832233659
 21
-252.7308306158377
 31
0.0
  0
LINE
  8
OUTLINE
  6
CONTINUOUS
 62
     3
 10
159.57002355650681
 20
-2.818559449247346
 30
0.0
 11
159.57002355650681
 21
-253.47255678669219
 31
0.0
  0
LINE
  8
OUTLINE
  6
CONTINUOUS
 62
     3
 10
159.57002355650681
 20
-253.47255678669219
 30
0.0
 11
155.76249587945381
 21
-253.47255678669219
 31
0.0
  0
LINE
  8
OUTLINE
  6
CONTINUOUS
 62
     3
 10
155.76249587945381
 20
-2.818559449247346
 30
0.0
 11
159.57002355650681
 21
-2.818559449247346
 31
0.0
  0
LINE
  8
OUTLINE
  6
CONTINUOUS
 62
     3
 10
-158.33381327174951
 20
-255.45049324230399
 30
0.0
 11
-148.34523417090841
 21
-255.45049324230399
 31
0.0
  0
LINE
  8
OUTLINE
  6
CONTINUOUS
 62
     3
 10
-159.42167832233659
 20
-253.47255678669219
 30
0.0
 11
-159.42167832233659
 21
-252.7308306158377
 31
0.0
  0
LINE
  8
OUTLINE
  6
CONTINUOUS
 62
     3
 10
-159.42167832233659
 20
-3.510837208711564
 30
0.0
 11
-159.42167832233659
 21
-2.818559449247346
 31
0.0
  0
LINE
  8
OUTLINE
  6
CONTINUOUS
 62
     3
 10
-159.42167832233659
 20
-2.818559449247346
 30
0.0
 11
-155.61415064528299
 21
-2.818559449247346
 31
0.0
  0
LINE
  8
OUTLINE
  6
CONTINUOUS
 62
     3
 10
-159.42167832233659
 20
-253.47255678669219
 30
0.0
 11
-155.61415064528299
 21
-253.47255678669219
 31
0.0
  0
LINE
  8
OUTLINE
  6
CONTINUOUS
 62
     3
 10
155.2680117655502
 20
-1.236210284757703
 30
0.0
 11
157.0481545756013
 21
-2.818559449247346
 31
0.0
  0
LINE
  8
OUTLINE
  6
CONTINUOUS
 62
     3
 10
-148.34523417090841
 20
-1.236210284757703
 30
0.0
 11
-155.31746017694101
 21
-1.236210284757703
 31
0.0
  0
LINE
  8
OUTLINE
  6
CONTINUOUS
 62
     3
 10
155.2680117655502
 20
-1.236210284757703
 30
0.0
 11
148.2463373481273
 21
-1.236210284757703
 31
0.0
  0
LINE
  8
OUTLINE
  6
CONTINUOUS
 62
     3
 10
148.2463373481273
 20
-1.236210284757703
 30
0.0
 11
148.2463373481273
 21
0.0
 31
0.0
  0
LINE
  8
OUTLINE
  6
CONTINUOUS
 62
     3
 10
-148.34523417090841
 20
0.0
 30
0.0
 11
-148.34523417090841
 21
-1.236210284757703
 31
0.0
  0
LINE
  8
OUTLINE
  6
CONTINUOUS
 62
     3
 10
148.2463373481273
 20
0.0
 30
0.0
 11
-148.34523417090841
 21
0.0
 31
0.0
  0
LINE
  8
OUTLINE
  6
CONTINUOUS
 62
     3
 10
158.23491644896851
 20
-255.45049324230399
 30
0.0
 11
158.23491644896851
 21
-253.47255678669219
 31
0.0
  0
LINE
  8
OUTLINE
  6
CONTINUOUS
 62
     3
 10
-156.8998093414306
 20
-2.818559449247346
 30
0.0
 11
-155.31746017694101
 21
-1.236210284757703
 31
0.0
  0
LINE
  8
OUTLINE
  6
CONTINUOUS
 62
     3
 10
-158.33381327174951
 20
-253.47255678669219
 30
0.0
 11
-158.33381327174951
 21
-255.45049324230399
 31
0.0
  0
LINE
  8
OUTLINE
  6
CONTINUOUS
 62
     3
 10
-148.34523417090841
 20
-256.24166782454893
 30
0.0
 11
-148.34523417090841
 21
-255.45049324230399
 31
0.0
  0
LINE
  8
OUTLINE
  6
CONTINUOUS
 62
     3
 10
148.2463373481273
 20
-256.24166782454893
 30
0.0
 11
148.2463373481273
 21
-255.45049324230399
 31
0.0
  0
LINE
  8
OUTLINE
  6
CONTINUOUS
 62
     3
 10
158.58105532870081
 20
-255.45049324230399
 30
0.0
 11
148.2463373481273
 21
-255.45049324230399
 31
0.0
  0
LINE
  8
OUTLINE
  6
CONTINUOUS
 62
     3
 10
-148.34523417090841
 20
-256.24166782454893
 30
0.0
 11
148.2463373481273
 21
-256.24166782454893
 31
0.0
  0
CIRCLE
  8
DETAIL
  6
CONTINUOUS
 62
     5
 10
0.0
 20
-128.17028232366471
 30
0.0
 40
96.0
  0
CIRCLE
  8
DETAIL
  6
CONTINUOUS
 62
     5
 10
0.0
 20
-128.17028232366471
 30
0.0
 40
104.0
  0
LINE
  8
SIZE
  6
CONTINUOUS
 62
    30
 10
501.47176813889718
 20
-57.797074679013861
 30
0.0
 11
114.8743786333811
 21
-112.0495772027773
 31
0.0
  0
LINE
  8
SIZE
  6
CONTINUOUS
 62
    30
 10
-114.8743786333811
 20
-144.290987444552
 30
0.0
 11
-126.7579350437308
 21
-145.95864659498861
 31
0.0
  0
TEXT
  8
SIZE
  6
CONTINUOUS
 62
    30
 10
260.8299864735024
 20
-66.322171516475379
 30
0.0
 40
64.0
  1
φ208
 50
7.9883413122279867
 41
0.9
 72
     1
 11
374.0972555732933
 21
-50.426997442599401
 31
0.0
  0
LINE
  8
SIZE
  6
CONTINUOUS
 62
    30
 10
-102.9908222230313
 20
-142.6233282941154
 30
0.0
 11
102.9908222230313
 21
-113.71723635321391
 31
0.0
  0
CIRCLE
  8
SIZE
  6
CONTINUOUS
 62
    30
 10
-102.9908222230313
 20
-142.6233282941154
 30
0.0
 40
6.0
  0
LINE
  8
SIZE
  6
CONTINUOUS
 62
    30
 10
-102.9908222230313
 20
-142.6233282941154
 30
0.0
 11
-114.8743786333811
 21
-144.290987444552
 31
0.0
  0
CIRCLE
  8
SIZE
  6
CONTINUOUS
 62
    30
 10
102.9908222230313
 20
-113.71723635321391
 30
0.0
 40
6.0
  0
LINE
  8
SIZE
  6
CONTINUOUS
 62
    30
 10
102.9908222230313
 20
-113.71723635321391
 30
0.0
 11
114.8743786333811
 21
-112.0495772027773
 31
0.0
  0
POINT
  8
DEFPOINTS
  6
CONTINUOUS
 62
    30
 10
102.9908222230313
 20
-113.71723635321391
 30
0.0
  0
POINT
  8
DEFPOINTS
  6
CONTINUOUS
 62
    30
 10
-102.9908222230313
 20
-142.6233282941154
 30
0.0
  0
LINE
  8
SIZE
  6
CONTINUOUS
 62
    30
 10
466.51673551053523
 20
-293.63946380637333
 30
0.0
 11
101.78694127970461
 21
-164.2731711959137
 31
0.0
  0
LINE
  8
SIZE
  6
CONTINUOUS
 62
    30
 10
-101.78694127970461
 20
-92.067393451415597
 30
0.0
 11
-113.09660142189411
 21
-88.055961354499061
 31
0.0
  0
TEXT
  8
SIZE
  6
CONTINUOUS
 62
    30
 10
259.50025773801781
 20
-193.6866332778643
 30
0.0
 40
64.0
  1
φ192
 50
340.47087367878862
 41
0.9
 72
     1
 11
362.12734519971349
 21
-230.08751424874151
 31
0.0
  0
LINE
  8
SIZE
  6
CONTINUOUS
 62
    30
 10
-90.477281137515206
 20
-96.078825548332162
 30
0.0
 11
90.477281137515206
 21
-160.2617390989972
 31
0.0
  0
CIRCLE
  8
SIZE
  6
CONTINUOUS
 62
    30
 10
-90.477281137515206
 20
-96.078825548332162
 30
0.0
 40
6.0
  0
LINE
  8
SIZE
  6
CONTINUOUS
 62
    30
 10
-90.477281137515206
 20
-96.078825548332162
 30
0.0
 11
-101.78694127970461
 21
-92.067393451415597
 31
0.0
  0
CIRCLE
  8
SIZE
  6
CONTINUOUS
 62
    30
 10
90.477281137515206
 20
-160.2617390989972
 30
0.0
 40
6.0
  0
LINE
  8
SIZE
  6
CONTINUOUS
 62
    30
 10
90.477281137515206
 20
-160.2617390989972
 30
0.0
 11
101.78694127970461
 21
-164.27317119591379
 31
0.0
  0
POINT
  8
DEFPOINTS
  6
CONTINUOUS
 62
    30
 10
90.477281137515206
 20
-160.2617390989972
 30
0.0
  0
POINT
  8
DEFPOINTS
  6
CONTINUOUS
 62
    30
 10
-90.477281137515206
 20
-96.078825548332162
 30
0.0
  0
ENDSEC
  0
EOF
