  0
SECTION
  2
HEADER
  9
$ACADVER
  1
AC1009
  9
$DWGCODEPAGE
  3
dos932
  9
$INSBASE
 10
0.0
 20
0.0
 30
0.0
  9
$EXTMIN
 10
-565.09908104225531
 20
-608.27307521853527
 30
0.0
  9
$EXTMAX
 10
1099.5768589481991
 20
1084.918243164502
 30
0.0
  9
$LIMMIN
 10
-2970.0
 20
-2100.0
  9
$LIMMAX
 10
2970.0
 20
2100.0
  9
$ORTHOMODE
 70
     1
  9
$REGENMODE
 70
     1
  9
$FILLMODE
 70
     1
  9
$QTEXTMODE
 70
     0
  9
$MIRRTEXT
 70
     0
  9
$LTSCALE
 40
20.0
  9
$ATTMODE
 70
     1
  9
$TEXTSIZE
 40
64.0
  9
$TRACEWID
 40
0.05
  9
$TEXTSTYLE
  7
STANDARD
  9
$CLAYER
  8
SIZE
  9
$CELTYPE
  6
CONTINUOUS
  9
$CECOLOR
 62
     7
  9
$DIMSCALE
 40
1.0
  9
$DIMASZ
 40
12.0
  9
$DIMEXO
 40
20.0
  9
$DIMDLI
 40
200.0
  9
$DIMRND
 40
0.0
  9
$DIMDLE
 40
0.0
  9
$DIMEXE
 40
20.0
  9
$DIMTP
 40
0.0
  9
$DIMTM
 40
0.0
  9
$DIMTXT
 40
64.0
  9
$DIMCEN
 40
0.09
  9
$DIMTSZ
 40
0.0
  9
$DIMTOL
 70
     0
  9
$DIMLIM
 70
     0
  9
$DIMTIH
 70
     0
  9
$DIMTOH
 70
     0
  9
$DIMSE1
 70
     0
  9
$DIMSE2
 70
     0
  9
$DIMTAD
 70
     1
  9
$DIMZIN
 70
     8
  9
$DIMBLK
  1

  9
$DIMASO
 70
     1
  9
$DIMSHO
 70
     0
  9
$DIMPOST
  1

  9
$DIMAPOST
  1

  9
$DIMALT
 70
     0
  9
$DIMALTD
 70
     2
  9
$DIMALTF
 40
25.399999999999999
  9
$DIMLFAC
 40
1.0
  9
$DIMTOFL
 70
     1
  9
$DIMTVP
 40
0.0
  9
$DIMTIX
 70
     1
  9
$DIMSOXD
 70
     0
  9
$DIMSAH
 70
     0
  9
$DIMBLK1
  1

  9
$DIMBLK2
  1

  9
$DIMSTYLE
  2
STANDARD
  9
$DIMCLRD
 70
     7
  9
$DIMCLRE
 70
     7
  9
$DIMCLRT
 70
     7
  9
$DIMTFAC
 40
1.0
  9
$DIMGAP
 40
25.0
  9
$LUNITS
 70
     2
  9
$LUPREC
 70
     4
  9
$SKETCHINC
 40
0.1
  9
$FILLETRAD
 40
3.0
  9
$AUNITS
 70
     1
  9
$AUPREC
 70
     3
  9
$MENU
  1
ACAD
  9
$ELEVATION
 40
0.0
  9
$PELEVATION
 40
0.0
  9
$THICKNESS
 40
50.0
  9
$LIMCHECK
 70
     0
  9
$CHAMFERA
 40
0.0
  9
$CHAMFERB
 40
0.0
  9
$SKPOLY
 70
     0
  9
$TDCREATE
 40
2453019.623009259
  9
$TDUPDATE
 40
2459292.390016886
  9
$TDINDWG
 40
1.7427706134
  9
$TDUSRTIMER
 40
1.7427706134
  9
$USRTIMER
 70
     1
  9
$ANGBASE
 50
0.0
  9
$ANGDIR
 70
     0
  9
$PDMODE
 70
     3
  9
$PDSIZE
 40
-2.0
  9
$PLINEWID
 40
0.0
  9
$SPLFRAME
 70
     0
  9
$SPLINETYPE
 70
     6
  9
$SPLINESEGS
 70
     8
  9
$SURFTAB1
 70
     6
  9
$SURFTAB2
 70
     6
  9
$SURFTYPE
 70
     6
  9
$SURFU
 70
     6
  9
$SURFV
 70
     6
  9
$UCSNAME
  2

  9
$UCSORG
 10
0.0
 20
0.0
 30
0.0
  9
$UCSXDIR
 10
1.0
 20
0.0
 30
0.0
  9
$UCSYDIR
 10
0.0
 20
1.0
 30
0.0
  9
$PUCSNAME
  2

  9
$PUCSORG
 10
0.0
 20
0.0
 30
0.0
  9
$PUCSXDIR
 10
1.0
 20
0.0
 30
0.0
  9
$PUCSYDIR
 10
0.0
 20
1.0
 30
0.0
  9
$USERI1
 70
     0
  9
$USERI2
 70
     0
  9
$USERI3
 70
     0
  9
$USERI4
 70
     0
  9
$USERI5
 70
     0
  9
$USERR1
 40
20.0
  9
$USERR2
 40
0.0
  9
$USERR3
 40
0.0
  9
$USERR4
 40
0.0
  9
$USERR5
 40
0.0
  9
$WORLDVIEW
 70
     1
  9
$SHADEDGE
 70
     3
  9
$SHADEDIF
 70
    70
  9
$TILEMODE
 70
     1
  9
$MAXACTVP
 70
    48
  9
$PINSBASE
 10
0.0
 20
0.0
 30
0.0
  9
$PLIMCHECK
 70
     0
  9
$PEXTMIN
 10
-100000000000000000000.0
 20
-100000000000000000000.0
 30
-100000000000000000000.0
  9
$PEXTMAX
 10
100000000000000000000.0
 20
100000000000000000000.0
 30
100000000000000000000.0
  9
$PLIMMIN
 10
0.0
 20
0.0
  9
$PLIMMAX
 10
12.0
 20
9.0
  9
$UNITMODE
 70
     0
  9
$VISRETAIN
 70
     0
  9
$PLINEGEN
 70
     0
  9
$PSLTSCALE
 70
     0
  9
$TREEDEPTH
 70
  3020
  9
$ATTDIA
 70
     0
  9
$ATTREQ
 70
     1
  9
$BLIPMODE
 70
     1
  9
$COORDS
 70
     1
  9
$DRAGMODE
 70
     2
  9
$OSMODE
 70
     0
  9
$HANDLING
 70
     0
  9
$HANDSEED
  5
383
  0
ENDSEC
  0
SECTION
  2
TABLES
  0
TABLE
  2
LTYPE
 70
     2
  0
LTYPE
  2
CONTINUOUS
 70
     0
  3
実線
 72
    65
 73
     0
 40
0.0
  0
LTYPE
  2
DASHDOT
 70
     0
  3
____ _ ____ _ ____ _ ____ _ ____ _ ____ _ ____
 72
    65
 73
     4
 40
5.5
 49
4.0
 49
-0.6
 49
0.3
 49
-0.6
  0
ENDTAB
  0
TABLE
  2
LAYER
 70
    12
  0
LAYER
  2
SIZE
 70
     0
 62
    30
  6
CONTINUOUS
  0
LAYER
  2
BASIS
 70
     0
 62
     6
  6
DASHDOT
  0
LAYER
  2
OUTLINE
 70
     0
 62
     3
  6
CONTINUOUS
  0
LAYER
  2
DETAIL
 70
     0
 62
     5
  6
CONTINUOUS
  0
LAYER
  2
ARRANGE
 70
     0
 62
     1
  6
CONTINUOUS
  0
LAYER
  2
DEFPOINTS
 70
     0
 62
     7
  6
CONTINUOUS
  0
LAYER
  2
ETC
 70
     0
 62
    61
  6
CONTINUOUS
  0
LAYER
  2
FIX
 70
     0
 62
    11
  6
CONTINUOUS
  0
LAYER
  2
NOTE
 70
     0
 62
     4
  6
CONTINUOUS
  0
LAYER
  2
0
 70
    64
 62
     7
  6
CONTINUOUS
  0
LAYER
  2
SERVICESPACE
 70
    64
 62
     2
  6
DASHDOT
  0
LAYER
  2
SYMBOLLINE
 70
    64
 62
    15
  6
CONTINUOUS
  0
ENDTAB
  0
TABLE
  2
STYLE
 70
     1
  0
STYLE
  2
STANDARD
 70
     0
 40
64.0
 41
0.9
 50
0.0
 71
     0
 42
64.0
  3
SIMPLEX.shx
  4
BIGFONT.shx
  0
ENDTAB
  0
TABLE
  2
APPID
 70
    20
  0
APPID
  2
ACAD
 70
     0
  0
APPID
  2
ACADANNOTATIVE
 70
     0
  0
APPID
  2
AUTOCAD_POSTSCRIPT_FIGURE
 70
     0
  0
APPID
  2
ACAD_EXEMPT_FROM_CAD_STANDARDS
 70
     0
  0
APPID
  2
ACAD_PSEXT
 70
     0
  0
APPID
  2
ACAUTHENVIRON
 70
     0
  0
APPID
  2
GENIUS_GENOENT_13
 70
     0
  0
APPID
  2
GENIUS_GENCFG_13
 70
     0
  0
APPID
  2
GENIUS_GENCFG0_13
 70
     0
  0
APPID
  2
GENIUS_GENCFG1_13
 70
     0
  0
APPID
  2
GENIUS_GENCFG2_13
 70
     0
  0
APPID
  2
GENIUS_GENCFG3_13
 70
     0
  0
APPID
  2
GENIUS_GENCFG4_13
 70
     0
  0
APPID
  2
GENIUS_GEVCFG0_13
 70
     0
  0
APPID
  2
CONTENTBLOCKICON
 70
     0
  0
APPID
  2
CONTENTBLOCKDESCRIPTION
 70
     0
  0
APPID
  2
ACAD_NAV_VCDISPLAY
 70
     0
  0
APPID
  2
ACAD_MLEADERVER
 70
     0
  0
APPID
  2
ACDBDYNAMICBLOCKTRUENAME
 70
     0
  0
APPID
  2
ACDBDYNAMICBLOCKGUID
 70
     0
  0
ENDTAB
  0
TABLE
  2
DIMSTYLE
 70
     1
  0
DIMSTYLE
  2
STANDARD
 70
     0
  3

  4

  5

  6

  7

 40
1.0
 41
12.0
 42
20.0
 43
200.0
 44
20.0
 45
0.0
 46
0.0
 47
0.0
 48
0.0
140
64.0
141
0.09
142
0.0
143
25.399999999999999
144
1.0
145
0.0
146
1.0
147
25.0
 71
     0
 72
     0
 73
     0
 74
     0
 75
     0
 76
     0
 77
     1
 78
     8
170
     0
171
     2
172
     1
173
     0
174
     1
175
     0
176
     7
177
     7
178
     7
  0
ENDTAB
  0
TABLE
  2
VIEW
 70
     1
  0
VIEW
  2
ALL
 70
     0
 40
4282.6198079999986
 10
0.0
 20
41.309904000000003
 41
5940.0
 11
0.0
 21
0.0
 31
1.0
 12
0.0
 22
0.0
 32
0.0
 42
50.0
 43
0.0
 44
0.0
 50
0.0
 71
     0
  0
ENDTAB
  0
TABLE
  2
UCS
 70
     0
  0
ENDTAB
  0
TABLE
  2
VPORT
 70
     1
  0
VPORT
  2
*ACTIVE
 70
     0
 10
0.0
 20
0.0
 11
1.0
 21
1.0
 12
284.04362285559517
 22
238.24311308358131
 13
0.0
 23
0.0
 14
1.0
 24
1.0
 15
0.0
 25
0.0
 16
0.0
 26
0.0
 36
1.0
 17
0.0
 27
0.0
 37
0.0
 40
1704.7243036223949
 41
1.767337807606264
 42
50.0
 43
0.0
 44
0.0
 50
0.0
 51
0.0
 71
     0
 72
  1000
 73
     1
 74
     3
 75
     0
 76
     0
 77
     0
 78
     0
  0
ENDTAB
  0
ENDSEC
  0
SECTION
  2
BLOCKS
  0
ENDSEC
  0
SECTION
  2
ENTITIES
  0
LINE
  8
DETAIL
  6
CONTINUOUS
 62
     5
 10
-95.999957397194521
 20
349.0
 30
0.0
 11
95.999757397195935
 21
349.0
 31
0.0
  0
LINE
  8
DETAIL
  6
CONTINUOUS
 62
     5
 10
-96.000189000101287
 20
340.90752799989968
 30
0.0
 11
95.999989000102687
 21
340.90752799989968
 31
0.0
  0
LINE
  8
DETAIL
  6
CONTINUOUS
 62
     5
 10
-104.00002000010041
 20
272.46244199990048
 30
0.0
 11
104.0000200001023
 21
272.46244199990048
 31
0.0
  0
LINE
  8
DETAIL
  6
CONTINUOUS
 62
     5
 10
-220.4999527999997
 20
267.00002339990039
 30
0.0
 11
-137.34804901347979
 21
267.00002339990039
 31
0.0
  0
LINE
  8
DETAIL
  6
CONTINUOUS
 62
     5
 10
138.2554490131788
 20
267.00002339990039
 30
0.0
 11
220.49995280000081
 21
267.00002339990039
 31
0.0
  0
LINE
  8
DETAIL
  6
CONTINUOUS
 62
     5
 10
-136.73387508127871
 20
265.9884644
 30
0.0
 11
-134.6821528888668
 21
265.9884644
 31
0.0
  0
LINE
  8
DETAIL
  6
CONTINUOUS
 62
     5
 10
135.58955288886861
 20
265.9884644
 30
0.0
 11
137.64127508128061
 21
265.9884644
 31
0.0
  0
LINE
  8
DETAIL
  6
CONTINUOUS
 62
     5
 10
-163.6127456998984
 20
265.3815290000008
 30
0.0
 11
-137.10773981266269
 21
265.3815290000008
 31
0.0
  0
LINE
  8
DETAIL
  6
CONTINUOUS
 62
     5
 10
138.01513981266359
 20
265.3815290000008
 30
0.0
 11
163.61274569990019
 21
265.3815290000008
 31
0.0
  0
LINE
  8
DETAIL
  6
CONTINUOUS
 62
     5
 10
-161.28616000010061
 20
264.80921719989919
 30
0.0
 11
-154.00293520010109
 21
264.80921719989919
 31
0.0
  0
LINE
  8
DETAIL
  6
CONTINUOUS
 62
     5
 10
154.002935200102
 20
264.80921719989919
 30
0.0
 11
161.2861600001024
 21
264.80921719989919
 31
0.0
  0
LINE
  8
DETAIL
  6
CONTINUOUS
 62
     5
 10
-114.11560999696481
 20
264.60690539979942
 30
0.0
 11
114.1156099969667
 21
264.60690539979942
 31
0.0
  0
LINE
  8
DETAIL
  6
CONTINUOUS
 62
     5
 10
128.00286580000099
 20
264.02525897500118
 30
0.0
 11
135.58955830000099
 21
264.02525897500118
 31
0.0
  0
LINE
  8
DETAIL
  6
CONTINUOUS
 62
     5
 10
-161.28616000010061
 20
263.99996999980021
 30
0.0
 11
161.2861600001024
 21
263.99996999980021
 31
0.0
  0
LINE
  8
DETAIL
  6
CONTINUOUS
 62
     5
 10
162.50003080010259
 20
261.97685200000109
 30
0.0
 11
161.2861600001024
 21
261.97685200000109
 31
0.0
  0
LINE
  8
DETAIL
  6
CONTINUOUS
 62
     5
 10
-161.28616000010061
 20
261.97685200000109
 30
0.0
 11
-162.5000308001008
 21
261.97685200000109
 31
0.0
  0
LINE
  8
DETAIL
  6
CONTINUOUS
 62
     5
 10
-162.5000308001008
 20
261.47107249989989
 30
0.0
 11
-163.6127456998984
 21
261.47107249989989
 31
0.0
  0
LINE
  8
DETAIL
  6
CONTINUOUS
 62
     5
 10
162.50003080010259
 20
261.47107249989989
 30
0.0
 11
163.61274569990019
 21
261.47107249989989
 31
0.0
  0
LINE
  8
DETAIL
  6
CONTINUOUS
 62
     5
 10
-137.2923399186175
 20
266.99271256378842
 30
0.0
 11
-137.34804901347979
 21
267.00002339990039
 31
0.0
  0
LINE
  8
DETAIL
  6
CONTINUOUS
 62
     5
 10
-136.6027479687427
 20
264.00736638952691
 30
0.0
 11
-136.56069778207981
 21
263.99996999980021
 31
0.0
  0
LINE
  8
DETAIL
  6
CONTINUOUS
 62
     5
 10
-137.23371868670799
 20
266.97021230804842
 30
0.0
 11
-137.2923399186175
 21
266.99271256378842
 31
0.0
  0
LINE
  8
DETAIL
  6
CONTINUOUS
 62
     5
 10
-136.6456275805767
 20
264.03001040398289
 30
0.0
 11
-136.6027479687427
 21
264.00736638952691
 31
0.0
  0
LINE
  8
DETAIL
  6
CONTINUOUS
 62
     5
 10
-137.17218531835991
 20
266.93177638527652
 30
0.0
 11
-137.23371868670799
 21
266.97021230804842
 31
0.0
  0
LINE
  8
DETAIL
  6
CONTINUOUS
 62
     5
 10
-162.5000308001008
 20
226.49990439980041
 30
0.0
 11
-194.93639829999941
 21
226.49990439980041
 31
0.0
  0
LINE
  8
DETAIL
  6
CONTINUOUS
 62
     5
 10
-206.06354730010031
 20
226.49990439980041
 30
0.0
 11
-220.4999527999997
 21
226.49990439980041
 31
0.0
  0
LINE
  8
DETAIL
  6
CONTINUOUS
 62
     5
 10
162.50003080010259
 20
226.49990439980041
 30
0.0
 11
194.9363983000012
 21
226.49990439980041
 31
0.0
  0
LINE
  8
DETAIL
  6
CONTINUOUS
 62
     5
 10
206.0635473001021
 20
226.49990439980041
 30
0.0
 11
220.49995280000081
 21
226.49990439980041
 31
0.0
  0
LINE
  8
DETAIL
  6
CONTINUOUS
 62
     5
 10
-137.10773981266269
 20
266.87682284942508
 30
0.0
 11
-137.17218531835991
 21
266.93177638527652
 31
0.0
  0
LINE
  8
DETAIL
  6
CONTINUOUS
 62
     5
 10
-136.6893366181894
 20
264.06847541868359
 30
0.0
 11
-136.6456275805767
 21
264.03001040398289
 31
0.0
  0
LINE
  8
DETAIL
  6
CONTINUOUS
 62
     5
 10
-151.94212823110681
 20
265.3815290000008
 30
0.0
 11
-151.40461526565471
 21
264.47401603424578
 31
0.0
  0
LINE
  8
DETAIL
  6
CONTINUOUS
 62
     5
 10
-136.73387508127871
 20
264.12317055027552
 30
0.0
 11
-136.6893366181894
 21
264.06847541868359
 31
0.0
  0
LINE
  8
DETAIL
  6
CONTINUOUS
 62
     5
 10
138.19973991861929
 20
266.99271256378842
 30
0.0
 11
138.2554490131788
 21
267.00002339990039
 31
0.0
  0
LINE
  8
DETAIL
  6
CONTINUOUS
 62
     5
 10
-162.5000308001008
 20
197.4393877998987
 30
0.0
 11
-161.28616000010061
 21
197.4393877998987
 31
0.0
  0
LINE
  8
DETAIL
  6
CONTINUOUS
 62
     5
 10
-161.28616000010061
 20
195.21395799999971
 30
0.0
 11
-163.10696620010091
 21
195.21395799999971
 31
0.0
  0
LINE
  8
DETAIL
  6
CONTINUOUS
 62
     5
 10
-136.78102600614969
 20
264.19335056401502
 30
0.0
 11
-136.73387508127871
 21
264.12317055027552
 31
0.0
  0
LINE
  8
DETAIL
  6
CONTINUOUS
 62
     5
 10
137.68842600615059
 20
-159.19339206421481
 30
0.0
 11
137.64127508128061
 21
-159.12321205047351
 31
0.0
  0
LINE
  8
DETAIL
  6
CONTINUOUS
 62
     5
 10
-137.0620822851179
 20
266.80670260819772
 30
0.0
 11
-137.10773981266269
 21
266.87682284942508
 31
0.0
  0
LINE
  8
DETAIL
  6
CONTINUOUS
 62
     5
 10
137.9694822851188
 20
-161.8066441083993
 30
0.0
 11
138.01513981266359
 21
-161.87676434962489
 31
0.0
  0
LINE
  8
DETAIL
  6
CONTINUOUS
 62
     5
 10
137.7336263037669
 20
-159.2763460009044
 30
0.0
 11
137.68842600615059
 21
-159.19339206421481
 31
0.0
  0
LINE
  8
DETAIL
  6
CONTINUOUS
 62
     5
 10
-136.82622630376591
 20
264.27630450070461
 30
0.0
 11
-136.78102600614969
 21
264.19335056401502
 31
0.0
  0
LINE
  8
DETAIL
  6
CONTINUOUS
 62
     5
 10
137.9253450424421
 20
-161.72372436068511
 30
0.0
 11
137.9694822851188
 21
-161.8066441083993
 31
0.0
  0
LINE
  8
DETAIL
  6
CONTINUOUS
 62
     5
 10
137.7768759741293
 20
-159.3704458312875
 30
0.0
 11
137.7336263037669
 21
-159.2763460009044
 31
0.0
  0
LINE
  8
DETAIL
  6
CONTINUOUS
 62
     5
 10
137.88272808402689
 20
-161.6296108563493
 30
0.0
 11
137.9253450424421
 21
-161.72372436068511
 31
0.0
  0
LINE
  8
DETAIL
  6
CONTINUOUS
 62
     5
 10
137.81817501723711
 20
-159.4740575344438
 30
0.0
 11
137.7768759741293
 21
-159.3704458312875
 31
0.0
  0
LINE
  8
DETAIL
  6
CONTINUOUS
 62
     5
 10
137.84163141047881
 20
-161.52591886565281
 30
0.0
 11
137.88272808402689
 21
-161.6296108563493
 31
0.0
  0
LINE
  8
DETAIL
  6
CONTINUOUS
 62
     5
 10
137.64127508128061
 20
-160.9884059002016
 30
0.0
 11
137.79184968405929
 21
-161.39139500880631
 31
0.0
  0
LINE
  8
DETAIL
  6
CONTINUOUS
 62
     5
 10
137.79184968405929
 20
-161.39139500880631
 30
0.0
 11
137.84163141047881
 21
-161.52591886565281
 31
0.0
  0
LINE
  8
DETAIL
  6
CONTINUOUS
 62
     5
 10
137.81817501723711
 20
-159.4740575344438
 30
0.0
 11
137.96618524360201
 21
-160.2468943889435
 31
0.0
  0
LINE
  8
DETAIL
  6
CONTINUOUS
 62
     5
 10
137.96618524360201
 20
-160.2468943889435
 30
0.0
 11
138.01513981266359
 21
-160.38147050020061
 31
0.0
  0
LINE
  8
DETAIL
  6
CONTINUOUS
 62
     5
 10
137.5101479684408
 20
264.00736638952691
 30
0.0
 11
137.46809778208171
 21
263.99996999980021
 31
0.0
  0
LINE
  8
DETAIL
  6
CONTINUOUS
 62
     5
 10
138.01513981266359
 20
-161.87676434962489
 30
0.0
 11
138.07958531805801
 21
-161.93171788547809
 31
0.0
  0
LINE
  8
DETAIL
  6
CONTINUOUS
 62
     5
 10
137.59673661819119
 20
-159.06851691888349
 30
0.0
 11
137.5530275805786
 21
-159.03005190418091
 31
0.0
  0
LINE
  8
DETAIL
  6
CONTINUOUS
 62
     5
 10
151.94212823110871
 20
-160.38147050020061
 30
0.0
 11
151.40461526565559
 21
-159.4740575344438
 31
0.0
  0
LINE
  8
DETAIL
  6
CONTINUOUS
 62
     5
 10
137.64127508128061
 20
-159.12321205047351
 30
0.0
 11
137.59673661819119
 21
-159.06851691888349
 31
0.0
  0
LINE
  8
DETAIL
  6
CONTINUOUS
 62
     5
 10
-137.0179450424412
 20
266.72378286048541
 30
0.0
 11
-137.0620822851179
 21
266.80670260819772
 31
0.0
  0
LINE
  8
DETAIL
  6
CONTINUOUS
 62
     5
 10
-136.8694759744312
 20
264.3704043310895
 30
0.0
 11
-136.82622630376591
 21
264.27630450070461
 31
0.0
  0
LINE
  8
DETAIL
  6
CONTINUOUS
 62
     5
 10
-136.9753280840259
 20
266.62966935614952
 30
0.0
 11
-137.0179450424412
 21
266.72378286048541
 31
0.0
  0
LINE
  8
DETAIL
  6
CONTINUOUS
 62
     5
 10
-136.91077501753901
 20
264.47401603424578
 30
0.0
 11
-136.8694759744312
 21
264.3704043310895
 31
0.0
  0
LINE
  8
DETAIL
  6
CONTINUOUS
 62
     5
 10
-136.93423141047791
 20
266.52597736545488
 30
0.0
 11
-136.9753280840259
 21
266.62966935614952
 31
0.0
  0
LINE
  8
DETAIL
  6
CONTINUOUS
 62
     5
 10
-136.73387508127871
 20
265.9884644
 30
0.0
 11
-136.8844496840575
 21
266.39145350860292
 31
0.0
  0
LINE
  8
DETAIL
  6
CONTINUOUS
 62
     5
 10
-136.8844496840575
 20
266.39145350860292
 30
0.0
 11
-136.93423141047791
 21
266.52597736545488
 31
0.0
  0
LINE
  8
DETAIL
  6
CONTINUOUS
 62
     5
 10
-136.91077501753901
 20
264.47401603424578
 30
0.0
 11
-137.05878524360011
 21
264.87695288874562
 31
0.0
  0
LINE
  8
DETAIL
  6
CONTINUOUS
 62
     5
 10
-137.05878524360011
 20
264.87695288874562
 30
0.0
 11
-137.10773981266269
 21
265.3815290000008
 31
0.0
  0
LINE
  8
DETAIL
  6
CONTINUOUS
 62
     5
 10
138.1411186867108
 20
266.97021230804842
 30
0.0
 11
138.19973991861929
 21
266.99271256378842
 31
0.0
  0
LINE
  8
DETAIL
  6
CONTINUOUS
 62
     5
 10
-164.77603855010059
 20
25.811751732959461
 30
0.0
 11
-165.5852857498985
 21
25.811751732959461
 31
0.0
  0
LINE
  8
DETAIL
  6
CONTINUOUS
 62
     5
 10
-223.67923135000001
 20
1.3320239328570549
 30
0.0
 11
-165.5852857498985
 21
1.3320239328570549
 31
0.0
  0
LINE
  8
DETAIL
  6
CONTINUOUS
 62
     5
 10
-164.77603855009971
 20
1.3320239328570549
 30
0.0
 11
-163.1069662001
 21
1.3320239328570549
 31
0.0
  0
LINE
  8
DETAIL
  6
CONTINUOUS
 62
     5
 10
-225.29772574989869
 20
-1.0957176671433899
 30
0.0
 11
-223.67923135000001
 21
-1.0957176671433899
 31
0.0
  0
LINE
  8
DETAIL
  6
CONTINUOUS
 62
     5
 10
137.5530275805786
 20
-159.03005190418091
 30
0.0
 11
137.5101479684399
 21
-159.00740788972479
 31
0.0
  0
LINE
  8
DETAIL
  6
CONTINUOUS
 62
     5
 10
138.07958531805801
 20
-161.93171788547809
 30
0.0
 11
138.14111868670989
 21
-161.97015380824999
 31
0.0
  0
LINE
  8
DETAIL
  6
CONTINUOUS
 62
     5
 10
137.5530275805786
 20
264.03001040398289
 30
0.0
 11
137.5101479684408
 21
264.00736638952691
 31
0.0
  0
LINE
  8
DETAIL
  6
CONTINUOUS
 62
     5
 10
138.14111868670989
 20
-161.97015380824999
 30
0.0
 11
138.19973991861841
 21
-161.99265406398811
 31
0.0
  0
LINE
  8
DETAIL
  6
CONTINUOUS
 62
     5
 10
138.07958531805889
 20
266.93177638527652
 30
0.0
 11
138.1411186867108
 21
266.97021230804842
 31
0.0
  0
LINE
  8
DETAIL
  6
CONTINUOUS
 62
     5
 10
-161.28616000010149
 20
-88.292037399998435
 30
0.0
 11
-163.10696620010091
 21
-88.292037399998435
 31
0.0
  0
LINE
  8
DETAIL
  6
CONTINUOUS
 62
     5
 10
-225.29772574989869
 20
-88.89903886704063
 30
0.0
 11
-223.67923135000001
 21
-88.89903886704063
 31
0.0
  0
LINE
  8
DETAIL
  6
CONTINUOUS
 62
     5
 10
-162.29771900000009
 20
-90.213999500199648
 30
0.0
 11
-161.28616000010149
 21
-90.213999500199648
 31
0.0
  0
LINE
  8
DETAIL
  6
CONTINUOUS
 62
     5
 10
-162.29771900000009
 20
-91.326780467041075
 30
0.0
 11
-164.77603855010059
 21
-91.326780467041075
 31
0.0
  0
LINE
  8
DETAIL
  6
CONTINUOUS
 62
     5
 10
-165.58528574989759
 20
-91.326780467041075
 30
0.0
 11
-223.67923135000001
 21
-91.326780467041075
 31
0.0
  0
LINE
  8
DETAIL
  6
CONTINUOUS
 62
     5
 10
-165.5852857498985
 20
-105.6909182669403
 30
0.0
 11
-164.77603855010059
 21
-105.6909182669403
 31
0.0
  0
LINE
  8
DETAIL
  6
CONTINUOUS
 62
     5
 10
-162.29771900000009
 20
-121.49994589999839
 30
0.0
 11
-194.93639830000029
 21
-121.49994589999839
 31
0.0
  0
LINE
  8
DETAIL
  6
CONTINUOUS
 62
     5
 10
-206.06354730010031
 20
-121.49994589999839
 30
0.0
 11
-220.4999527999997
 21
-121.49994589999839
 31
0.0
  0
LINE
  8
DETAIL
  6
CONTINUOUS
 62
     5
 10
162.50003080010171
 20
-121.49994589999839
 30
0.0
 11
194.9363983000012
 21
-121.49994589999839
 31
0.0
  0
LINE
  8
DETAIL
  6
CONTINUOUS
 62
     5
 10
206.0635473001021
 20
-121.49994589999839
 30
0.0
 11
220.49995280000081
 21
-121.49994589999839
 31
0.0
  0
LINE
  8
DETAIL
  6
CONTINUOUS
 62
     5
 10
138.19973991861841
 20
-161.99265406398811
 30
0.0
 11
138.25544901317789
 21
-161.9999649000984
 31
0.0
  0
LINE
  8
DETAIL
  6
CONTINUOUS
 62
     5
 10
137.5101479684399
 20
-159.00740788972479
 30
0.0
 11
137.46809778208171
 21
-159.0000115
 31
0.0
  0
LINE
  8
DETAIL
  6
CONTINUOUS
 62
     5
 10
138.01513981266359
 20
266.87682284942508
 30
0.0
 11
138.07958531805889
 21
266.93177638527652
 31
0.0
  0
LINE
  8
DETAIL
  6
CONTINUOUS
 62
     5
 10
-162.29771900000009
 20
-156.47111400009979
 30
0.0
 11
-163.6127456998984
 21
-156.47111400009979
 31
0.0
  0
LINE
  8
DETAIL
  6
CONTINUOUS
 62
     5
 10
162.50003080010171
 20
-156.47111400009979
 30
0.0
 11
163.61274569990019
 21
-156.47111400009979
 31
0.0
  0
LINE
  8
DETAIL
  6
CONTINUOUS
 62
     5
 10
162.50003080010171
 20
-156.97689350019911
 30
0.0
 11
161.2861600001024
 21
-156.97689350019911
 31
0.0
  0
LINE
  8
DETAIL
  6
CONTINUOUS
 62
     5
 10
-162.29771900000009
 20
-156.97689350019911
 30
0.0
 11
-161.28616000010149
 21
-156.97689350019911
 31
0.0
  0
LINE
  8
DETAIL
  6
CONTINUOUS
 62
     5
 10
-161.08384819999989
 20
-159.0000115
 30
0.0
 11
161.2861600001024
 21
-159.0000115
 31
0.0
  0
LINE
  8
DETAIL
  6
CONTINUOUS
 62
     5
 10
161.2861600001024
 20
-160.1791587001008
 30
0.0
 11
154.002935200102
 21
-160.1791587001008
 31
0.0
  0
LINE
  8
DETAIL
  6
CONTINUOUS
 62
     5
 10
122.0548999999
 20
-160.1791587001008
 30
0.0
 11
108.5000094001016
 21
-160.1791587001008
 31
0.0
  0
LINE
  8
DETAIL
  6
CONTINUOUS
 62
     5
 10
-109.5000303999996
 20
-160.1791587001008
 30
0.0
 11
-140.04342100010041
 21
-160.1791587001008
 31
0.0
  0
LINE
  8
DETAIL
  6
CONTINUOUS
 62
     5
 10
-161.08384819999989
 20
-160.1791587001008
 30
0.0
 11
-153.80062339999949
 21
-160.1791587001008
 31
0.0
  0
LINE
  8
DETAIL
  6
CONTINUOUS
 62
     5
 10
-163.6127456998984
 20
-160.38147050020061
 30
0.0
 11
-139.73995330010081
 21
-160.38147050020061
 31
0.0
  0
LINE
  8
DETAIL
  6
CONTINUOUS
 62
     5
 10
138.01513981266359
 20
-160.38147050020061
 30
0.0
 11
163.61274569990019
 21
-160.38147050020061
 31
0.0
  0
LINE
  8
DETAIL
  6
CONTINUOUS
 62
     5
 10
-139.73995330010081
 20
-160.68493820020021
 30
0.0
 11
-111.5231484001006
 21
-160.68493820020021
 31
0.0
  0
LINE
  8
DETAIL
  6
CONTINUOUS
 62
     5
 10
135.58955288886861
 20
-160.9884059002016
 30
0.0
 11
137.64127508128061
 21
-160.9884059002016
 31
0.0
  0
LINE
  8
DETAIL
  6
CONTINUOUS
 62
     5
 10
-220.4999527999997
 20
-161.9999649000984
 30
0.0
 11
-137.92649323769999
 21
-161.9999649000984
 31
0.0
  0
LINE
  8
DETAIL
  6
CONTINUOUS
 62
     5
 10
138.25544901317789
 20
-161.9999649000984
 30
0.0
 11
220.49995280000081
 21
-161.9999649000984
 31
0.0
  0
LINE
  8
DETAIL
  6
CONTINUOUS
 62
     5
 10
151.94212823110959
 20
265.3815290000008
 30
0.0
 11
151.4046152656565
 21
264.47401603424578
 31
0.0
  0
LINE
  8
DETAIL
  6
CONTINUOUS
 62
     5
 10
137.59673661819221
 20
264.06847541868359
 30
0.0
 11
137.5530275805786
 21
264.03001040398289
 31
0.0
  0
LINE
  8
DETAIL
  6
CONTINUOUS
 62
     5
 10
-108.28615959999929
 20
-263.99994570010091
 30
0.0
 11
107.2861386001023
 21
-263.99994570010091
 31
0.0
  0
LINE
  8
DETAIL
  6
CONTINUOUS
 62
     5
 10
-108.0462560000005
 20
-264.02523467499799
 30
0.0
 11
-108.1824136428841
 21
-264.02523467499799
 31
0.0
  0
LINE
  8
DETAIL
  6
CONTINUOUS
 62
     5
 10
105.8699560000005
 20
-264.60688110010011
 30
0.0
 11
-108.0462560000005
 21
-264.60688110010011
 31
0.0
  0
LINE
  8
DETAIL
  6
CONTINUOUS
 62
     5
 10
137.64127508128061
 20
264.12317055027552
 30
0.0
 11
137.59673661819221
 21
264.06847541868359
 31
0.0
  0
LINE
  8
DETAIL
  6
CONTINUOUS
 62
     5
 10
104.0000200001023
 20
-272.09241770020122
 30
0.0
 11
-104.0000200001014
 21
-272.09241770020122
 31
0.0
  0
LINE
  8
DETAIL
  6
CONTINUOUS
 62
     5
 10
-225.29772574989869
 20
-88.89903886704063
 30
0.0
 11
-225.29772574989869
 21
-1.0957176671433899
 31
0.0
  0
LINE
  8
DETAIL
  6
CONTINUOUS
 62
     5
 10
-223.67923135000001
 20
-91.326780467041075
 30
0.0
 11
-223.67923135000001
 21
-88.89903886704063
 31
0.0
  0
LINE
  8
DETAIL
  6
CONTINUOUS
 62
     5
 10
-223.67923135000001
 20
1.3320239328570549
 30
0.0
 11
-223.67923135000001
 21
-1.0957176671433899
 31
0.0
  0
LINE
  8
DETAIL
  6
CONTINUOUS
 62
     5
 10
-220.4999527999997
 20
267.00002339990039
 30
0.0
 11
-220.4999527999997
 21
226.49990439980041
 31
0.0
  0
LINE
  8
DETAIL
  6
CONTINUOUS
 62
     5
 10
-220.4999527999997
 20
-121.49994589999839
 30
0.0
 11
-220.4999527999997
 21
-161.9999649000984
 31
0.0
  0
LINE
  8
DETAIL
  6
CONTINUOUS
 62
     5
 10
137.96948228511971
 20
266.80670260819772
 30
0.0
 11
138.01513981266359
 21
266.87682284942508
 31
0.0
  0
LINE
  8
DETAIL
  6
CONTINUOUS
 62
     5
 10
137.6884260061515
 20
264.19335056401502
 30
0.0
 11
137.64127508128061
 21
264.12317055027552
 31
0.0
  0
LINE
  8
DETAIL
  6
CONTINUOUS
 62
     5
 10
95.999989000102687
 20
-340.90750370020032
 30
0.0
 11
-95.999989000101763
 21
-340.90750370020032
 31
0.0
  0
LINE
  8
DETAIL
  6
CONTINUOUS
 62
     5
 10
95.999989000102687
 20
-348.99997569999869
 30
0.0
 11
-95.999989000101763
 21
-348.99997569999869
 31
0.0
  0
LINE
  8
DETAIL
  6
CONTINUOUS
 62
     5
 10
-206.06354730010031
 20
226.49990439980041
 30
0.0
 11
-206.06354730010031
 21
246.49995209990061
 31
0.0
  0
LINE
  8
DETAIL
  6
CONTINUOUS
 62
     5
 10
-206.06354730010031
 20
-121.49994589999839
 30
0.0
 11
-206.06354730010031
 21
-141.49999360010051
 31
0.0
  0
LINE
  8
DETAIL
  6
CONTINUOUS
 62
     5
 10
-194.93639829999941
 20
226.49990439980041
 30
0.0
 11
-194.93639829999941
 21
246.49995209990061
 31
0.0
  0
LINE
  8
DETAIL
  6
CONTINUOUS
 62
     5
 10
-194.93639830000029
 20
-121.49994589999839
 30
0.0
 11
-194.93639830000029
 21
-141.49999360010051
 31
0.0
  0
LINE
  8
DETAIL
  6
CONTINUOUS
 62
     5
 10
-165.5852857498985
 20
-105.6909182669403
 30
0.0
 11
-165.5852857498985
 21
25.811751732959461
 31
0.0
  0
LINE
  8
DETAIL
  6
CONTINUOUS
 62
     5
 10
-164.77603855010059
 20
25.811751732959461
 30
0.0
 11
-164.77603855010059
 21
-105.6909182669403
 31
0.0
  0
LINE
  8
DETAIL
  6
CONTINUOUS
 62
     5
 10
-163.6127456998984
 20
-161.9999649000984
 30
0.0
 11
-163.6127456998984
 21
-156.47111400009979
 31
0.0
  0
LINE
  8
DETAIL
  6
CONTINUOUS
 62
     5
 10
-163.6127456998984
 20
267.00002339990039
 30
0.0
 11
-163.6127456998984
 21
261.47107249989989
 31
0.0
  0
LINE
  8
DETAIL
  6
CONTINUOUS
 62
     5
 10
-163.10696620010091
 20
195.21395799999971
 30
0.0
 11
-163.10696620010091
 21
-88.292037399998435
 31
0.0
  0
LINE
  8
DETAIL
  6
CONTINUOUS
 62
     5
 10
-162.5000308001008
 20
261.97685200000109
 30
0.0
 11
-162.5000308001008
 21
197.4393877998987
 31
0.0
  0
LINE
  8
DETAIL
  6
CONTINUOUS
 62
     5
 10
-162.29771900000009
 20
-90.213999500199648
 30
0.0
 11
-162.29771900000009
 21
-156.97689350019911
 31
0.0
  0
LINE
  8
DETAIL
  6
CONTINUOUS
 62
     5
 10
-161.28616000010149
 20
-157.40064937631701
 30
0.0
 11
-161.28616000010149
 21
-156.97689350019911
 31
0.0
  0
LINE
  8
DETAIL
  6
CONTINUOUS
 62
     5
 10
-161.28616000010061
 20
262.38147559990063
 30
0.0
 11
-161.28616000010061
 21
261.97685200000109
 31
0.0
  0
LINE
  8
DETAIL
  6
CONTINUOUS
 62
     5
 10
-161.28616000010061
 20
197.4393877998987
 30
0.0
 11
-161.28616000010061
 21
195.21395799999971
 31
0.0
  0
LINE
  8
DETAIL
  6
CONTINUOUS
 62
     5
 10
-161.28616000010149
 20
-88.292037399998435
 30
0.0
 11
-161.28616000010149
 21
-90.213999500199648
 31
0.0
  0
LINE
  8
DETAIL
  6
CONTINUOUS
 62
     5
 10
-154.00293520010109
 20
263.99996999980021
 30
0.0
 11
-154.00293520010109
 21
264.80921719989919
 31
0.0
  0
LINE
  8
DETAIL
  6
CONTINUOUS
 62
     5
 10
-153.80062339999949
 20
-159.0000115
 30
0.0
 11
-153.80062339999949
 21
-160.1791587001008
 31
0.0
  0
LINE
  8
DETAIL
  6
CONTINUOUS
 62
     5
 10
-104.00002000010041
 20
272.46244199990048
 30
0.0
 11
-96.000189000101287
 21
340.90752799989968
 31
0.0
  0
LINE
  8
DETAIL
  6
CONTINUOUS
 62
     5
 10
137.92534504244301
 20
266.72378286048541
 30
0.0
 11
137.96948228511971
 21
266.80670260819772
 31
0.0
  0
LINE
  8
DETAIL
  6
CONTINUOUS
 62
     5
 10
137.73362630376781
 20
264.27630450070461
 30
0.0
 11
137.6884260061515
 21
264.19335056401502
 31
0.0
  0
LINE
  8
DETAIL
  6
CONTINUOUS
 62
     5
 10
-95.999989000101763
 20
-340.90750370020032
 30
0.0
 11
-104.0000200001014
 21
-272.09241770020122
 31
0.0
  0
LINE
  8
DETAIL
  6
CONTINUOUS
 62
     5
 10
-140.04342100010041
 20
-160.1791587001008
 30
0.0
 11
-140.04342100010041
 21
-159.0000115
 31
0.0
  0
LINE
  8
DETAIL
  6
CONTINUOUS
 62
     5
 10
-139.73995330010081
 20
-160.1791587001008
 30
0.0
 11
-139.73995330010081
 21
-160.68493820020021
 31
0.0
  0
LINE
  8
DETAIL
  6
CONTINUOUS
 62
     5
 10
-137.10773981266269
 20
266.87682284942508
 30
0.0
 11
-137.10773981266269
 21
265.3815290000008
 31
0.0
  0
LINE
  8
DETAIL
  6
CONTINUOUS
 62
     5
 10
-136.73387508127871
 20
265.9884644
 30
0.0
 11
-136.73387508127871
 21
264.12317055027552
 31
0.0
  0
LINE
  8
DETAIL
  6
CONTINUOUS
 62
     5
 10
-134.6821582999992
 20
263.99996999980021
 30
0.0
 11
-134.6821582999992
 21
265.9884644
 31
0.0
  0
LINE
  8
DETAIL
  6
CONTINUOUS
 62
     5
 10
-111.5231484001006
 20
-160.1791587001008
 30
0.0
 11
-111.5231484001006
 21
-160.68493820020021
 31
0.0
  0
LINE
  8
DETAIL
  6
CONTINUOUS
 62
     5
 10
-109.5000303999996
 20
-262.78607490009881
 30
0.0
 11
-109.5000303999996
 21
-159.0000115
 31
0.0
  0
LINE
  8
DETAIL
  6
CONTINUOUS
 62
     5
 10
-108.1824136428841
 20
-263.99994570010091
 30
0.0
 11
-108.1824136428841
 21
-264.02523467499799
 31
0.0
  0
LINE
  8
DETAIL
  6
CONTINUOUS
 62
     5
 10
-114.1156099999998
 20
264.60690539979942
 30
0.0
 11
-114.1156099999998
 21
263.99996999980021
 31
0.0
  0
LINE
  8
DETAIL
  6
CONTINUOUS
 62
     5
 10
-108.0462560000005
 20
-264.60688110010011
 30
0.0
 11
-108.0462560000005
 21
-263.99994570010091
 31
0.0
  0
LINE
  8
DETAIL
  6
CONTINUOUS
 62
     5
 10
-104.0000200001014
 20
-272.09241770020122
 30
0.0
 11
-104.0000200001014
 21
-265.21381650009931
 31
0.0
  0
LINE
  8
DETAIL
  6
CONTINUOUS
 62
     5
 10
-104.00002000010041
 20
265.58384079979862
 30
0.0
 11
-104.00002000010041
 21
272.46244199990048
 31
0.0
  0
LINE
  8
DETAIL
  6
CONTINUOUS
 62
     5
 10
-95.999989000101763
 20
-348.99997569999869
 30
0.0
 11
-95.999989000101763
 21
-340.90750370020032
 31
0.0
  0
LINE
  8
DETAIL
  6
CONTINUOUS
 62
     5
 10
-96.000189000101287
 20
340.90752799989968
 30
0.0
 11
-96.000189000101287
 21
349.0
 31
0.0
  0
LINE
  8
DETAIL
  6
CONTINUOUS
 62
     5
 10
137.69167151946019
 20
266.12269702587997
 30
0.0
 11
137.84163141047881
 21
266.52597736545488
 31
0.0
  0
LINE
  8
DETAIL
  6
CONTINUOUS
 62
     5
 10
137.64127508128061
 20
265.9884644
 30
0.0
 11
137.69167151946019
 21
266.12269702587997
 31
0.0
  0
LINE
  8
DETAIL
  6
CONTINUOUS
 62
     5
 10
137.84163141047881
 20
266.52597736545488
 30
0.0
 11
137.88272808402689
 21
266.62966935614952
 31
0.0
  0
LINE
  8
DETAIL
  6
CONTINUOUS
 62
     5
 10
137.81817501723799
 20
264.47401603424578
 30
0.0
 11
137.77687597413021
 21
264.3704043310895
 31
0.0
  0
LINE
  8
DETAIL
  6
CONTINUOUS
 62
     5
 10
137.88272808402689
 20
266.62966935614952
 30
0.0
 11
137.92534504244301
 21
266.72378286048541
 31
0.0
  0
LINE
  8
DETAIL
  6
CONTINUOUS
 62
     5
 10
137.77687597413021
 20
264.3704043310895
 30
0.0
 11
137.73362630376781
 21
264.27630450070461
 31
0.0
  0
LINE
  8
DETAIL
  6
CONTINUOUS
 62
     5
 10
-32.68447156293405
 20
264.60690539979942
 30
0.0
 11
-32.68447156293405
 21
263.99996999980021
 31
0.0
  0
LINE
  8
DETAIL
  6
CONTINUOUS
 62
     5
 10
137.86770284588869
 20
264.60819640601721
 30
0.0
 11
138.01513981266359
 21
265.3815290000008
 31
0.0
  0
LINE
  8
DETAIL
  6
CONTINUOUS
 62
     5
 10
137.81817501723799
 20
264.47401603424578
 30
0.0
 11
137.86770284588869
 21
264.60819640601721
 31
0.0
  0
LINE
  8
DETAIL
  6
CONTINUOUS
 62
     5
 10
33.354971562936051
 20
264.60690539979942
 30
0.0
 11
33.354971562936051
 21
263.99996999980021
 31
0.0
  0
LINE
  8
DETAIL
  6
CONTINUOUS
 62
     5
 10
95.999989000102687
 20
-348.99997569999869
 30
0.0
 11
95.999989000102687
 21
-340.90750370020032
 31
0.0
  0
LINE
  8
DETAIL
  6
CONTINUOUS
 62
     5
 10
95.999989000102687
 20
340.90752799989968
 30
0.0
 11
95.999989000102687
 21
349.0
 31
0.0
  0
LINE
  8
DETAIL
  6
CONTINUOUS
 62
     5
 10
104.0000200001023
 20
-272.09241770020122
 30
0.0
 11
104.0000200001023
 21
-265.21381650009931
 31
0.0
  0
LINE
  8
DETAIL
  6
CONTINUOUS
 62
     5
 10
104.0000200001023
 20
265.58384079979862
 30
0.0
 11
104.0000200001023
 21
272.46244199990048
 31
0.0
  0
LINE
  8
DETAIL
  6
CONTINUOUS
 62
     5
 10
105.8699560000005
 20
-264.60688110010011
 30
0.0
 11
105.8699560000005
 21
-263.99994570010091
 31
0.0
  0
LINE
  8
DETAIL
  6
CONTINUOUS
 62
     5
 10
108.5000094001016
 20
-159.0000115
 30
0.0
 11
108.5000094001016
 21
-262.78607490009881
 31
0.0
  0
LINE
  8
DETAIL
  6
CONTINUOUS
 62
     5
 10
114.1156100000007
 20
264.60690539979942
 30
0.0
 11
114.1156100000007
 21
263.99996999980021
 31
0.0
  0
LINE
  8
DETAIL
  6
CONTINUOUS
 62
     5
 10
119.0202229998995
 20
-160.1791587001008
 30
0.0
 11
119.0202229998995
 21
-159.0000115
 31
0.0
  0
LINE
  8
DETAIL
  6
CONTINUOUS
 62
     5
 10
122.0548999999
 20
-160.1791587001008
 30
0.0
 11
122.0548999999
 21
-159.0000115
 31
0.0
  0
LINE
  8
DETAIL
  6
CONTINUOUS
 62
     5
 10
95.999989000102687
 20
-340.90750370020032
 30
0.0
 11
104.0000200001023
 21
-272.09241770020122
 31
0.0
  0
LINE
  8
DETAIL
  6
CONTINUOUS
 62
     5
 10
104.0000200001023
 20
272.46244199990048
 30
0.0
 11
95.999989000102687
 21
340.90752799989968
 31
0.0
  0
LINE
  8
DETAIL
  6
CONTINUOUS
 62
     5
 10
128.00286580000099
 20
263.99996999980021
 30
0.0
 11
128.00286580000099
 21
264.02525897500118
 31
0.0
  0
LINE
  8
DETAIL
  6
CONTINUOUS
 62
     5
 10
135.58955830000099
 20
265.9884644
 30
0.0
 11
135.58955830000099
 21
263.99996999980021
 31
0.0
  0
LINE
  8
DETAIL
  6
CONTINUOUS
 62
     5
 10
135.58955830000099
 20
-159.0000115
 30
0.0
 11
135.58955830000099
 21
-160.9884059002016
 31
0.0
  0
LINE
  8
DETAIL
  6
CONTINUOUS
 62
     5
 10
137.64127508128061
 20
-160.9884059002016
 30
0.0
 11
137.64127508128061
 21
-159.12321205047351
 31
0.0
  0
LINE
  8
DETAIL
  6
CONTINUOUS
 62
     5
 10
137.64127508128061
 20
265.9884644
 30
0.0
 11
137.64127508128061
 21
264.12317055027552
 31
0.0
  0
LINE
  8
DETAIL
  6
CONTINUOUS
 62
     5
 10
138.01513981266359
 20
-161.87676434962489
 30
0.0
 11
138.01513981266359
 21
-160.38147050020061
 31
0.0
  0
LINE
  8
DETAIL
  6
CONTINUOUS
 62
     5
 10
138.01513981266359
 20
266.87682284942508
 30
0.0
 11
138.01513981266359
 21
265.3815290000008
 31
0.0
  0
LINE
  8
DETAIL
  6
CONTINUOUS
 62
     5
 10
154.002935200102
 20
263.99996999980021
 30
0.0
 11
154.002935200102
 21
264.80921719989919
 31
0.0
  0
LINE
  8
DETAIL
  6
CONTINUOUS
 62
     5
 10
154.002935200102
 20
-159.0000115
 30
0.0
 11
154.002935200102
 21
-160.1791587001008
 31
0.0
  0
LINE
  8
DETAIL
  6
CONTINUOUS
 62
     5
 10
161.2861600001024
 20
-157.38151710010041
 30
0.0
 11
161.2861600001024
 21
-156.97689350019911
 31
0.0
  0
LINE
  8
DETAIL
  6
CONTINUOUS
 62
     5
 10
161.2861600001024
 20
263.99996999980021
 30
0.0
 11
161.2861600001024
 21
261.97685200000109
 31
0.0
  0
LINE
  8
DETAIL
  6
CONTINUOUS
 62
     5
 10
162.50003080010171
 20
-156.97689350019911
 30
0.0
 11
162.50003080010259
 21
261.97685200000109
 31
0.0
  0
LINE
  8
DETAIL
  6
CONTINUOUS
 62
     5
 10
163.61274569990019
 20
-161.9999649000984
 30
0.0
 11
163.61274569990019
 21
-156.47111400009979
 31
0.0
  0
LINE
  8
DETAIL
  6
CONTINUOUS
 62
     5
 10
163.61274569990019
 20
267.00002339990039
 30
0.0
 11
163.61274569990019
 21
261.47107249989989
 31
0.0
  0
LINE
  8
DETAIL
  6
CONTINUOUS
 62
     5
 10
194.9363983000012
 20
226.49990439980041
 30
0.0
 11
194.9363983000012
 21
246.49995209990061
 31
0.0
  0
LINE
  8
DETAIL
  6
CONTINUOUS
 62
     5
 10
194.9363983000012
 20
-121.49994589999839
 30
0.0
 11
194.9363983000012
 21
-141.49999360010051
 31
0.0
  0
LINE
  8
DETAIL
  6
CONTINUOUS
 62
     5
 10
206.0635473001021
 20
226.49990439980041
 30
0.0
 11
206.0635473001021
 21
246.49995209990061
 31
0.0
  0
LINE
  8
DETAIL
  6
CONTINUOUS
 62
     5
 10
206.0635473001021
 20
-121.49994589999839
 30
0.0
 11
206.0635473001021
 21
-141.49999360010051
 31
0.0
  0
LINE
  8
DETAIL
  6
CONTINUOUS
 62
     5
 10
220.49995280000081
 20
267.00002339990039
 30
0.0
 11
220.49995280000081
 21
226.49990439980041
 31
0.0
  0
LINE
  8
DETAIL
  6
CONTINUOUS
 62
     5
 10
220.49995280000081
 20
-121.49994589999839
 30
0.0
 11
220.49995280000081
 21
-161.9999649000984
 31
0.0
  0
ARC
  8
DETAIL
  6
CONTINUOUS
 62
     5
 10
-200.49997279989839
 20
246.49995209990061
 30
0.0
 40
5.5635744998988441
 50
0.0
 51
180.0
  0
ARC
  8
DETAIL
  6
CONTINUOUS
 62
     5
 10
-223.67923135000001
 20
-1.0957176671433899
 30
0.0
 40
1.6184943998988439
 50
90.0
 51
180.0
  0
ARC
  8
DETAIL
  6
CONTINUOUS
 62
     5
 10
-150.26016689989771
 20
265.61846439999999
 30
0.0
 40
1.6184943998988439
 50
224.99999999999079
 51
270.0
  0
ARC
  8
DETAIL
  6
CONTINUOUS
 62
     5
 10
-161.28616000010061
 20
263.59534639989897
 30
0.0
 40
1.2138708
 50
90.0
 51
270.0
  0
ARC
  8
DETAIL
  6
CONTINUOUS
 62
     5
 10
-223.67923135000001
 20
-1.0957176671433899
 30
0.0
 40
0.8092472001011558
 50
90.0
 51
180.0
  0
ARC
  8
DETAIL
  6
CONTINUOUS
 62
     5
 10
-105.01806027689599
 20
265.53931176015038
 30
0.0
 40
1.01901366062944
 50
293.79303803846892
 51
2.504518641208997
  0
ARC
  8
DETAIL
  6
CONTINUOUS
 62
     5
 10
200.49997279990021
 20
246.49995209990061
 30
0.0
 40
5.5635744998988441
 50
0.0
 51
180.0
  0
ARC
  8
DETAIL
  6
CONTINUOUS
 62
     5
 10
150.2601668999005
 20
265.61846439999999
 30
0.0
 40
1.6184943998988439
 50
270.0
 51
315.00000000000921
  0
ARC
  8
DETAIL
  6
CONTINUOUS
 62
     5
 10
161.2861600001024
 20
263.59534639989897
 30
0.0
 40
1.2138708
 50
270.0
 51
90.0
  0
ARC
  8
DETAIL
  6
CONTINUOUS
 62
     5
 10
105.0180602768978
 20
265.53931176015038
 30
0.0
 40
1.019013660629702
 50
177.49548135879101
 51
246.20696196153111
  0
ARC
  8
DETAIL
  6
CONTINUOUS
 62
     5
 10
161.2861600001024
 20
263.59534639989897
 30
0.0
 40
0.4046235998988441
 50
270.0
 51
90.0
  0
ARC
  8
DETAIL
  6
CONTINUOUS
 62
     5
 10
-200.49997279989839
 20
-141.49999360010051
 30
0.0
 40
5.5635744998988441
 50
180.0
 51
0.0
  0
ARC
  8
DETAIL
  6
CONTINUOUS
 62
     5
 10
-223.67923135000001
 20
-88.89903886704063
 30
0.0
 40
1.6184943998988439
 50
180.0
 51
270.0
  0
ARC
  8
DETAIL
  6
CONTINUOUS
 62
     5
 10
-108.28615959999929
 20
-262.78607490009881
 30
0.0
 40
1.2138708
 50
180.0
 51
270.0
  0
ARC
  8
DETAIL
  6
CONTINUOUS
 62
     5
 10
-160.88480835514201
 20
-158.78033790009869
 30
0.0
 40
1.4129106448582121
 50
98.098320403978207
 51
261.90167959602178
  0
ARC
  8
DETAIL
  6
CONTINUOUS
 62
     5
 10
-223.67923135000001
 20
-88.89903886704063
 30
0.0
 40
0.8092472001011558
 50
180.0
 51
270.0
  0
ARC
  8
DETAIL
  6
CONTINUOUS
 62
     5
 10
-104.6069554001015
 20
-265.21381650009931
 30
0.0
 40
0.6069354
 50
0.0
 51
90.0
  0
ARC
  8
DETAIL
  6
CONTINUOUS
 62
     5
 10
200.49997279990021
 20
-141.49999360010051
 30
0.0
 40
5.5635744998988441
 50
180.0
 51
0.0
  0
ARC
  8
DETAIL
  6
CONTINUOUS
 62
     5
 10
150.26016689989959
 20
-160.6185059002016
 30
0.0
 40
1.6184943998988439
 50
44.999999999990777
 51
90.0
  0
ARC
  8
DETAIL
  6
CONTINUOUS
 62
     5
 10
161.08712015524449
 20
-158.78033790009869
 30
0.0
 40
1.4129106448582121
 50
278.09832040397822
 51
81.901679596021793
  0
ARC
  8
DETAIL
  6
CONTINUOUS
 62
     5
 10
107.2861386001023
 20
-262.78607490009881
 30
0.0
 40
1.2138708
 50
270.0
 51
0.0
  0
ARC
  8
DETAIL
  6
CONTINUOUS
 62
     5
 10
104.6069554001015
 20
-265.21381650009931
 30
0.0
 40
0.6069354
 50
90.0
 51
180.0
  0
LINE
  8
BASIS
  6
DASHDOT
 62
     6
 10
-180.49997279989839
 20
246.49995209990061
 30
0.0
 11
-220.49997279989839
 21
246.49995209990061
 31
0.0
  0
LINE
  8
BASIS
  6
DASHDOT
 62
     6
 10
-200.49997279989839
 20
266.49995209990061
 30
0.0
 11
-200.49997279989839
 21
226.49995209990061
 31
0.0
  0
LINE
  8
BASIS
  6
DASHDOT
 62
     6
 10
220.49997279990021
 20
246.49995209990061
 30
0.0
 11
180.49997279990021
 21
246.49995209990061
 31
0.0
  0
LINE
  8
BASIS
  6
DASHDOT
 62
     6
 10
200.49996656583241
 20
266.49997274325551
 30
0.0
 11
200.49997903396891
 21
226.49993145654571
 31
0.0
  0
LINE
  8
BASIS
  6
DASHDOT
 62
     6
 10
220.49997279990021
 20
-141.49999360010051
 30
0.0
 11
180.49997279990021
 21
-141.49999360010051
 31
0.0
  0
LINE
  8
BASIS
  6
DASHDOT
 62
     6
 10
-180.49997279989839
 20
-141.49999360010051
 30
0.0
 11
-220.49997279989839
 21
-141.49999360010051
 31
0.0
  0
LINE
  8
BASIS
  6
DASHDOT
 62
     6
 10
-200.49997279989839
 20
-121.4999936001005
 30
0.0
 11
-200.49997279989839
 21
-161.49999360010051
 31
0.0
  0
LINE
  8
SIZE
  6
CONTINUOUS
 62
    30
 10
-95.999957397194521
 20
369.0
 30
0.0
 11
-95.999957397194507
 21
503.91824316450169
 31
0.0
  0
LINE
  8
SIZE
  6
CONTINUOUS
 62
    30
 10
95.999989000102687
 20
369.0
 30
0.0
 11
95.999989000102715
 21
503.91824316450169
 31
0.0
  0
LINE
  8
SIZE
  6
CONTINUOUS
 62
    30
 10
-83.999957397194507
 20
483.91824316450169
 30
0.0
 11
83.999989000102701
 21
483.91824316450169
 31
0.0
  0
LINE
  8
SIZE
  6
CONTINUOUS
 62
    30
 10
95.999989000102715
 20
483.91824316450169
 30
0.0
 11
472.44509256250598
 21
483.91824316450169
 31
0.0
  0
CIRCLE
  8
SIZE
  6
CONTINUOUS
 62
    30
 10
-95.999957397194507
 20
483.91824316450169
 30
0.0
 40
6.0
  0
LINE
  8
SIZE
  6
CONTINUOUS
 62
    30
 10
-95.999957397194507
 20
483.91824316450169
 30
0.0
 11
-83.999957397194507
 21
483.91824316450169
 31
0.0
  0
CIRCLE
  8
SIZE
  6
CONTINUOUS
 62
    30
 10
95.999989000102715
 20
483.91824316450169
 30
0.0
 40
6.0
  0
LINE
  8
SIZE
  6
CONTINUOUS
 62
    30
 10
95.999989000102715
 20
483.91824316450169
 30
0.0
 11
83.999989000102701
 21
483.91824316450169
 31
0.0
  0
TEXT
  8
SIZE
  6
CONTINUOUS
 62
    30
 10
241.1822354196488
 20
508.91824316450169
 30
0.0
 40
64.0
  1
φ192
 41
0.9
 72
     1
 11
350.07366399107741
 21
508.91824316450169
 31
0.0
  0
POINT
  8
DEFPOINTS
  6
CONTINUOUS
 62
    30
 10
-95.999957397194521
 20
349.0
 30
0.0
  0
POINT
  8
DEFPOINTS
  6
CONTINUOUS
 62
    30
 10
95.999989000102687
 20
349.0
 30
0.0
  0
POINT
  8
DEFPOINTS
  6
CONTINUOUS
 62
    30
 10
95.999989000102715
 20
483.91824316450169
 30
0.0
  0
LINE
  8
SIZE
  6
CONTINUOUS
 62
    30
 10
-104.00002000010041
 20
292.46244199990048
 30
0.0
 11
-104.00002000010041
 21
631.91824316450175
 31
0.0
  0
LINE
  8
SIZE
  6
CONTINUOUS
 62
    30
 10
104.0000200001023
 20
292.46244199990048
 30
0.0
 11
104.0000200001023
 21
631.91824316450175
 31
0.0
  0
LINE
  8
SIZE
  6
CONTINUOUS
 62
    30
 10
-92.000020000100434
 20
611.91824316450175
 30
0.0
 11
92.000020000102268
 21
611.91824316450175
 31
0.0
  0
LINE
  8
SIZE
  6
CONTINUOUS
 62
    30
 10
104.0000200001023
 20
611.91824316450175
 30
0.0
 11
480.16527376871801
 21
611.91824316450175
 31
0.0
  0
CIRCLE
  8
SIZE
  6
CONTINUOUS
 62
    30
 10
-104.00002000010041
 20
611.91824316450175
 30
0.0
 40
6.0
  0
LINE
  8
SIZE
  6
CONTINUOUS
 62
    30
 10
-104.00002000010041
 20
611.91824316450175
 30
0.0
 11
-92.000020000100406
 21
611.91824316450175
 31
0.0
  0
CIRCLE
  8
SIZE
  6
CONTINUOUS
 62
    30
 10
104.0000200001023
 20
611.91824316450175
 30
0.0
 40
6.0
  0
LINE
  8
SIZE
  6
CONTINUOUS
 62
    30
 10
104.0000200001023
 20
611.91824316450175
 30
0.0
 11
92.000020000102268
 21
611.91824316450175
 31
0.0
  0
TEXT
  8
SIZE
  6
CONTINUOUS
 62
    30
 10
237.93098805443219
 20
636.91824316450175
 30
0.0
 40
64.0
  1
φ208
 41
0.9
 72
     1
 11
352.30813091157512
 21
636.91824316450175
 31
0.0
  0
POINT
  8
DEFPOINTS
  6
CONTINUOUS
 62
    30
 10
-104.00002000010041
 20
272.46244199990048
 30
0.0
  0
POINT
  8
DEFPOINTS
  6
CONTINUOUS
 62
    30
 10
104.0000200001023
 20
272.46244199990048
 30
0.0
  0
POINT
  8
DEFPOINTS
  6
CONTINUOUS
 62
    30
 10
104.0000200001023
 20
611.91824316450175
 30
0.0
  0
LINE
  8
SIZE
  6
CONTINUOUS
 62
    30
 10
162.50003080010171
 20
-176.97689350019911
 30
0.0
 11
162.50003080010171
 21
-608.27307521853527
 31
0.0
  0
LINE
  8
SIZE
  6
CONTINUOUS
 62
    30
 10
108.5000094001016
 20
-282.78607490009881
 30
0.0
 11
108.5000094001016
 21
-608.27307521853527
 31
0.0
  0
LINE
  8
SIZE
  6
CONTINUOUS
 62
    30
 10
96.500009400101561
 20
-588.27307521853527
 30
0.0
 11
84.500009400101561
 21
-588.27307521853527
 31
0.0
  0
LINE
  8
SIZE
  6
CONTINUOUS
 62
    30
 10
174.50003080010171
 20
-588.27307521853527
 30
0.0
 11
332.50003080010168
 21
-588.27307521853527
 31
0.0
  0
LINE
  8
SIZE
  6
CONTINUOUS
 62
    30
 10
108.5000094001016
 20
-588.27307521853527
 30
0.0
 11
162.50003080010171
 21
-588.27307521853527
 31
0.0
  0
CIRCLE
  8
SIZE
  6
CONTINUOUS
 62
    30
 10
108.5000094001016
 20
-588.27307521853527
 30
0.0
 40
6.0
  0
LINE
  8
SIZE
  6
CONTINUOUS
 62
    30
 10
108.5000094001016
 20
-588.27307521853527
 30
0.0
 11
96.50000940010159
 21
-588.27307521853527
 31
0.0
  0
CIRCLE
  8
SIZE
  6
CONTINUOUS
 62
    30
 10
162.50003080010171
 20
-588.27307521853527
 30
0.0
 40
6.0
  0
LINE
  8
SIZE
  6
CONTINUOUS
 62
    30
 10
162.50003080010171
 20
-588.27307521853527
 30
0.0
 11
174.50003080010171
 21
-588.27307521853527
 31
0.0
  0
TEXT
  8
SIZE
  6
CONTINUOUS
 62
    30
 10
211.50003080010171
 20
-563.27307521853527
 30
0.0
 40
64.0
  1
54
 41
0.9
 72
     1
 11
259.50003080010168
 21
-563.27307521853527
 31
0.0
  0
POINT
  8
DEFPOINTS
  6
CONTINUOUS
 62
    30
 10
162.50003080010171
 20
-156.97689350019911
 30
0.0
  0
POINT
  8
DEFPOINTS
  6
CONTINUOUS
 62
    30
 10
108.5000094001016
 20
-262.78607490009881
 30
0.0
  0
POINT
  8
DEFPOINTS
  6
CONTINUOUS
 62
    30
 10
108.5000094001016
 20
-588.27307521853527
 30
0.0
  0
LINE
  8
SIZE
  6
CONTINUOUS
 62
    30
 10
108.5000094001016
 20
-282.78607490009881
 30
0.0
 11
108.5000094001016
 21
-608.27307521853527
 31
0.0
  0
LINE
  8
SIZE
  6
CONTINUOUS
 62
    30
 10
-109.5000303999996
 20
-282.78607490009881
 30
0.0
 11
-109.5000303999996
 21
-608.27307521853527
 31
0.0
  0
LINE
  8
SIZE
  6
CONTINUOUS
 62
    30
 10
96.500009400101561
 20
-588.27307521853527
 30
0.0
 11
-97.500030399999559
 21
-588.27307521853527
 31
0.0
  0
CIRCLE
  8
SIZE
  6
CONTINUOUS
 62
    30
 10
108.5000094001016
 20
-588.27307521853527
 30
0.0
 40
6.0
  0
LINE
  8
SIZE
  6
CONTINUOUS
 62
    30
 10
108.5000094001016
 20
-588.27307521853527
 30
0.0
 11
96.50000940010159
 21
-588.27307521853527
 31
0.0
  0
CIRCLE
  8
SIZE
  6
CONTINUOUS
 62
    30
 10
-109.5000303999996
 20
-588.27307521853527
 30
0.0
 40
6.0
  0
LINE
  8
SIZE
  6
CONTINUOUS
 62
    30
 10
-109.5000303999996
 20
-588.27307521853527
 30
0.0
 11
-97.500030399999602
 21
-588.27307521853527
 31
0.0
  0
TEXT
  8
SIZE
  6
CONTINUOUS
 62
    30
 10
-69.071439071377554
 20
-563.27307521853527
 30
0.0
 40
64.0
  1
218
 41
0.9
 72
     1
 11
-0.5000104999489992
 21
-563.27307521853527
 31
0.0
  0
POINT
  8
DEFPOINTS
  6
CONTINUOUS
 62
    30
 10
108.5000094001016
 20
-262.78607490009881
 30
0.0
  0
POINT
  8
DEFPOINTS
  6
CONTINUOUS
 62
    30
 10
-109.5000303999996
 20
-262.78607490009881
 30
0.0
  0
POINT
  8
DEFPOINTS
  6
CONTINUOUS
 62
    30
 10
-109.5000303999996
 20
-588.27307521853527
 30
0.0
  0
LINE
  8
SIZE
  6
CONTINUOUS
 62
    30
 10
162.50003080010259
 20
281.97685200000109
 30
0.0
 11
162.50003080010271
 21
759.91824316450175
 31
0.0
  0
LINE
  8
SIZE
  6
CONTINUOUS
 62
    30
 10
-162.5000308001008
 20
281.97685200000109
 30
0.0
 11
-162.5000308001008
 21
759.91824316450175
 31
0.0
  0
LINE
  8
SIZE
  6
CONTINUOUS
 62
    30
 10
150.50003080010271
 20
739.91824316450175
 30
0.0
 11
-150.5000308001008
 21
739.91824316450175
 31
0.0
  0
CIRCLE
  8
SIZE
  6
CONTINUOUS
 62
    30
 10
162.50003080010271
 20
739.91824316450175
 30
0.0
 40
6.0
  0
LINE
  8
SIZE
  6
CONTINUOUS
 62
    30
 10
162.50003080010271
 20
739.91824316450175
 30
0.0
 11
150.50003080010271
 21
739.91824316450175
 31
0.0
  0
CIRCLE
  8
SIZE
  6
CONTINUOUS
 62
    30
 10
-162.5000308001008
 20
739.91824316450175
 30
0.0
 40
6.0
  0
LINE
  8
SIZE
  6
CONTINUOUS
 62
    30
 10
-162.5000308001008
 20
739.91824316450175
 30
0.0
 11
-150.5000308001008
 21
739.91824316450175
 31
0.0
  0
TEXT
  8
SIZE
  6
CONTINUOUS
 62
    30
 10
-74.05714285714194
 20
764.91824316450175
 30
0.0
 40
64.0
  1
325
 41
0.9
 72
     1
 11
0.0000000000009095
 21
764.91824316450175
 31
0.0
  0
POINT
  8
DEFPOINTS
  6
CONTINUOUS
 62
    30
 10
162.50003080010259
 20
261.97685200000109
 30
0.0
  0
POINT
  8
DEFPOINTS
  6
CONTINUOUS
 62
    30
 10
-162.5000308001008
 20
261.97685200000109
 30
0.0
  0
POINT
  8
DEFPOINTS
  6
CONTINUOUS
 62
    30
 10
-162.5000308001008
 20
739.91824316450175
 30
0.0
  0
LINE
  8
SIZE
  6
CONTINUOUS
 62
    30
 10
200.4999665658315
 20
286.0607727432556
 30
0.0
 11
200.49996656583161
 21
887.91824316450175
 31
0.0
  0
LINE
  8
SIZE
  6
CONTINUOUS
 62
    30
 10
-200.49997279989839
 20
286.0607520999007
 30
0.0
 11
-200.49997279989839
 21
887.91824316450175
 31
0.0
  0
LINE
  8
SIZE
  6
CONTINUOUS
 62
    30
 10
188.49996656583161
 20
867.91824316450175
 30
0.0
 11
-188.49997279989839
 21
867.91824316450175
 31
0.0
  0
CIRCLE
  8
SIZE
  6
CONTINUOUS
 62
    30
 10
200.49996656583161
 20
867.91824316450175
 30
0.0
 40
6.0
  0
LINE
  8
SIZE
  6
CONTINUOUS
 62
    30
 10
200.49996656583161
 20
867.91824316450175
 30
0.0
 11
188.49996656583161
 21
867.91824316450175
 31
0.0
  0
CIRCLE
  8
SIZE
  6
CONTINUOUS
 62
    30
 10
-200.49997279989839
 20
867.91824316450175
 30
0.0
 40
6.0
  0
LINE
  8
SIZE
  6
CONTINUOUS
 62
    30
 10
-200.49997279989839
 20
867.91824316450175
 30
0.0
 11
-188.49997279989839
 21
867.91824316450175
 31
0.0
  0
TEXT
  8
SIZE
  6
CONTINUOUS
 62
    30
 10
-61.714288831318683
 20
892.91824316450175
 30
0.0
 40
64.0
  1
401
 41
0.9
 72
     1
 11
-0.0000031170329748
 21
892.91824316450175
 31
0.0
  0
POINT
  8
DEFPOINTS
  6
CONTINUOUS
 62
    30
 10
200.4999665658315
 20
266.0607727432556
 30
0.0
  0
POINT
  8
DEFPOINTS
  6
CONTINUOUS
 62
    30
 10
-200.49997279989839
 20
266.0607520999007
 30
0.0
  0
POINT
  8
DEFPOINTS
  6
CONTINUOUS
 62
    30
 10
-200.49997279989839
 20
867.91824316450175
 30
0.0
  0
LINE
  8
SIZE
  6
CONTINUOUS
 62
    30
 10
220.49995280000081
 20
287.00002339990039
 30
0.0
 11
220.49995280000081
 21
1015.918243164502
 31
0.0
  0
LINE
  8
SIZE
  6
CONTINUOUS
 62
    30
 10
-220.4999527999997
 20
287.00002339990039
 30
0.0
 11
-220.4999527999997
 21
1015.918243164502
 31
0.0
  0
LINE
  8
SIZE
  6
CONTINUOUS
 62
    30
 10
208.49995280000081
 20
995.91824316450163
 30
0.0
 11
-208.4999527999997
 21
995.91824316450163
 31
0.0
  0
CIRCLE
  8
SIZE
  6
CONTINUOUS
 62
    30
 10
220.49995280000081
 20
995.91824316450163
 30
0.0
 40
6.0
  0
LINE
  8
SIZE
  6
CONTINUOUS
 62
    30
 10
220.49995280000081
 20
995.91824316450163
 30
0.0
 11
208.49995280000081
 21
995.91824316450163
 31
0.0
  0
CIRCLE
  8
SIZE
  6
CONTINUOUS
 62
    30
 10
-220.4999527999997
 20
995.91824316450163
 30
0.0
 40
6.0
  0
LINE
  8
SIZE
  6
CONTINUOUS
 62
    30
 10
-220.4999527999997
 20
995.91824316450163
 30
0.0
 11
-208.4999527999997
 21
995.91824316450163
 31
0.0
  0
TEXT
  8
SIZE
  6
CONTINUOUS
 62
    30
 10
-61.714285714285708
 20
1020.918243164502
 30
0.0
 40
64.0
  1
441
 41
0.9
 72
     1
 11
0.0
 21
1020.918243164502
 31
0.0
  0
POINT
  8
DEFPOINTS
  6
CONTINUOUS
 62
    30
 10
220.49995280000081
 20
267.00002339990039
 30
0.0
  0
POINT
  8
DEFPOINTS
  6
CONTINUOUS
 62
    30
 10
-220.4999527999997
 20
267.00002339990039
 30
0.0
  0
POINT
  8
DEFPOINTS
  6
CONTINUOUS
 62
    30
 10
-220.4999527999997
 20
995.91824316450163
 30
0.0
  0
LINE
  8
SIZE
  6
CONTINUOUS
 62
    30
 10
240.4999727998985
 20
246.4999520999007
 30
0.0
 11
651.00051279079321
 21
246.49995209990081
 31
0.0
  0
LINE
  8
SIZE
  6
CONTINUOUS
 62
    30
 10
240.4999727998985
 20
-141.49999360010059
 30
0.0
 11
651.00051279079321
 21
-141.49999360010051
 31
0.0
  0
LINE
  8
SIZE
  6
CONTINUOUS
 62
    30
 10
631.00051279079321
 20
234.49995209990081
 30
0.0
 11
631.00051279079321
 21
-129.49999360010051
 31
0.0
  0
CIRCLE
  8
SIZE
  6
CONTINUOUS
 62
    30
 10
631.00051279079321
 20
246.49995209990081
 30
0.0
 40
6.0
  0
LINE
  8
SIZE
  6
CONTINUOUS
 62
    30
 10
631.00051279079321
 20
246.49995209990081
 30
0.0
 11
631.00051279079321
 21
234.49995209990081
 31
0.0
  0
CIRCLE
  8
SIZE
  6
CONTINUOUS
 62
    30
 10
631.00051279079321
 20
-141.49999360010051
 30
0.0
 40
6.0
  0
LINE
  8
SIZE
  6
CONTINUOUS
 62
    30
 10
631.00051279079321
 20
-141.49999360010051
 30
0.0
 11
631.00051279079321
 21
-129.49999360010051
 31
0.0
  0
TEXT
  8
SIZE
  6
CONTINUOUS
 62
    30
 10
606.00051279079321
 20
-21.557163607242909
 30
0.0
 40
64.0
  1
388
 50
90.0
 41
0.9
 72
     1
 11
606.00051279079321
 21
52.49997924989993
 31
0.0
  0
POINT
  8
DEFPOINTS
  6
CONTINUOUS
 62
    30
 10
220.4999727998985
 20
246.4999520999007
 30
0.0
  0
POINT
  8
DEFPOINTS
  6
CONTINUOUS
 62
    30
 10
220.4999727998985
 20
-141.49999360010059
 30
0.0
  0
POINT
  8
DEFPOINTS
  6
CONTINUOUS
 62
    30
 10
631.00051279079321
 20
-141.49999360010051
 30
0.0
  0
LINE
  8
SIZE
  6
CONTINUOUS
 62
    30
 10
240.49995279999999
 20
267.00002339990061
 30
0.0
 11
779.00051279078627
 21
267.00002339990061
 31
0.0
  0
LINE
  8
SIZE
  6
CONTINUOUS
 62
    30
 10
240.49995279999999
 20
-161.99996490009849
 30
0.0
 11
779.00051279078639
 21
-161.9999649000984
 31
0.0
  0
LINE
  8
SIZE
  6
CONTINUOUS
 62
    30
 10
759.00051279078627
 20
255.00002339990061
 30
0.0
 11
759.00051279078627
 21
-149.9999649000984
 31
0.0
  0
CIRCLE
  8
SIZE
  6
CONTINUOUS
 62
    30
 10
759.00051279078616
 20
267.00002339990061
 30
0.0
 40
6.0
  0
LINE
  8
SIZE
  6
CONTINUOUS
 62
    30
 10
759.00051279078616
 20
267.00002339990061
 30
0.0
 11
759.00051279078616
 21
255.00002339990061
 31
0.0
  0
CIRCLE
  8
SIZE
  6
CONTINUOUS
 62
    30
 10
759.00051279078627
 20
-161.9999649000984
 30
0.0
 40
6.0
  0
LINE
  8
SIZE
  6
CONTINUOUS
 62
    30
 10
759.00051279078627
 20
-161.9999649000984
 30
0.0
 11
759.00051279078627
 21
-149.9999649000984
 31
0.0
  0
TEXT
  8
SIZE
  6
CONTINUOUS
 62
    30
 10
734.00051279078616
 20
-20.18568503581443
 30
0.0
 40
64.0
  1
429
 50
90.0
 41
0.9
 72
     1
 11
734.00051279078616
 21
52.500029249899853
 31
0.0
  0
POINT
  8
DEFPOINTS
  6
CONTINUOUS
 62
    30
 10
220.49995279999999
 20
267.00002339990061
 30
0.0
  0
POINT
  8
DEFPOINTS
  6
CONTINUOUS
 62
    30
 10
220.49995279999999
 20
-161.99996490009849
 30
0.0
  0
POINT
  8
DEFPOINTS
  6
CONTINUOUS
 62
    30
 10
759.00051279078627
 20
-161.9999649000984
 30
0.0
  0
LINE
  8
SIZE
  6
CONTINUOUS
 62
    30
 10
-181.28616000010251
 20
263.99996999980038
 30
0.0
 11
-496.09908104225542
 21
263.99996999980038
 31
0.0
  0
LINE
  8
SIZE
  6
CONTINUOUS
 62
    30
 10
-128.28615959999939
 20
-263.99994570010102
 30
0.0
 11
-496.09908104225519
 21
-263.99994570010108
 31
0.0
  0
LINE
  8
SIZE
  6
CONTINUOUS
 62
    30
 10
-476.09908104225519
 20
251.9999699998003
 30
0.0
 11
-476.09908104225519
 21
-251.99994570010111
 31
0.0
  0
CIRCLE
  8
SIZE
  6
CONTINUOUS
 62
    30
 10
-476.09908104225519
 20
263.99996999980038
 30
0.0
 40
6.0
  0
LINE
  8
SIZE
  6
CONTINUOUS
 62
    30
 10
-476.09908104225519
 20
263.99996999980038
 30
0.0
 11
-476.09908104225519
 21
251.99996999980041
 31
0.0
  0
CIRCLE
  8
SIZE
  6
CONTINUOUS
 62
    30
 10
-476.09908104225519
 20
-263.99994570010108
 30
0.0
 40
6.0
  0
LINE
  8
SIZE
  6
CONTINUOUS
 62
    30
 10
-476.09908104225519
 20
-263.99994570010108
 30
0.0
 11
-476.09908104225519
 21
-251.99994570010111
 31
0.0
  0
TEXT
  8
SIZE
  6
CONTINUOUS
 62
    30
 10
-501.09908104225519
 20
-74.057130707293098
 30
0.0
 40
64.0
  1
528
 50
90.0
 41
0.9
 72
     1
 11
-501.09908104225519
 21
0.0000121498497436
 31
0.0
  0
POINT
  8
DEFPOINTS
  6
CONTINUOUS
 62
    30
 10
-161.28616000010251
 20
263.99996999980038
 30
0.0
  0
POINT
  8
DEFPOINTS
  6
CONTINUOUS
 62
    30
 10
-108.28615959999939
 20
-263.99994570010102
 30
0.0
  0
POINT
  8
DEFPOINTS
  6
CONTINUOUS
 62
    30
 10
-476.09908104225519
 20
-263.99994570010108
 30
0.0
  0
LINE
  8
SIZE
  6
CONTINUOUS
 62
    30
 10
240.49995279999999
 20
267.00002339990061
 30
0.0
 11
907.00051279078627
 21
267.00002339990073
 31
0.0
  0
LINE
  8
SIZE
  6
CONTINUOUS
 62
    30
 10
127.2861386001023
 20
-263.99994570010102
 30
0.0
 11
907.00051279078639
 21
-263.9999457001008
 31
0.0
  0
LINE
  8
SIZE
  6
CONTINUOUS
 62
    30
 10
887.00051279078639
 20
255.00002339990061
 30
0.0
 11
887.00051279078639
 21
-251.9999457001008
 31
0.0
  0
CIRCLE
  8
SIZE
  6
CONTINUOUS
 62
    30
 10
887.00051279078627
 20
267.00002339990061
 30
0.0
 40
6.0
  0
LINE
  8
SIZE
  6
CONTINUOUS
 62
    30
 10
887.00051279078627
 20
267.00002339990061
 30
0.0
 11
887.00051279078627
 21
255.00002339990061
 31
0.0
  0
CIRCLE
  8
SIZE
  6
CONTINUOUS
 62
    30
 10
887.00051279078639
 20
-263.99994570010091
 30
0.0
 40
6.0
  0
LINE
  8
SIZE
  6
CONTINUOUS
 62
    30
 10
887.00051279078639
 20
-263.99994570010091
 30
0.0
 11
887.00051279078639
 21
-251.99994570010091
 31
0.0
  0
TEXT
  8
SIZE
  6
CONTINUOUS
 62
    30
 10
862.00051279078616
 20
-54.714296864386981
 30
0.0
 40
64.0
  1
531
 50
90.0
 41
0.9
 72
     1
 11
862.00051279078616
 21
6.9999888498987328
 31
0.0
  0
POINT
  8
DEFPOINTS
  6
CONTINUOUS
 62
    30
 10
220.49995279999999
 20
267.00002339990061
 30
0.0
  0
POINT
  8
DEFPOINTS
  6
CONTINUOUS
 62
    30
 10
107.2861386001023
 20
-263.99994570010102
 30
0.0
  0
POINT
  8
DEFPOINTS
  6
CONTINUOUS
 62
    30
 10
887.00051279078639
 20
-263.99994570010091
 30
0.0
  0
LINE
  8
SIZE
  6
CONTINUOUS
 62
    30
 10
-128.28615959999939
 20
-263.99994570010102
 30
0.0
 11
-496.09908104224547
 21
-263.99994570010108
 31
0.0
  0
LINE
  8
SIZE
  6
CONTINUOUS
 62
    30
 10
-115.9999890001027
 20
-348.9999756999988
 30
0.0
 11
-496.09908104224547
 21
-348.99997569999891
 31
0.0
  0
LINE
  8
SIZE
  6
CONTINUOUS
 62
    30
 10
-476.09908104224547
 20
-275.99994570010108
 30
0.0
 11
-476.09908104224547
 21
-336.99997569999891
 31
0.0
  0
LINE
  8
SIZE
  6
CONTINUOUS
 62
    30
 10
-476.09908104224547
 20
-348.99997569999891
 30
0.0
 11
-476.09908104224542
 21
-517.14131855714345
 31
0.0
  0
CIRCLE
  8
SIZE
  6
CONTINUOUS
 62
    30
 10
-476.09908104224547
 20
-263.99994570010108
 30
0.0
 40
6.0
  0
LINE
  8
SIZE
  6
CONTINUOUS
 62
    30
 10
-476.09908104224547
 20
-263.99994570010108
 30
0.0
 11
-476.09908104224547
 21
-275.99994570010108
 31
0.0
  0
CIRCLE
  8
SIZE
  6
CONTINUOUS
 62
    30
 10
-476.09908104224547
 20
-348.99997569999891
 30
0.0
 40
6.0
  0
LINE
  8
SIZE
  6
CONTINUOUS
 62
    30
 10
-476.09908104224547
 20
-348.99997569999891
 30
0.0
 11
-476.09908104224547
 21
-336.99997569999891
 31
0.0
  0
TEXT
  8
SIZE
  6
CONTINUOUS
 62
    30
 10
-501.09908104224542
 20
-492.14131855714311
 30
0.0
 40
64.0
  1
85
 50
90.0
 41
0.9
 72
     1
 11
-501.09908104224542
 21
-445.51274712857162
 31
0.0
  0
POINT
  8
DEFPOINTS
  6
CONTINUOUS
 62
    30
 10
-108.28615959999939
 20
-263.99994570010102
 30
0.0
  0
POINT
  8
DEFPOINTS
  6
CONTINUOUS
 62
    30
 10
-95.999989000102715
 20
-348.9999756999988
 30
0.0
  0
POINT
  8
DEFPOINTS
  6
CONTINUOUS
 62
    30
 10
-476.09908104224547
 20
-348.99997569999891
 30
0.0
  0
LINE
  8
SIZE
  6
CONTINUOUS
 62
    30
 10
-181.28616000010251
 20
263.99996999980038
 30
0.0
 11
-496.09908104224559
 21
263.99996999980038
 31
0.0
  0
LINE
  8
SIZE
  6
CONTINUOUS
 62
    30
 10
-115.9999573971964
 20
349.00000000000011
 30
0.0
 11
-496.09908104224559
 21
349.0
 31
0.0
  0
LINE
  8
SIZE
  6
CONTINUOUS
 62
    30
 10
-476.09908104224559
 20
275.99996999980038
 30
0.0
 11
-476.09908104224559
 21
337.0
 31
0.0
  0
LINE
  8
SIZE
  6
CONTINUOUS
 62
    30
 10
-476.09908104224559
 20
349.0
 30
0.0
 11
-476.09908104224559
 21
504.25714285714292
 31
0.0
  0
CIRCLE
  8
SIZE
  6
CONTINUOUS
 62
    30
 10
-476.09908104224559
 20
263.99996999980038
 30
0.0
 40
6.0
  0
LINE
  8
SIZE
  6
CONTINUOUS
 62
    30
 10
-476.09908104224559
 20
263.99996999980038
 30
0.0
 11
-476.09908104224559
 21
275.99996999980038
 31
0.0
  0
CIRCLE
  8
SIZE
  6
CONTINUOUS
 62
    30
 10
-476.09908104224559
 20
349.0
 30
0.0
 40
6.0
  0
LINE
  8
SIZE
  6
CONTINUOUS
 62
    30
 10
-476.09908104224559
 20
349.0
 30
0.0
 11
-476.09908104224559
 21
337.0
 31
0.0
  0
TEXT
  8
SIZE
  6
CONTINUOUS
 62
    30
 10
-501.09908104224542
 20
386.00000000000023
 30
0.0
 40
64.0
  1
85
 50
90.0
 41
0.9
 72
     1
 11
-501.09908104224542
 21
432.6285714285716
 31
0.0
  0
POINT
  8
DEFPOINTS
  6
CONTINUOUS
 62
    30
 10
-161.28616000010251
 20
263.99996999980038
 30
0.0
  0
POINT
  8
DEFPOINTS
  6
CONTINUOUS
 62
    30
 10
-95.999957397196354
 20
349.00000000000011
 30
0.0
  0
POINT
  8
DEFPOINTS
  6
CONTINUOUS
 62
    30
 10
-476.09908104224559
 20
349.0
 30
0.0
  0
LINE
  8
SIZE
  6
CONTINUOUS
 62
    30
 10
-181.28616000010251
 20
263.99996999980038
 30
0.0
 11
-368.09908104226457
 21
263.99996999980038
 31
0.0
  0
LINE
  8
SIZE
  6
CONTINUOUS
 62
    30
 10
-181.28616000010251
 20
-159.00001150000011
 30
0.0
 11
-368.09908104226452
 21
-159.00001150000011
 31
0.0
  0
LINE
  8
SIZE
  6
CONTINUOUS
 62
    30
 10
-348.09908104226457
 20
251.9999699998003
 30
0.0
 11
-348.09908104226452
 21
-147.00001150000011
 31
0.0
  0
CIRCLE
  8
SIZE
  6
CONTINUOUS
 62
    30
 10
-348.09908104226457
 20
263.99996999980038
 30
0.0
 40
6.0
  0
LINE
  8
SIZE
  6
CONTINUOUS
 62
    30
 10
-348.09908104226457
 20
263.99996999980038
 30
0.0
 11
-348.09908104226457
 21
251.99996999980041
 31
0.0
  0
CIRCLE
  8
SIZE
  6
CONTINUOUS
 62
    30
 10
-348.09908104226452
 20
-159.00001150000011
 30
0.0
 40
6.0
  0
LINE
  8
SIZE
  6
CONTINUOUS
 62
    30
 10
-348.09908104226452
 20
-159.00001150000011
 30
0.0
 11
-348.09908104226452
 21
-147.00001150000011
 31
0.0
  0
TEXT
  8
SIZE
  6
CONTINUOUS
 62
    30
 10
-373.09908104226452
 20
-21.55716360724411
 30
0.0
 40
64.0
  1
423
 50
90.0
 41
0.9
 72
     1
 11
-373.09908104226452
 21
52.499979249898729
 31
0.0
  0
POINT
  8
DEFPOINTS
  6
CONTINUOUS
 62
    30
 10
-161.28616000010251
 20
263.99996999980038
 30
0.0
  0
POINT
  8
DEFPOINTS
  6
CONTINUOUS
 62
    30
 10
-161.28616000010251
 20
-159.00001150000011
 30
0.0
  0
POINT
  8
DEFPOINTS
  6
CONTINUOUS
 62
    30
 10
-348.09908104226452
 20
-159.00001150000011
 30
0.0
  0
LINE
  8
SIZE
  6
CONTINUOUS
 62
    30
 10
-162.29771900000009
 20
-176.97689350019911
 30
0.0
 11
-162.2977190000002
 21
-608.27307521853527
 31
0.0
  0
LINE
  8
SIZE
  6
CONTINUOUS
 62
    30
 10
-225.29772574989869
 20
-108.8990388670406
 30
0.0
 11
-225.2977257498988
 21
-608.27307521853527
 31
0.0
  0
LINE
  8
SIZE
  6
CONTINUOUS
 62
    30
 10
-150.2977190000002
 20
-588.27307521853527
 30
0.0
 11
-138.2977190000002
 21
-588.27307521853527
 31
0.0
  0
LINE
  8
SIZE
  6
CONTINUOUS
 62
    30
 10
-237.2977257498988
 20
-588.27307521853527
 30
0.0
 11
-392.55486860704173
 21
-588.27307521853527
 31
0.0
  0
LINE
  8
SIZE
  6
CONTINUOUS
 62
    30
 10
-162.2977190000002
 20
-588.27307521853527
 30
0.0
 11
-225.2977257498988
 21
-588.27307521853527
 31
0.0
  0
CIRCLE
  8
SIZE
  6
CONTINUOUS
 62
    30
 10
-162.2977190000002
 20
-588.27307521853527
 30
0.0
 40
6.0
  0
LINE
  8
SIZE
  6
CONTINUOUS
 62
    30
 10
-162.2977190000002
 20
-588.27307521853527
 30
0.0
 11
-150.2977190000002
 21
-588.27307521853527
 31
0.0
  0
CIRCLE
  8
SIZE
  6
CONTINUOUS
 62
    30
 10
-225.2977257498988
 20
-588.27307521853527
 30
0.0
 40
6.0
  0
LINE
  8
SIZE
  6
CONTINUOUS
 62
    30
 10
-225.2977257498988
 20
-588.27307521853527
 30
0.0
 11
-237.2977257498988
 21
-588.27307521853527
 31
0.0
  0
TEXT
  8
SIZE
  6
CONTINUOUS
 62
    30
 10
-367.55486860704161
 20
-563.27307521853527
 30
0.0
 40
64.0
  1
63
 41
0.9
 72
     1
 11
-320.92629717847018
 21
-563.27307521853527
 31
0.0
  0
POINT
  8
DEFPOINTS
  6
CONTINUOUS
 62
    30
 10
-162.29771900000009
 20
-156.97689350019911
 30
0.0
  0
POINT
  8
DEFPOINTS
  6
CONTINUOUS
 62
    30
 10
-225.29772574989869
 20
-88.89903886704063
 30
0.0
  0
POINT
  8
DEFPOINTS
  6
CONTINUOUS
 62
    30
 10
-225.2977257498988
 20
-588.27307521853527
 30
0.0
  0
LINE
  8
DETAIL
  6
CONTINUOUS
 62
     5
 10
-137.9264954610571
 20
-160.68493820020021
 30
0.0
 11
-137.92649546105801
 21
-161.99996871587251
 31
0.0
  0
LINE
  8
BASIS
  6
DASHDOT
 62
     6
 10
0.0
 20
379.2602136656119
 30
0.0
 11
0.0
 21
-409.42602730767783
 31
0.0
  0
LINE
  8
BASIS
  6
DASHDOT
 62
     6
 10
-246.09811114241529
 20
0.0
 30
0.0
 11
246.09811114241529
 21
0.0
 31
0.0
  0
LINE
  8
BASIS
  6
DASHDOT
 62
     6
 10
200.49997279990021
 20
-121.4999936001005
 30
0.0
 11
200.49997279990021
 21
-161.49999360010051
 31
0.0
  0
CIRCLE
  8
FIX
  6
CONTINUOUS
 62
    11
 10
200.49997279990021
 20
-141.49999360010051
 30
0.0
 40
5.5
  0
CIRCLE
  8
FIX
  6
CONTINUOUS
 62
    11
 10
200.49997279990021
 20
246.49995209990061
 30
0.0
 40
5.5
  0
CIRCLE
  8
FIX
  6
CONTINUOUS
 62
    11
 10
-200.49997279989839
 20
246.49995209990061
 30
0.0
 40
5.5
  0
CIRCLE
  8
FIX
  6
CONTINUOUS
 62
    11
 10
-200.49997279989839
 20
-141.49999360010051
 30
0.0
 40
5.5
  0
LINE
  8
OUTLINE
  6
CONTINUOUS
 62
     3
 10
-95.999957397194521
 20
349.0
 30
0.0
 11
95.999757397195935
 21
349.0
 31
0.0
  0
LINE
  8
OUTLINE
  6
CONTINUOUS
 62
     3
 10
-220.4999527999997
 20
267.00002339990061
 30
0.0
 11
-137.34804901347979
 21
267.00002339990061
 31
0.0
  0
LINE
  8
OUTLINE
  6
CONTINUOUS
 62
     3
 10
138.2554490131788
 20
267.00002339990061
 30
0.0
 11
220.49995280000081
 21
267.00002339990061
 31
0.0
  0
LINE
  8
OUTLINE
  6
CONTINUOUS
 62
     3
 10
-136.73387508127871
 20
265.98846440000011
 30
0.0
 11
-134.6821528888668
 21
265.98846440000011
 31
0.0
  0
LINE
  8
OUTLINE
  6
CONTINUOUS
 62
     3
 10
135.58955288886861
 20
265.98846440000011
 30
0.0
 11
137.64127508128061
 21
265.98846440000011
 31
0.0
  0
LINE
  8
OUTLINE
  6
CONTINUOUS
 62
     3
 10
-114.11560999696481
 20
264.60690539979942
 30
0.0
 11
-104.6069554000987
 21
264.60690539979942
 31
0.0
  0
LINE
  8
OUTLINE
  6
CONTINUOUS
 62
     3
 10
104.60695540009969
 20
264.60690539979942
 30
0.0
 11
114.1156099969667
 21
264.60690539979942
 31
0.0
  0
LINE
  8
OUTLINE
  6
CONTINUOUS
 62
     3
 10
128.00286580000099
 20
264.02525897500118
 30
0.0
 11
135.58955830000099
 21
264.02525897500118
 31
0.0
  0
LINE
  8
OUTLINE
  6
CONTINUOUS
 62
     3
 10
-134.6821582999992
 20
263.99996999980021
 30
0.0
 11
-114.1156099999998
 21
263.99996999980021
 31
0.0
  0
LINE
  8
OUTLINE
  6
CONTINUOUS
 62
     3
 10
114.1156100000007
 20
263.99996999980021
 30
0.0
 11
128.00286580000099
 21
263.99996999980038
 31
0.0
  0
LINE
  8
OUTLINE
  6
CONTINUOUS
 62
     3
 10
-137.2923399186175
 20
266.99271256378847
 30
0.0
 11
-137.34804901347979
 21
267.00002339990061
 31
0.0
  0
LINE
  8
OUTLINE
  6
CONTINUOUS
 62
     3
 10
-137.23371868670799
 20
266.97021230804847
 30
0.0
 11
-137.2923399186175
 21
266.99271256378847
 31
0.0
  0
LINE
  8
OUTLINE
  6
CONTINUOUS
 62
     3
 10
-137.17218531835991
 20
266.93177638527658
 30
0.0
 11
-137.23371868670799
 21
266.97021230804847
 31
0.0
  0
LINE
  8
OUTLINE
  6
CONTINUOUS
 62
     3
 10
-162.5000308001008
 20
226.49990439980041
 30
0.0
 11
-194.93639829999941
 21
226.49990439980041
 31
0.0
  0
LINE
  8
OUTLINE
  6
CONTINUOUS
 62
     3
 10
-206.06354730010031
 20
226.49990439980041
 30
0.0
 11
-220.4999527999997
 21
226.49990439980041
 31
0.0
  0
LINE
  8
OUTLINE
  6
CONTINUOUS
 62
     3
 10
162.50003080010259
 20
226.49990439980041
 30
0.0
 11
194.9363983000012
 21
226.49990439980041
 31
0.0
  0
LINE
  8
OUTLINE
  6
CONTINUOUS
 62
     3
 10
206.0635473001021
 20
226.49990439980041
 30
0.0
 11
220.49995280000081
 21
226.49990439980041
 31
0.0
  0
LINE
  8
OUTLINE
  6
CONTINUOUS
 62
     3
 10
-137.10773981266269
 20
266.87682284942531
 30
0.0
 11
-137.17218531835991
 21
266.93177638527658
 31
0.0
  0
LINE
  8
OUTLINE
  6
CONTINUOUS
 62
     3
 10
138.19973991861929
 20
266.99271256378847
 30
0.0
 11
138.2554490131788
 21
267.00002339990061
 31
0.0
  0
LINE
  8
OUTLINE
  6
CONTINUOUS
 62
     3
 10
-162.5000308001008
 20
197.4393877998987
 30
0.0
 11
-161.28616000010061
 21
197.4393877998987
 31
0.0
  0
LINE
  8
OUTLINE
  6
CONTINUOUS
 62
     3
 10
-161.28616000010061
 20
195.21395799999971
 30
0.0
 11
-163.10696620010091
 21
195.21395799999971
 31
0.0
  0
LINE
  8
OUTLINE
  6
CONTINUOUS
 62
     3
 10
-137.0620822851179
 20
266.80670260819772
 30
0.0
 11
-137.10773981266269
 21
266.87682284942531
 31
0.0
  0
LINE
  8
OUTLINE
  6
CONTINUOUS
 62
     3
 10
137.9694822851188
 20
-161.8066441083993
 30
0.0
 11
138.01513981266359
 21
-161.87676434962489
 31
0.0
  0
LINE
  8
OUTLINE
  6
CONTINUOUS
 62
     3
 10
137.9253450424421
 20
-161.72372436068511
 30
0.0
 11
137.9694822851188
 21
-161.8066441083993
 31
0.0
  0
LINE
  8
OUTLINE
  6
CONTINUOUS
 62
     3
 10
137.88272808402689
 20
-161.62961085634919
 30
0.0
 11
137.9253450424421
 21
-161.72372436068511
 31
0.0
  0
LINE
  8
OUTLINE
  6
CONTINUOUS
 62
     3
 10
137.84163141047881
 20
-161.52591886565281
 30
0.0
 11
137.88272808402689
 21
-161.62961085634919
 31
0.0
  0
LINE
  8
OUTLINE
  6
CONTINUOUS
 62
     3
 10
137.64127508128061
 20
-160.98840590020151
 30
0.0
 11
137.79184968405929
 21
-161.39139500880631
 31
0.0
  0
LINE
  8
OUTLINE
  6
CONTINUOUS
 62
     3
 10
137.79184968405929
 20
-161.39139500880631
 30
0.0
 11
137.84163141047881
 21
-161.52591886565281
 31
0.0
  0
LINE
  8
OUTLINE
  6
CONTINUOUS
 62
     3
 10
138.01513981266359
 20
-161.87676434962489
 30
0.0
 11
138.07958531805801
 21
-161.93171788547809
 31
0.0
  0
LINE
  8
OUTLINE
  6
CONTINUOUS
 62
     3
 10
-137.0179450424412
 20
266.72378286048558
 30
0.0
 11
-137.0620822851179
 21
266.80670260819772
 31
0.0
  0
LINE
  8
OUTLINE
  6
CONTINUOUS
 62
     3
 10
-136.9753280840259
 20
266.62966935614958
 30
0.0
 11
-137.0179450424412
 21
266.72378286048558
 31
0.0
  0
LINE
  8
OUTLINE
  6
CONTINUOUS
 62
     3
 10
-136.93423141047791
 20
266.52597736545499
 30
0.0
 11
-136.9753280840259
 21
266.62966935614958
 31
0.0
  0
LINE
  8
OUTLINE
  6
CONTINUOUS
 62
     3
 10
-136.73387508127871
 20
265.98846440000011
 30
0.0
 11
-136.8844496840575
 21
266.39145350860298
 31
0.0
  0
LINE
  8
OUTLINE
  6
CONTINUOUS
 62
     3
 10
-136.8844496840575
 20
266.39145350860298
 30
0.0
 11
-136.93423141047791
 21
266.52597736545499
 31
0.0
  0
LINE
  8
OUTLINE
  6
CONTINUOUS
 62
     3
 10
138.1411186867108
 20
266.97021230804847
 30
0.0
 11
138.19973991861929
 21
266.99271256378847
 31
0.0
  0
LINE
  8
OUTLINE
  6
CONTINUOUS
 62
     3
 10
-164.77603855010059
 20
25.811751732959461
 30
0.0
 11
-165.5852857498985
 21
25.811751732959461
 31
0.0
  0
LINE
  8
OUTLINE
  6
CONTINUOUS
 62
     3
 10
-223.67923135000001
 20
1.3320239328570549
 30
0.0
 11
-165.5852857498985
 21
1.3320239328570549
 31
0.0
  0
LINE
  8
OUTLINE
  6
CONTINUOUS
 62
     3
 10
-164.77603855009971
 20
1.3320239328570549
 30
0.0
 11
-163.1069662001
 21
1.3320239328570549
 31
0.0
  0
LINE
  8
OUTLINE
  6
CONTINUOUS
 62
     3
 10
138.07958531805801
 20
-161.93171788547809
 30
0.0
 11
138.14111868670989
 21
-161.97015380824999
 31
0.0
  0
LINE
  8
OUTLINE
  6
CONTINUOUS
 62
     3
 10
138.14111868670989
 20
-161.97015380824999
 30
0.0
 11
138.19973991861841
 21
-161.99265406398811
 31
0.0
  0
LINE
  8
OUTLINE
  6
CONTINUOUS
 62
     3
 10
138.07958531805889
 20
266.93177638527658
 30
0.0
 11
138.1411186867108
 21
266.97021230804847
 31
0.0
  0
LINE
  8
OUTLINE
  6
CONTINUOUS
 62
     3
 10
-162.29771900000009
 20
-91.326780467041075
 30
0.0
 11
-164.77603855010059
 21
-91.326780467041075
 31
0.0
  0
LINE
  8
OUTLINE
  6
CONTINUOUS
 62
     3
 10
-165.58528574989759
 20
-91.326780467041075
 30
0.0
 11
-223.67923135000001
 21
-91.326780467041075
 31
0.0
  0
LINE
  8
OUTLINE
  6
CONTINUOUS
 62
     3
 10
-165.5852857498985
 20
-105.6909182669403
 30
0.0
 11
-164.77603855010059
 21
-105.6909182669403
 31
0.0
  0
LINE
  8
OUTLINE
  6
CONTINUOUS
 62
     3
 10
-162.29771900000009
 20
-121.49994589999839
 30
0.0
 11
-194.93639830000029
 21
-121.49994589999839
 31
0.0
  0
LINE
  8
OUTLINE
  6
CONTINUOUS
 62
     3
 10
-206.06354730010031
 20
-121.49994589999839
 30
0.0
 11
-220.4999527999997
 21
-121.49994589999839
 31
0.0
  0
LINE
  8
OUTLINE
  6
CONTINUOUS
 62
     3
 10
162.50003080010171
 20
-121.49994589999839
 30
0.0
 11
194.9363983000012
 21
-121.49994589999839
 31
0.0
  0
LINE
  8
OUTLINE
  6
CONTINUOUS
 62
     3
 10
206.0635473001021
 20
-121.49994589999839
 30
0.0
 11
220.49995280000081
 21
-121.49994589999839
 31
0.0
  0
LINE
  8
OUTLINE
  6
CONTINUOUS
 62
     3
 10
138.19973991861841
 20
-161.99265406398811
 30
0.0
 11
138.25544901317789
 21
-161.99996490009829
 31
0.0
  0
LINE
  8
OUTLINE
  6
CONTINUOUS
 62
     3
 10
138.01513981266359
 20
266.87682284942531
 30
0.0
 11
138.07958531805889
 21
266.93177638527658
 31
0.0
  0
LINE
  8
OUTLINE
  6
CONTINUOUS
 62
     3
 10
122.0548999999
 20
-159.00001150000031
 30
0.0
 11
135.58955830000011
 21
-159.0000115
 31
0.0
  0
LINE
  8
OUTLINE
  6
CONTINUOUS
 62
     3
 10
122.0548999999
 20
-160.17915870010069
 30
0.0
 11
108.5000094001016
 21
-160.17915870010069
 31
0.0
  0
LINE
  8
OUTLINE
  6
CONTINUOUS
 62
     3
 10
-109.5000303999996
 20
-160.17915870010069
 30
0.0
 11
-111.5231484001006
 21
-160.17915870010069
 31
0.0
  0
LINE
  8
OUTLINE
  6
CONTINUOUS
 62
     3
 10
-137.9264954610571
 20
-160.68493820020009
 30
0.0
 11
-111.5231484001006
 21
-160.68493820020009
 31
0.0
  0
LINE
  8
OUTLINE
  6
CONTINUOUS
 62
     3
 10
135.58955288886861
 20
-160.98840590020151
 30
0.0
 11
137.64127508128061
 21
-160.98840590020151
 31
0.0
  0
LINE
  8
OUTLINE
  6
CONTINUOUS
 62
     3
 10
-220.4999527999997
 20
-161.99996490009829
 30
0.0
 11
-137.92649323769999
 21
-161.99996490009829
 31
0.0
  0
LINE
  8
OUTLINE
  6
CONTINUOUS
 62
     3
 10
138.25544901317789
 20
-161.99996490009829
 30
0.0
 11
220.49995280000081
 21
-161.99996490009829
 31
0.0
  0
LINE
  8
OUTLINE
  6
CONTINUOUS
 62
     3
 10
-108.28615959999929
 20
-263.99994570010091
 30
0.0
 11
-108.1824136428841
 21
-263.99994570010062
 31
0.0
  0
LINE
  8
OUTLINE
  6
CONTINUOUS
 62
     3
 10
105.8699560000005
 20
-263.99994570010062
 30
0.0
 11
107.2861386001023
 21
-263.99994570010091
 31
0.0
  0
LINE
  8
OUTLINE
  6
CONTINUOUS
 62
     3
 10
-108.0462560000005
 20
-264.02523467499799
 30
0.0
 11
-108.1824136428841
 21
-264.02523467499799
 31
0.0
  0
LINE
  8
OUTLINE
  6
CONTINUOUS
 62
     3
 10
105.8699560000005
 20
-264.60688110010011
 30
0.0
 11
104.6069554001015
 21
-264.60688110010028
 31
0.0
  0
LINE
  8
OUTLINE
  6
CONTINUOUS
 62
     3
 10
-104.6069554001015
 20
-264.60688110010028
 30
0.0
 11
-108.0462560000005
 21
-264.60688110010011
 31
0.0
  0
LINE
  8
OUTLINE
  6
CONTINUOUS
 62
     3
 10
-225.29772574989869
 20
-88.89903886704063
 30
0.0
 11
-225.29772574989869
 21
-1.0957176671433899
 31
0.0
  0
LINE
  8
OUTLINE
  6
CONTINUOUS
 62
     3
 10
-223.67923135000001
 20
-91.326780467041075
 30
0.0
 11
-223.67923135000001
 21
-90.517533266939367
 31
0.0
  0
LINE
  8
OUTLINE
  6
CONTINUOUS
 62
     3
 10
-223.67923135000001
 20
1.3320239328570549
 30
0.0
 11
-223.67923135000001
 21
0.5227767327553465
 31
0.0
  0
LINE
  8
OUTLINE
  6
CONTINUOUS
 62
     3
 10
-220.4999527999997
 20
267.00002339990061
 30
0.0
 11
-220.4999527999997
 21
226.49990439980041
 31
0.0
  0
LINE
  8
OUTLINE
  6
CONTINUOUS
 62
     3
 10
-220.4999527999997
 20
-121.49994589999839
 30
0.0
 11
-220.4999527999997
 21
-161.99996490009829
 31
0.0
  0
LINE
  8
OUTLINE
  6
CONTINUOUS
 62
     3
 10
137.96948228511971
 20
266.80670260819772
 30
0.0
 11
138.01513981266359
 21
266.87682284942531
 31
0.0
  0
LINE
  8
OUTLINE
  6
CONTINUOUS
 62
     3
 10
95.999989000102687
 20
-348.99997569999869
 30
0.0
 11
-95.999989000101763
 21
-348.99997569999869
 31
0.0
  0
LINE
  8
OUTLINE
  6
CONTINUOUS
 62
     3
 10
-206.06354730010031
 20
226.49990439980041
 30
0.0
 11
-206.06354730010031
 21
246.49995209990061
 31
0.0
  0
LINE
  8
OUTLINE
  6
CONTINUOUS
 62
     3
 10
-206.06354730010031
 20
-121.49994589999839
 30
0.0
 11
-206.06354730010031
 21
-141.49999360010071
 31
0.0
  0
LINE
  8
OUTLINE
  6
CONTINUOUS
 62
     3
 10
-194.93639829999941
 20
226.49990439980041
 30
0.0
 11
-194.93639829999941
 21
246.49995209990061
 31
0.0
  0
LINE
  8
OUTLINE
  6
CONTINUOUS
 62
     3
 10
-194.93639830000029
 20
-121.49994589999839
 30
0.0
 11
-194.93639830000029
 21
-141.49999360010071
 31
0.0
  0
LINE
  8
OUTLINE
  6
CONTINUOUS
 62
     3
 10
-165.5852857498985
 20
-105.6909182669403
 30
0.0
 11
-165.5852857498985
 21
-91.326780467040862
 31
0.0
  0
LINE
  8
OUTLINE
  6
CONTINUOUS
 62
     3
 10
-165.5852857498985
 20
1.3320239328570549
 30
0.0
 11
-165.5852857498985
 21
25.811751732959461
 31
0.0
  0
LINE
  8
OUTLINE
  6
CONTINUOUS
 62
     3
 10
-164.77603855010059
 20
25.811751732959461
 30
0.0
 11
-164.7760385501015
 21
1.3320239328570549
 31
0.0
  0
LINE
  8
OUTLINE
  6
CONTINUOUS
 62
     3
 10
-164.77603855010059
 20
-91.326780467041317
 30
0.0
 11
-164.77603855010059
 21
-105.6909182669403
 31
0.0
  0
LINE
  8
OUTLINE
  6
CONTINUOUS
 62
     3
 10
-163.10696620010091
 20
195.21395799999971
 30
0.0
 11
-163.10696620010091
 21
1.3320239328570549
 31
0.0
  0
LINE
  8
OUTLINE
  6
CONTINUOUS
 62
     3
 10
-162.5000308001008
 20
226.49990439980041
 30
0.0
 11
-162.5000308001008
 21
197.4393877998987
 31
0.0
  0
LINE
  8
OUTLINE
  6
CONTINUOUS
 62
     3
 10
-162.29771900000009
 20
-91.326780467041075
 30
0.0
 11
-162.29771900000009
 21
-121.49994589999839
 31
0.0
  0
LINE
  8
OUTLINE
  6
CONTINUOUS
 62
     3
 10
-161.28616000010061
 20
197.4393877998987
 30
0.0
 11
-161.28616000010061
 21
195.21395799999971
 31
0.0
  0
LINE
  8
OUTLINE
  6
CONTINUOUS
 62
     3
 10
-104.00002000010041
 20
272.46244199990048
 30
0.0
 11
-96.000189000101287
 21
340.90752799989968
 31
0.0
  0
LINE
  8
OUTLINE
  6
CONTINUOUS
 62
     3
 10
137.92534504244301
 20
266.72378286048558
 30
0.0
 11
137.96948228511971
 21
266.80670260819772
 31
0.0
  0
LINE
  8
OUTLINE
  6
CONTINUOUS
 62
     3
 10
-95.999989000101763
 20
-340.90750370020032
 30
0.0
 11
-104.0000200001014
 21
-272.09241770020122
 31
0.0
  0
LINE
  8
OUTLINE
  6
CONTINUOUS
 62
     3
 10
-134.6821582999992
 20
263.99996999980021
 30
0.0
 11
-134.6821582999992
 21
265.98846440000011
 31
0.0
  0
LINE
  8
OUTLINE
  6
CONTINUOUS
 62
     3
 10
-111.5231484001006
 20
-160.17915870010069
 30
0.0
 11
-111.5231484001006
 21
-160.68493820020009
 31
0.0
  0
LINE
  8
OUTLINE
  6
CONTINUOUS
 62
     3
 10
-109.5000303999996
 20
-262.78607490009881
 30
0.0
 11
-109.5000303999996
 21
-160.179158700101
 31
0.0
  0
LINE
  8
OUTLINE
  6
CONTINUOUS
 62
     3
 10
-108.1824136428841
 20
-263.99994570010091
 30
0.0
 11
-108.1824136428841
 21
-264.02523467499799
 31
0.0
  0
LINE
  8
OUTLINE
  6
CONTINUOUS
 62
     3
 10
-114.1156099999998
 20
264.60690539979942
 30
0.0
 11
-114.1156099999998
 21
263.99996999980021
 31
0.0
  0
LINE
  8
OUTLINE
  6
CONTINUOUS
 62
     3
 10
-108.0462560000005
 20
-264.60688110010011
 30
0.0
 11
-108.0462560000005
 21
-264.02523467499827
 31
0.0
  0
LINE
  8
OUTLINE
  6
CONTINUOUS
 62
     3
 10
-104.0000200001014
 20
-272.09241770020122
 30
0.0
 11
-104.0000200001014
 21
-265.21381650009931
 31
0.0
  0
LINE
  8
OUTLINE
  6
CONTINUOUS
 62
     3
 10
-104.00002000010041
 20
265.58384079979868
 30
0.0
 11
-104.00002000010041
 21
272.46244199990048
 31
0.0
  0
LINE
  8
OUTLINE
  6
CONTINUOUS
 62
     3
 10
-95.999989000101763
 20
-348.99997569999869
 30
0.0
 11
-95.999989000101763
 21
-340.90750370020032
 31
0.0
  0
LINE
  8
OUTLINE
  6
CONTINUOUS
 62
     3
 10
-96.000189000101287
 20
340.90752799989968
 30
0.0
 11
-96.000189000101287
 21
349.0
 31
0.0
  0
LINE
  8
OUTLINE
  6
CONTINUOUS
 62
     3
 10
137.69167151946019
 20
266.12269702588009
 30
0.0
 11
137.84163141047881
 21
266.52597736545499
 31
0.0
  0
LINE
  8
OUTLINE
  6
CONTINUOUS
 62
     3
 10
137.64127508128061
 20
265.98846440000011
 30
0.0
 11
137.69167151946019
 21
266.12269702588009
 31
0.0
  0
LINE
  8
OUTLINE
  6
CONTINUOUS
 62
     3
 10
137.84163141047881
 20
266.52597736545499
 30
0.0
 11
137.88272808402689
 21
266.62966935614958
 31
0.0
  0
LINE
  8
OUTLINE
  6
CONTINUOUS
 62
     3
 10
137.88272808402689
 20
266.62966935614958
 30
0.0
 11
137.92534504244301
 21
266.72378286048558
 31
0.0
  0
LINE
  8
OUTLINE
  6
CONTINUOUS
 62
     3
 10
95.999989000102687
 20
-348.99997569999869
 30
0.0
 11
95.999989000102687
 21
-340.90750370020032
 31
0.0
  0
LINE
  8
OUTLINE
  6
CONTINUOUS
 62
     3
 10
95.999989000102687
 20
340.90752799989968
 30
0.0
 11
95.999989000102687
 21
349.0
 31
0.0
  0
LINE
  8
OUTLINE
  6
CONTINUOUS
 62
     3
 10
104.0000200001023
 20
-272.09241770020122
 30
0.0
 11
104.0000200001023
 21
-265.21381650009931
 31
0.0
  0
LINE
  8
OUTLINE
  6
CONTINUOUS
 62
     3
 10
104.0000200001023
 20
265.58384079979868
 30
0.0
 11
104.0000200001023
 21
272.46244199990048
 31
0.0
  0
LINE
  8
OUTLINE
  6
CONTINUOUS
 62
     3
 10
105.8699560000005
 20
-264.60688110010011
 30
0.0
 11
105.8699560000005
 21
-263.99994570010091
 31
0.0
  0
LINE
  8
OUTLINE
  6
CONTINUOUS
 62
     3
 10
108.5000094001016
 20
-160.17915870010069
 30
0.0
 11
108.5000094001016
 21
-262.78607490009881
 31
0.0
  0
LINE
  8
OUTLINE
  6
CONTINUOUS
 62
     3
 10
114.1156100000007
 20
264.60690539979942
 30
0.0
 11
114.1156100000007
 21
263.99996999980021
 31
0.0
  0
LINE
  8
OUTLINE
  6
CONTINUOUS
 62
     3
 10
122.0548999999
 20
-160.17915870010069
 30
0.0
 11
122.0548999999
 21
-159.0000115
 31
0.0
  0
LINE
  8
OUTLINE
  6
CONTINUOUS
 62
     3
 10
95.999989000102687
 20
-340.90750370020032
 30
0.0
 11
104.0000200001023
 21
-272.09241770020122
 31
0.0
  0
LINE
  8
OUTLINE
  6
CONTINUOUS
 62
     3
 10
104.0000200001023
 20
272.46244199990048
 30
0.0
 11
95.999989000102687
 21
340.90752799989968
 31
0.0
  0
LINE
  8
OUTLINE
  6
CONTINUOUS
 62
     3
 10
128.00286580000099
 20
263.99996999980021
 30
0.0
 11
128.00286580000099
 21
264.02525897500118
 31
0.0
  0
LINE
  8
OUTLINE
  6
CONTINUOUS
 62
     3
 10
135.58955830000099
 20
265.98846440000011
 30
0.0
 11
135.58955830000201
 21
264.02525897500101
 31
0.0
  0
LINE
  8
OUTLINE
  6
CONTINUOUS
 62
     3
 10
135.58955830000099
 20
-159.0000115
 30
0.0
 11
135.58955830000099
 21
-160.98840590020151
 31
0.0
  0
LINE
  8
OUTLINE
  6
CONTINUOUS
 62
     3
 10
162.50003080010259
 20
-121.4999458999981
 30
0.0
 11
162.50003080010259
 21
226.49990439980041
 31
0.0
  0
LINE
  8
OUTLINE
  6
CONTINUOUS
 62
     3
 10
194.9363983000012
 20
226.49990439980041
 30
0.0
 11
194.9363983000012
 21
246.49995209990061
 31
0.0
  0
LINE
  8
OUTLINE
  6
CONTINUOUS
 62
     3
 10
194.9363983000012
 20
-121.49994589999839
 30
0.0
 11
194.9363983000012
 21
-141.49999360010071
 31
0.0
  0
LINE
  8
OUTLINE
  6
CONTINUOUS
 62
     3
 10
206.0635473001021
 20
226.49990439980041
 30
0.0
 11
206.0635473001021
 21
246.49995209990061
 31
0.0
  0
LINE
  8
OUTLINE
  6
CONTINUOUS
 62
     3
 10
206.0635473001021
 20
-121.49994589999839
 30
0.0
 11
206.0635473001021
 21
-141.49999360010071
 31
0.0
  0
LINE
  8
OUTLINE
  6
CONTINUOUS
 62
     3
 10
220.49995280000081
 20
267.00002339990061
 30
0.0
 11
220.49995280000081
 21
226.49990439980041
 31
0.0
  0
LINE
  8
OUTLINE
  6
CONTINUOUS
 62
     3
 10
220.49995280000081
 20
-121.49994589999839
 30
0.0
 11
220.49995280000081
 21
-161.99996490009829
 31
0.0
  0
ARC
  8
OUTLINE
  6
CONTINUOUS
 62
     3
 10
-200.49997279989839
 20
246.49995209990061
 30
0.0
 40
5.5635744998988441
 50
0.0
 51
180.0
  0
ARC
  8
OUTLINE
  6
CONTINUOUS
 62
     3
 10
-223.67923135000001
 20
-1.0957176671433899
 30
0.0
 40
1.6184943998988439
 50
90.0
 51
180.0
  0
ARC
  8
OUTLINE
  6
CONTINUOUS
 62
     3
 10
-105.01806027689599
 20
265.53931176015038
 30
0.0
 40
1.01901366062944
 50
293.79303803846892
 51
2.5045186412155052
  0
ARC
  8
OUTLINE
  6
CONTINUOUS
 62
     3
 10
200.49997279990021
 20
246.49995209990061
 30
0.0
 40
5.5635744998988441
 50
0.0
 51
180.0
  0
ARC
  8
OUTLINE
  6
CONTINUOUS
 62
     3
 10
105.0180602768978
 20
265.53931176015038
 30
0.0
 40
1.019013660629702
 50
177.4954813587845
 51
246.20696196153111
  0
ARC
  8
OUTLINE
  6
CONTINUOUS
 62
     3
 10
-200.49997279989839
 20
-141.49999360010071
 30
0.0
 40
5.5635744998988441
 50
180.0
 51
0.0
  0
ARC
  8
OUTLINE
  6
CONTINUOUS
 62
     3
 10
-223.67923135000001
 20
-88.89903886704063
 30
0.0
 40
1.6184943998988439
 50
180.0
 51
270.0
  0
ARC
  8
OUTLINE
  6
CONTINUOUS
 62
     3
 10
-108.28615959999929
 20
-262.78607490009881
 30
0.0
 40
1.2138708
 50
180.0
 51
270.0
  0
ARC
  8
OUTLINE
  6
CONTINUOUS
 62
     3
 10
-104.6069554001015
 20
-265.21381650009931
 30
0.0
 40
0.6069354
 50
0.0
 51
90.0
  0
ARC
  8
OUTLINE
  6
CONTINUOUS
 62
     3
 10
200.49997279990021
 20
-141.49999360010071
 30
0.0
 40
5.5635744998988441
 50
180.0
 51
0.0
  0
ARC
  8
OUTLINE
  6
CONTINUOUS
 62
     3
 10
107.2861386001023
 20
-262.78607490009881
 30
0.0
 40
1.2138708
 50
270.0
 51
0.0
  0
ARC
  8
OUTLINE
  6
CONTINUOUS
 62
     3
 10
104.6069554001015
 20
-265.21381650009931
 30
0.0
 40
0.6069354
 50
90.0
 51
180.0
  0
LINE
  8
OUTLINE
  6
CONTINUOUS
 62
     3
 10
-137.9264954610571
 20
-160.68493820020029
 30
0.0
 11
-137.92649546105801
 21
-161.99996871587251
 31
0.0
  0
TEXT
  8
NOTE
  6
CONTINUOUS
 62
     4
 10
-66.04940588986301
 20
-436.73041735310318
 30
0.0
 40
64.0
  1
DA1
 41
0.9
  0
TEXT
  8
NOTE
  6
CONTINUOUS
 62
     4
 10
-72.529020167145973
 20
385.3485348657257
 30
0.0
 40
64.0
  1
DA2
 41
0.9
  0
TEXT
  8
ETC
  6
CONTINUOUS
 62
    61
 10
446.77685894819842
 20
992.50003694608642
 30
0.0
 40
64.0
  1
BFS-50SSUA2_1
 41
0.9
  0
TEXT
  8
ETC
  6
CONTINUOUS
 62
    61
 10
442.59086494819883
 20
874.54472693125501
 30
0.0
 40
64.0
  1
産業扇
 41
0.9
  0
TEXT
  8
ETC
  6
CONTINUOUS
 62
    61
 10
493.29226319675399
 20
766.39595404502973
 30
0.0
 40
40.0
  1
BFS-50SSUA2
 41
0.9
  0
POINT
  8
ARRANGE
  6
CONTINUOUS
 62
     1
 10
0.0
 20
0.0
 30
0.0
  0
CIRCLE
  8
ARRANGE
  6
CONTINUOUS
 62
     1
 10
0.0
 20
0.0
 30
0.0
 40
40.0
  0
LINE
  8
SIZE
  6
CONTINUOUS
 62
    30
 10
206.0635473001021
 20
-101.49994589999839
 30
0.0
 11
206.0635473001021
 21
58.76762672960102
 31
0.0
  0
LINE
  8
SIZE
  6
CONTINUOUS
 62
    30
 10
194.9363983000012
 20
-101.49994589999839
 30
0.0
 11
194.9363983000012
 21
58.76762672960102
 31
0.0
  0
LINE
  8
SIZE
  6
CONTINUOUS
 62
    30
 10
182.9363983000012
 20
38.767626729601027
 30
0.0
 11
170.9363983000012
 21
38.767626729601027
 31
0.0
  0
LINE
  8
SIZE
  6
CONTINUOUS
 62
    30
 10
218.0635473001021
 20
38.767626729601027
 30
0.0
 11
337.6635473001021
 21
38.767626729601027
 31
0.0
  0
LINE
  8
SIZE
  6
CONTINUOUS
 62
    30
 10
194.9363983000012
 20
38.767626729601027
 30
0.0
 11
206.0635473001021
 21
38.767626729601027
 31
0.0
  0
CIRCLE
  8
SIZE
  6
CONTINUOUS
 62
    30
 10
194.9363983000012
 20
38.767626729601027
 30
0.0
 40
6.0
  0
LINE
  8
SIZE
  6
CONTINUOUS
 62
    30
 10
194.9363983000012
 20
38.767626729601027
 30
0.0
 11
182.9363983000012
 21
38.767626729601027
 31
0.0
  0
CIRCLE
  8
SIZE
  6
CONTINUOUS
 62
    30
 10
206.0635473001021
 20
38.767626729601027
 30
0.0
 40
6.0
  0
LINE
  8
SIZE
  6
CONTINUOUS
 62
    30
 10
206.0635473001021
 20
38.767626729601027
 30
0.0
 11
218.0635473001021
 21
38.767626729601027
 31
0.0
  0
TEXT
  8
SIZE
  6
CONTINUOUS
 62
    30
 10
255.0635473001021
 20
63.767626729601041
 30
0.0
 40
64.0
  1
11
 41
0.9
 72
     1
 11
283.86354730010208
 21
63.767626729601041
 31
0.0
  0
POINT
  8
DEFPOINTS
  6
CONTINUOUS
 62
    30
 10
206.0635473001021
 20
-121.49994589999839
 30
0.0
  0
POINT
  8
DEFPOINTS
  6
CONTINUOUS
 62
    30
 10
194.9363983000012
 20
-121.49994589999839
 30
0.0
  0
POINT
  8
DEFPOINTS
  6
CONTINUOUS
 62
    30
 10
194.9363983000012
 20
38.767626729601027
 30
0.0
  0
LINE
  8
SIZE
  6
CONTINUOUS
 62
    30
 10
240.4999528000009
 20
-121.49994589999839
 30
0.0
 11
493.81806459335922
 21
-121.49994589999839
 31
0.0
  0
LINE
  8
SIZE
  6
CONTINUOUS
 62
    30
 10
226.06354730010219
 20
-141.49999360010059
 30
0.0
 11
493.81806459335922
 21
-141.49999360010059
 31
0.0
  0
LINE
  8
SIZE
  6
CONTINUOUS
 62
    30
 10
473.81806459335922
 20
-153.49999360010059
 30
0.0
 11
473.81806459335922
 21
-165.49999360010059
 31
0.0
  0
LINE
  8
SIZE
  6
CONTINUOUS
 62
    30
 10
473.81806459335922
 20
-109.49994589999839
 30
0.0
 11
473.81806459335922
 21
45.757196957144501
 31
0.0
  0
LINE
  8
SIZE
  6
CONTINUOUS
 62
    30
 10
473.81806459335922
 20
-141.49999360010059
 30
0.0
 11
473.81806459335922
 21
-121.49994589999839
 31
0.0
  0
CIRCLE
  8
SIZE
  6
CONTINUOUS
 62
    30
 10
473.81806459335922
 20
-141.49999360010059
 30
0.0
 40
6.0
  0
LINE
  8
SIZE
  6
CONTINUOUS
 62
    30
 10
473.81806459335922
 20
-141.49999360010059
 30
0.0
 11
473.81806459335922
 21
-153.49999360010059
 31
0.0
  0
CIRCLE
  8
SIZE
  6
CONTINUOUS
 62
    30
 10
473.81806459335922
 20
-121.49994589999839
 30
0.0
 40
6.0
  0
LINE
  8
SIZE
  6
CONTINUOUS
 62
    30
 10
473.81806459335922
 20
-121.49994589999839
 30
0.0
 11
473.81806459335922
 21
-109.49994589999839
 31
0.0
  0
TEXT
  8
SIZE
  6
CONTINUOUS
 62
    30
 10
448.81806459335883
 20
-72.499945899998465
 30
0.0
 40
64.0
  1
20
 50
90.0
 41
0.9
 72
     1
 11
448.81806459335883
 21
-25.87137447142705
 31
0.0
  0
POINT
  8
DEFPOINTS
  6
CONTINUOUS
 62
    30
 10
220.4999528000009
 20
-121.49994589999839
 30
0.0
  0
POINT
  8
DEFPOINTS
  6
CONTINUOUS
 62
    30
 10
206.06354730010219
 20
-141.49999360010059
 30
0.0
  0
POINT
  8
DEFPOINTS
  6
CONTINUOUS
 62
    30
 10
473.81806459335922
 20
-141.49999360010059
 30
0.0
  0
TEXT
  8
NOTE
  6
CONTINUOUS
 62
     4
 10
439.07532531883061
 20
-418.13111859319463
 30
0.0
 40
64.0
  1
%%uAH 4
 41
0.9
  0
LINE
  8
NOTE
  6
CONTINUOUS
 62
     4
 10
438.98532531883058
 20
-430.93111859319458
 30
0.0
 11
653.01818246168762
 21
-430.93111859319458
 31
0.0
  0
LINE
  8
NOTE
  6
CONTINUOUS
 62
     4
 10
214.20950047508549
 20
-171.6590583449385
 30
0.0
 11
200.49997279990021
 21
-141.49999360010051
 31
0.0
  0
LINE
  8
NOTE
  6
CONTINUOUS
 62
     4
 10
200.49997279990021
 20
-141.49999360010051
 30
0.0
 11
227.45233344227589
 21
-160.763705370248
 31
0.0
  0
LINE
  8
NOTE
  6
CONTINUOUS
 62
     4
 10
200.49997279990021
 20
-141.49999360010051
 30
0.0
 11
241.1618611174612
 21
-190.922770115086
 31
0.0
  0
LINE
  8
NOTE
  6
CONTINUOUS
 62
     4
 10
241.1618611174612
 20
-190.922770115086
 30
0.0
 11
438.62532531883062
 21
-430.93111859319458
 31
0.0
  0
LINE
  8
NOTE
  6
CONTINUOUS
 62
     4
 10
438.62532531883062
 20
-430.93111859319458
 30
0.0
 11
438.98532531883058
 21
-430.93111859319458
 31
0.0
  0
ENDSEC
  0
EOF
