  0
SECTION
  2
HEADER
  9
$ACADVER
  1
AC1009
  9
$DWGCODEPAGE
  3
dos932
  9
$INSBASE
 10
0.0
 20
0.0
 30
0.0
  9
$EXTMIN
 10
-401.34334851204488
 20
-558.55249073405025
 30
0.0
  9
$EXTMAX
 10
1016.961862269399
 20
456.5646671261797
 30
0.0
  9
$LIMMIN
 10
-2970.0
 20
-2100.0
  9
$LIMMAX
 10
2970.0
 20
2100.0
  9
$ORTHOMODE
 70
     1
  9
$REGENMODE
 70
     1
  9
$FILLMODE
 70
     1
  9
$QTEXTMODE
 70
     0
  9
$MIRRTEXT
 70
     0
  9
$LTSCALE
 40
20.0
  9
$ATTMODE
 70
     1
  9
$TEXTSIZE
 40
64.0
  9
$TRACEWID
 40
0.05
  9
$TEXTSTYLE
  7
STANDARD
  9
$CLAYER
  8
SIZE
  9
$CELTYPE
  6
CONTINUOUS
  9
$CECOLOR
 62
     7
  9
$DIMSCALE
 40
1.0
  9
$DIMASZ
 40
12.0
  9
$DIMEXO
 40
20.0
  9
$DIMDLI
 40
200.0
  9
$DIMRND
 40
0.0
  9
$DIMDLE
 40
0.0
  9
$DIMEXE
 40
20.0
  9
$DIMTP
 40
0.0
  9
$DIMTM
 40
0.0
  9
$DIMTXT
 40
64.0
  9
$DIMCEN
 40
0.09
  9
$DIMTSZ
 40
0.0
  9
$DIMTOL
 70
     0
  9
$DIMLIM
 70
     0
  9
$DIMTIH
 70
     0
  9
$DIMTOH
 70
     0
  9
$DIMSE1
 70
     0
  9
$DIMSE2
 70
     0
  9
$DIMTAD
 70
     1
  9
$DIMZIN
 70
     8
  9
$DIMBLK
  1

  9
$DIMASO
 70
     1
  9
$DIMSHO
 70
     0
  9
$DIMPOST
  1

  9
$DIMAPOST
  1

  9
$DIMALT
 70
     0
  9
$DIMALTD
 70
     2
  9
$DIMALTF
 40
25.399999999999999
  9
$DIMLFAC
 40
1.0
  9
$DIMTOFL
 70
     1
  9
$DIMTVP
 40
0.0
  9
$DIMTIX
 70
     1
  9
$DIMSOXD
 70
     0
  9
$DIMSAH
 70
     0
  9
$DIMBLK1
  1

  9
$DIMBLK2
  1

  9
$DIMSTYLE
  2
STANDARD
  9
$DIMCLRD
 70
     7
  9
$DIMCLRE
 70
     7
  9
$DIMCLRT
 70
     7
  9
$DIMTFAC
 40
1.0
  9
$DIMGAP
 40
25.0
  9
$LUNITS
 70
     2
  9
$LUPREC
 70
     4
  9
$SKETCHINC
 40
0.1
  9
$FILLETRAD
 40
3.0
  9
$AUNITS
 70
     1
  9
$AUPREC
 70
     3
  9
$MENU
  1
ACAD
  9
$ELEVATION
 40
0.0
  9
$PELEVATION
 40
0.0
  9
$THICKNESS
 40
50.0
  9
$LIMCHECK
 70
     0
  9
$CHAMFERA
 40
0.0
  9
$CHAMFERB
 40
0.0
  9
$SKPOLY
 70
     0
  9
$TDCREATE
 40
2453019.623009259
  9
$TDUPDATE
 40
2459292.390180475
  9
$TDINDWG
 40
1.746613206
  9
$TDUSRTIMER
 40
1.746613206
  9
$USRTIMER
 70
     1
  9
$ANGBASE
 50
0.0
  9
$ANGDIR
 70
     0
  9
$PDMODE
 70
     3
  9
$PDSIZE
 40
-2.0
  9
$PLINEWID
 40
0.0
  9
$SPLFRAME
 70
     0
  9
$SPLINETYPE
 70
     6
  9
$SPLINESEGS
 70
     8
  9
$SURFTAB1
 70
     6
  9
$SURFTAB2
 70
     6
  9
$SURFTYPE
 70
     6
  9
$SURFU
 70
     6
  9
$SURFV
 70
     6
  9
$UCSNAME
  2

  9
$UCSORG
 10
0.0
 20
0.0
 30
0.0
  9
$UCSXDIR
 10
1.0
 20
0.0
 30
0.0
  9
$UCSYDIR
 10
0.0
 20
1.0
 30
0.0
  9
$PUCSNAME
  2

  9
$PUCSORG
 10
0.0
 20
0.0
 30
0.0
  9
$PUCSXDIR
 10
1.0
 20
0.0
 30
0.0
  9
$PUCSYDIR
 10
0.0
 20
1.0
 30
0.0
  9
$USERI1
 70
     0
  9
$USERI2
 70
     0
  9
$USERI3
 70
     0
  9
$USERI4
 70
     0
  9
$USERI5
 70
     0
  9
$USERR1
 40
20.0
  9
$USERR2
 40
0.0
  9
$USERR3
 40
0.0
  9
$USERR4
 40
0.0
  9
$USERR5
 40
0.0
  9
$WORLDVIEW
 70
     1
  9
$SHADEDGE
 70
     3
  9
$SHADEDIF
 70
    70
  9
$TILEMODE
 70
     1
  9
$MAXACTVP
 70
    48
  9
$PINSBASE
 10
0.0
 20
0.0
 30
0.0
  9
$PLIMCHECK
 70
     0
  9
$PEXTMIN
 10
-100000000000000000000.0
 20
-100000000000000000000.0
 30
-100000000000000000000.0
  9
$PEXTMAX
 10
100000000000000000000.0
 20
100000000000000000000.0
 30
100000000000000000000.0
  9
$PLIMMIN
 10
0.0
 20
0.0
  9
$PLIMMAX
 10
12.0
 20
9.0
  9
$UNITMODE
 70
     0
  9
$VISRETAIN
 70
     0
  9
$PLINEGEN
 70
     0
  9
$PSLTSCALE
 70
     0
  9
$TREEDEPTH
 70
  3020
  9
$ATTDIA
 70
     0
  9
$ATTREQ
 70
     1
  9
$BLIPMODE
 70
     1
  9
$COORDS
 70
     1
  9
$DRAGMODE
 70
     2
  9
$OSMODE
 70
     0
  9
$HANDLING
 70
     0
  9
$HANDSEED
  5
32E
  0
ENDSEC
  0
SECTION
  2
TABLES
  0
TABLE
  2
LTYPE
 70
     2
  0
LTYPE
  2
CONTINUOUS
 70
     0
  3
実線
 72
    65
 73
     0
 40
0.0
  0
LTYPE
  2
DASHDOT
 70
     0
  3
____ _ ____ _ ____ _ ____ _ ____ _ ____ _ ____
 72
    65
 73
     4
 40
5.5
 49
4.0
 49
-0.6
 49
0.3
 49
-0.6
  0
ENDTAB
  0
TABLE
  2
LAYER
 70
    12
  0
LAYER
  2
SIZE
 70
     0
 62
    30
  6
CONTINUOUS
  0
LAYER
  2
BASIS
 70
     0
 62
     6
  6
DASHDOT
  0
LAYER
  2
OUTLINE
 70
     0
 62
     3
  6
CONTINUOUS
  0
LAYER
  2
DETAIL
 70
     0
 62
     5
  6
CONTINUOUS
  0
LAYER
  2
ARRANGE
 70
     0
 62
     1
  6
CONTINUOUS
  0
LAYER
  2
DEFPOINTS
 70
     0
 62
     7
  6
CONTINUOUS
  0
LAYER
  2
ETC
 70
     0
 62
    61
  6
CONTINUOUS
  0
LAYER
  2
FIX
 70
     0
 62
    11
  6
CONTINUOUS
  0
LAYER
  2
NOTE
 70
     0
 62
     4
  6
CONTINUOUS
  0
LAYER
  2
0
 70
    64
 62
     7
  6
CONTINUOUS
  0
LAYER
  2
SERVICESPACE
 70
    64
 62
     2
  6
DASHDOT
  0
LAYER
  2
SYMBOLLINE
 70
    64
 62
    15
  6
CONTINUOUS
  0
ENDTAB
  0
TABLE
  2
STYLE
 70
     1
  0
STYLE
  2
STANDARD
 70
     0
 40
64.0
 41
0.9
 50
0.0
 71
     0
 42
64.0
  3
SIMPLEX.shx
  4
BIGFONT.shx
  0
ENDTAB
  0
TABLE
  2
APPID
 70
    21
  0
APPID
  2
ACAD
 70
     0
  0
APPID
  2
ACADANNOTATIVE
 70
     0
  0
APPID
  2
AUTOCAD_POSTSCRIPT_FIGURE
 70
     0
  0
APPID
  2
ACAD_EXEMPT_FROM_CAD_STANDARDS
 70
     0
  0
APPID
  2
ACAD_PSEXT
 70
     0
  0
APPID
  2
ACAUTHENVIRON
 70
     0
  0
APPID
  2
GENIUS_GENOENT_13
 70
     0
  0
APPID
  2
GENIUS_GENCFG_13
 70
     0
  0
APPID
  2
GENIUS_GENCFG0_13
 70
     0
  0
APPID
  2
GENIUS_GENCFG1_13
 70
     0
  0
APPID
  2
GENIUS_GENCFG2_13
 70
     0
  0
APPID
  2
GENIUS_GENCFG3_13
 70
     0
  0
APPID
  2
GENIUS_GENCFG4_13
 70
     0
  0
APPID
  2
GENIUS_GEVCFG0_13
 70
     0
  0
APPID
  2
CONTENTBLOCKICON
 70
     0
  0
APPID
  2
CONTENTBLOCKDESCRIPTION
 70
     0
  0
APPID
  2
ACAD_NAV_VCDISPLAY
 70
     0
  0
APPID
  2
ACAD_MLEADERVER
 70
     0
  0
APPID
  2
ACDBDYNAMICBLOCKTRUENAME
 70
     0
  0
APPID
  2
ACDBDYNAMICBLOCKGUID
 70
     0
  0
APPID
  2
ACAD_DSTYLE_DIMRADIAL_EXTENSION
 70
     0
  0
ENDTAB
  0
TABLE
  2
DIMSTYLE
 70
     1
  0
DIMSTYLE
  2
STANDARD
 70
     0
  3

  4

  5

  6

  7

 40
1.0
 41
12.0
 42
20.0
 43
200.0
 44
20.0
 45
0.0
 46
0.0
 47
0.0
 48
0.0
140
64.0
141
0.09
142
0.0
143
25.399999999999999
144
1.0
145
0.0
146
1.0
147
25.0
 71
     0
 72
     0
 73
     0
 74
     0
 75
     0
 76
     0
 77
     1
 78
     8
170
     0
171
     2
172
     1
173
     0
174
     1
175
     0
176
     7
177
     7
178
     7
  0
ENDTAB
  0
TABLE
  2
VIEW
 70
     1
  0
VIEW
  2
ALL
 70
     0
 40
4282.6198079999986
 10
0.0
 20
41.309904000000003
 41
5940.0
 11
0.0
 21
0.0
 31
1.0
 12
0.0
 22
0.0
 32
0.0
 42
50.0
 43
0.0
 44
0.0
 50
0.0
 71
     0
  0
ENDTAB
  0
TABLE
  2
UCS
 70
     0
  0
ENDTAB
  0
TABLE
  2
VPORT
 70
     1
  0
VPORT
  2
*ACTIVE
 70
     0
 10
0.0
 20
0.0
 11
1.0
 21
1.0
 12
317.93192774928809
 22
-51.10930424545586
 13
0.0
 23
0.0
 14
1.0
 24
1.0
 15
0.0
 25
0.0
 16
0.0
 26
0.0
 36
1.0
 17
0.0
 27
0.0
 37
0.0
 40
1022.189462207135
 41
1.767337807606264
 42
50.0
 43
0.0
 44
0.0
 50
0.0
 51
0.0
 71
     0
 72
  1000
 73
     1
 74
     3
 75
     0
 76
     0
 77
     0
 78
     0
  0
ENDTAB
  0
ENDSEC
  0
SECTION
  2
BLOCKS
  0
ENDSEC
  0
SECTION
  2
ENTITIES
  0
LINE
  8
DETAIL
  6
CONTINUOUS
 62
     5
 10
170.0871505536679
 20
-238.64170216086251
 30
0.0
 11
165.78752988957879
 21
-238.40225578739521
 31
0.0
  0
LINE
  8
DETAIL
  6
CONTINUOUS
 62
     5
 10
160.4768583474515
 20
-255.46603940020191
 30
0.0
 11
-161.28614985264991
 21
-255.46603940020191
 31
0.0
  0
LINE
  8
DETAIL
  6
CONTINUOUS
 62
     5
 10
161.28610554755409
 20
-253.03829780020189
 30
0.0
 11
160.67917014755491
 21
-253.03829780020189
 31
0.0
  0
LINE
  8
DETAIL
  6
CONTINUOUS
 62
     5
 10
-162.50002065264829
 20
-252.63367419999921
 30
0.0
 11
-161.28614985264991
 21
-252.63367419999921
 31
0.0
  0
LINE
  8
DETAIL
  6
CONTINUOUS
 62
     5
 10
161.69072914745169
 20
-252.63367419999921
 30
0.0
 11
160.67917014755491
 21
-252.63367419999921
 31
0.0
  0
LINE
  8
DETAIL
  6
CONTINUOUS
 62
     5
 10
161.69072914745169
 20
-251.82442700020169
 30
0.0
 11
162.49993582429761
 21
-251.82442700020169
 31
0.0
  0
LINE
  8
DETAIL
  6
CONTINUOUS
 62
     5
 10
164.97829589735099
 20
-250.36085507340539
 30
0.0
 11
164.16904869755399
 21
-250.36085507340539
 31
0.0
  0
LINE
  8
DETAIL
  6
CONTINUOUS
 62
     5
 10
161.69072914745169
 20
-248.8435165734052
 30
0.0
 11
163.10691174755169
 21
-248.8435165734052
 31
0.0
  0
LINE
  8
DETAIL
  6
CONTINUOUS
 62
     5
 10
163.10691174755169
 20
-247.17444422340549
 30
0.0
 11
164.16904869755399
 21
-247.17444422340549
 31
0.0
  0
LINE
  8
DETAIL
  6
CONTINUOUS
 62
     5
 10
163.10691174755169
 20
-243.43167592350599
 30
0.0
 11
164.16904869755399
 21
-243.43167592350599
 31
0.0
  0
LINE
  8
DETAIL
  6
CONTINUOUS
 62
     5
 10
163.10691174755169
 20
-242.1166466502016
 30
0.0
 11
164.16904869755399
 21
-242.1166466502016
 31
0.0
  0
LINE
  8
DETAIL
  6
CONTINUOUS
 62
     5
 10
165.78754309745179
 20
-239.84064147360749
 30
0.0
 11
164.97829589735099
 21
-239.84064147360749
 31
0.0
  0
LINE
  8
DETAIL
  6
CONTINUOUS
 62
     5
 10
163.10691174755169
 20
-238.37387834999959
 30
0.0
 11
164.16904869755399
 21
-238.37387834999959
 31
0.0
  0
LINE
  8
DETAIL
  6
CONTINUOUS
 62
     5
 10
161.69072914745169
 20
-236.70480599999951
 30
0.0
 11
163.10691174755169
 21
-236.70480599999951
 31
0.0
  0
LINE
  8
DETAIL
  6
CONTINUOUS
 62
     5
 10
180.56766289755339
 20
-233.56897567350671
 30
0.0
 11
165.78754309745179
 21
-233.56897567350671
 31
0.0
  0
LINE
  8
DETAIL
  6
CONTINUOUS
 62
     5
 10
164.97829589735099
 20
-230.9389222734051
 30
0.0
 11
164.16904869755399
 21
-230.9389222734051
 31
0.0
  0
LINE
  8
DETAIL
  6
CONTINUOUS
 62
     5
 10
223.07224149745161
 20
-230.53429867350701
 30
0.0
 11
166.59679029755441
 21
-230.53429867350701
 31
0.0
  0
LINE
  8
DETAIL
  6
CONTINUOUS
 62
     5
 10
165.1977925313104
 20
-230.53429867350701
 30
0.0
 11
164.97829589735099
 21
-230.53429867350701
 31
0.0
  0
LINE
  8
DETAIL
  6
CONTINUOUS
 62
     5
 10
121.8408541475537
 20
-254.3907607001004
 30
0.0
 11
-120.6212128524467
 21
-254.3907607001004
 31
0.0
  0
LINE
  8
DETAIL
  6
CONTINUOUS
 62
     5
 10
166.59679029755441
 20
-229.0169601735067
 30
0.0
 11
164.97829589735099
 21
-229.0169601735067
 31
0.0
  0
LINE
  8
DETAIL
  6
CONTINUOUS
 62
     5
 10
166.59679029755441
 20
-228.91580427360779
 30
0.0
 11
164.97829589735099
 21
-228.91580427360779
 31
0.0
  0
LINE
  8
DETAIL
  6
CONTINUOUS
 62
     5
 10
164.16904869755399
 20
-206.76266217360791
 30
0.0
 11
161.69072914745169
 21
-206.76266217360791
 31
0.0
  0
LINE
  8
DETAIL
  6
CONTINUOUS
 62
     5
 10
164.16904869755399
 20
-203.72798517360769
 30
0.0
 11
161.69072914745169
 21
-203.72798517360769
 31
0.0
  0
LINE
  8
DETAIL
  6
CONTINUOUS
 62
     5
 10
162.65171019755229
 20
-192.19621257360791
 30
0.0
 11
164.16904869755399
 21
-192.19621257360791
 31
0.0
  0
LINE
  8
DETAIL
  6
CONTINUOUS
 62
     5
 10
161.69072914745169
 20
-190.78002997350649
 30
0.0
 11
162.65171019755229
 21
-190.78002997350649
 31
0.0
  0
LINE
  8
DETAIL
  6
CONTINUOUS
 62
     5
 10
170.0871505536679
 20
-241.84882283933871
 30
0.0
 11
164.97829589735099
 21
-242.12910650168101
 31
0.0
  0
LINE
  8
DETAIL
  6
CONTINUOUS
 62
     5
 10
161.69072914745169
 20
-186.5314821735067
 30
0.0
 11
162.65171019755229
 21
-186.5314821735067
 31
0.0
  0
LINE
  8
DETAIL
  6
CONTINUOUS
 62
     5
 10
162.65171019755229
 20
-185.11529957340531
 30
0.0
 11
164.16904869755399
 21
-185.11529957340531
 31
0.0
  0
LINE
  8
DETAIL
  6
CONTINUOUS
 62
     5
 10
164.16904869755399
 20
-183.09218157360809
 30
0.0
 11
161.69072914745169
 21
-183.09218157360809
 31
0.0
  0
LINE
  8
DETAIL
  6
CONTINUOUS
 62
     5
 10
164.16904869755399
 20
-180.05750457360801
 30
0.0
 11
161.69072914745169
 21
-180.05750457360801
 31
0.0
  0
LINE
  8
DETAIL
  6
CONTINUOUS
 62
     5
 10
-118.5980948526494
 20
-171.9650300001006
 30
0.0
 11
-115.56341785264981
 21
-171.9650300001006
 31
0.0
  0
LINE
  8
DETAIL
  6
CONTINUOUS
 62
     5
 10
119.8177361474509
 20
-171.9650300001006
 30
0.0
 11
116.7830591474512
 21
-171.9650300001006
 31
0.0
  0
LINE
  8
DETAIL
  6
CONTINUOUS
 62
     5
 10
164.16904869755399
 20
-170.59942792350671
 30
0.0
 11
161.69072914745169
 21
-170.59942792350671
 31
0.0
  0
LINE
  8
DETAIL
  6
CONTINUOUS
 62
     5
 10
191.64474484877701
 20
-168.9303530001005
 30
0.0
 11
143.5951814473492
 21
-168.9303530001005
 31
0.0
  0
LINE
  8
DETAIL
  6
CONTINUOUS
 62
     5
 10
-143.5951611524479
 20
-168.9303530001005
 30
0.0
 11
-191.6447245538757
 21
-168.9303530001005
 31
0.0
  0
LINE
  8
DETAIL
  6
CONTINUOUS
 62
     5
 10
150.36126844921549
 20
-152.23962110405981
 30
0.0
 11
174.33521664755341
 21
-152.23962110405981
 31
0.0
  0
LINE
  8
DETAIL
  6
CONTINUOUS
 62
     5
 10
-152.80034815431009
 20
-152.23962110405981
 30
0.0
 11
-174.9421963526502
 21
-152.23962110405981
 31
0.0
  0
LINE
  8
DETAIL
  6
CONTINUOUS
 62
     5
 10
-118.5980948526494
 20
-151.73384999999939
 30
0.0
 11
-115.56341785264981
 21
-151.73384999999939
 31
0.0
  0
LINE
  8
DETAIL
  6
CONTINUOUS
 62
     5
 10
119.8177361474509
 20
-151.73384999999939
 30
0.0
 11
116.7830591474512
 21
-151.73384999999939
 31
0.0
  0
LINE
  8
DETAIL
  6
CONTINUOUS
 62
     5
 10
-174.94219625068311
 20
-142.12404789624199
 30
0.0
 11
-152.80034805265041
 21
-142.12404789624199
 31
0.0
  0
LINE
  8
DETAIL
  6
CONTINUOUS
 62
     5
 10
174.33521654558811
 20
-142.12404789624199
 30
0.0
 11
150.36126834755211
 21
-142.12404789624199
 31
0.0
  0
LINE
  8
DETAIL
  6
CONTINUOUS
 62
     5
 10
164.97829589735099
 20
-72.263430698620809
 30
0.0
 11
165.3287590757491
 21
-72.285482478260064
 31
0.0
  0
LINE
  8
DETAIL
  6
CONTINUOUS
 62
     5
 10
170.0871505536679
 20
-72.543714360963563
 30
0.0
 11
165.3287590757491
 21
-72.285482478260064
 31
0.0
  0
LINE
  8
DETAIL
  6
CONTINUOUS
 62
     5
 10
163.00575584735179
 20
-123.3090421002014
 30
0.0
 11
148.78615874459589
 21
-123.3090421002014
 31
0.0
  0
LINE
  8
DETAIL
  6
CONTINUOUS
 62
     5
 10
-151.22523844969419
 20
-123.3090421002014
 30
0.0
 11
-163.61273555244679
 21
-123.3090421002014
 31
0.0
  0
LINE
  8
DETAIL
  6
CONTINUOUS
 62
     5
 10
161.69072914745169
 20
-120.88130050020141
 30
0.0
 11
163.00575584735179
 21
-120.88130050020141
 31
0.0
  0
LINE
  8
DETAIL
  6
CONTINUOUS
 62
     5
 10
-162.50002065264829
 20
-120.88130050020141
 30
0.0
 11
-163.61273555244679
 21
-120.88130050020141
 31
0.0
  0
LINE
  8
DETAIL
  6
CONTINUOUS
 62
     5
 10
220.4999629474523
 20
-119.26280609999939
 30
0.0
 11
161.69072914745169
 21
-119.26280609999939
 31
0.0
  0
LINE
  8
DETAIL
  6
CONTINUOUS
 62
     5
 10
-162.50002065264829
 20
-119.26280609999939
 30
0.0
 11
-220.50004265254941
 21
-119.26280609999939
 31
0.0
  0
LINE
  8
DETAIL
  6
CONTINUOUS
 62
     5
 10
164.16904869755399
 20
-115.722352173608
 30
0.0
 11
161.69072914745169
 21
-115.722352173608
 31
0.0
  0
LINE
  8
DETAIL
  6
CONTINUOUS
 62
     5
 10
164.16904869755399
 20
-112.6876751736079
 30
0.0
 11
161.69072914745169
 21
-112.6876751736079
 31
0.0
  0
LINE
  8
DETAIL
  6
CONTINUOUS
 62
     5
 10
166.59679029755441
 20
-88.916038673405396
 30
0.0
 11
223.07224149745161
 21
-88.916038673405396
 31
0.0
  0
LINE
  8
DETAIL
  6
CONTINUOUS
 62
     5
 10
164.97829589735099
 20
-84.262867273506572
 30
0.0
 11
164.16904869755399
 21
-84.262867273506572
 31
0.0
  0
LINE
  8
DETAIL
  6
CONTINUOUS
 62
     5
 10
165.78754309745179
 20
-79.609695873607734
 30
0.0
 11
164.97829589735099
 21
-79.609695873607734
 31
0.0
  0
LINE
  8
DETAIL
  6
CONTINUOUS
 62
     5
 10
161.69072914745169
 20
-77.687731199999462
 30
0.0
 11
163.10691174755169
 21
-77.687731199999462
 31
0.0
  0
LINE
  8
DETAIL
  6
CONTINUOUS
 62
     5
 10
163.10691174755169
 20
-76.018658849999369
 30
0.0
 11
164.16904869755399
 21
-76.018658849999369
 31
0.0
  0
LINE
  8
DETAIL
  6
CONTINUOUS
 62
     5
 10
163.10691174755169
 20
-72.275890550100698
 30
0.0
 11
164.16904869755399
 21
-72.275890550100698
 31
0.0
  0
LINE
  8
DETAIL
  6
CONTINUOUS
 62
     5
 10
164.97829589735099
 20
-72.275890550100698
 30
0.0
 11
165.00535269481131
 21
-72.275890550100698
 31
0.0
  0
LINE
  8
DETAIL
  6
CONTINUOUS
 62
     5
 10
161.69072914745169
 20
-70.606818200100179
 30
0.0
 11
163.10691174755169
 21
-70.606818200100179
 31
0.0
  0
LINE
  8
DETAIL
  6
CONTINUOUS
 62
     5
 10
164.97829589735099
 20
-69.089482273506533
 30
0.0
 11
164.16904869755399
 21
-69.089482273506533
 31
0.0
  0
LINE
  8
DETAIL
  6
CONTINUOUS
 62
     5
 10
-120.6212128524467
 20
-10.98556190010072
 30
0.0
 11
121.8408541475537
 21
-10.98556190010072
 31
0.0
  0
LINE
  8
DETAIL
  6
CONTINUOUS
 62
     5
 10
170.0871505536679
 20
-75.750835039136064
 30
0.0
 11
164.97829589735099
 21
-76.031118701782603
 31
0.0
  0
LINE
  8
DETAIL
  6
CONTINUOUS
 62
     5
 10
161.9472269686803
 20
-255.27020631321309
 30
0.0
 11
155.32998183243669
 21
-259.56749555084002
 31
0.0
  0
LINE
  8
DETAIL
  6
CONTINUOUS
 62
     5
 10
160.15982910777259
 20
-255.46603940020191
 30
0.0
 11
154.88923421835261
 21
-258.8888037419631
 31
0.0
  0
LINE
  8
DETAIL
  6
CONTINUOUS
 62
     5
 10
161.69072914745169
 20
-3.6416123999990759
 30
0.0
 11
162.49993582429761
 21
-3.6416123999990759
 31
0.0
  0
LINE
  8
DETAIL
  6
CONTINUOUS
 62
     5
 10
161.89304094755329
 20
-2.8323652002020481
 30
0.0
 11
160.67917014755491
 21
-2.8323652002020481
 31
0.0
  0
LINE
  8
DETAIL
  6
CONTINUOUS
 62
     5
 10
-161.28614985264991
 20
-2.8323652002020481
 30
0.0
 11
-162.50002065264829
 21
-2.8323652002020481
 31
0.0
  0
LINE
  8
DETAIL
  6
CONTINUOUS
 62
     5
 10
160.4768583474515
 20
0.0000000000002274
 30
0.0
 11
-161.28614985264991
 21
0.0000000000002274
 31
0.0
  0
LINE
  8
DETAIL
  6
CONTINUOUS
 62
     5
 10
124.8755311475534
 20
-251.3560837001003
 30
0.0
 11
121.8408541475537
 21
-254.3907607001004
 31
0.0
  0
LINE
  8
DETAIL
  6
CONTINUOUS
 62
     5
 10
196.6517064481659
 20
-166.85640159928539
 30
0.0
 11
218.42601154663589
 21
-142.57949650081471
 31
0.0
  0
LINE
  8
DETAIL
  6
CONTINUOUS
 62
     5
 10
124.05714606705899
 20
-147.49444008039359
 30
0.0
 11
119.8177361474509
 21
-151.73384999999939
 31
0.0
  0
LINE
  8
DETAIL
  6
CONTINUOUS
 62
     5
 10
-123.65588985244629
 20
-177.02282500020169
 30
0.0
 11
-118.5980948526494
 21
-171.9650300001006
 31
0.0
  0
LINE
  8
DETAIL
  6
CONTINUOUS
 62
     5
 10
154.88923421835261
 20
3.422764341762786
 30
0.0
 11
155.32998183243669
 21
4.1014561506383416
 31
0.0
  0
LINE
  8
DETAIL
  6
CONTINUOUS
 62
     5
 10
137.08335456780239
 20
-159.06817417224761
 30
0.0
 11
137.229369477348
 21
-158.722137837118
 31
0.0
  0
LINE
  8
DETAIL
  6
CONTINUOUS
 62
     5
 10
138.93984996011659
 20
-154.3128720613652
 30
0.0
 11
139.00429546550819
 21
-154.1585356553758
 31
0.0
  0
LINE
  8
DETAIL
  6
CONTINUOUS
 62
     5
 10
137.229369477348
 20
-158.722137837118
 30
0.0
 11
137.37021240478771
 21
-158.38066440742679
 31
0.0
  0
LINE
  8
DETAIL
  6
CONTINUOUS
 62
     5
 10
137.37021240478771
 20
-158.38066440742679
 30
0.0
 11
137.43890319570619
 21
-158.2111968855431
 31
0.0
  0
LINE
  8
DETAIL
  6
CONTINUOUS
 62
     5
 10
137.43890319570619
 20
-158.2111968855431
 30
0.0
 11
137.50631419201551
 21
-158.04268013342579
 31
0.0
  0
LINE
  8
DETAIL
  6
CONTINUOUS
 62
     5
 10
139.00429546550819
 20
-154.1585356553758
 30
0.0
 11
139.06582883416101
 21
-154.0027088785439
 31
0.0
  0
LINE
  8
DETAIL
  6
CONTINUOUS
 62
     5
 10
137.50631419201551
 20
-158.04268013342579
 30
0.0
 11
137.57236500391349
 21
-157.8752372469819
 31
0.0
  0
LINE
  8
DETAIL
  6
CONTINUOUS
 62
     5
 10
138.93984996011659
 20
-153.6935010690934
 30
0.0
 11
139.21028334132009
 21
-153.00273739279899
 31
0.0
  0
LINE
  8
DETAIL
  6
CONTINUOUS
 62
     5
 10
137.57236500391349
 20
-157.8752372469819
 30
0.0
 11
137.6369187601822
 21
-157.70881286095599
 31
0.0
  0
LINE
  8
DETAIL
  6
CONTINUOUS
 62
     5
 10
137.6369187601822
 20
-157.70881286095599
 30
0.0
 11
137.69978746015201
 21
-157.54354799588029
 31
0.0
  0
LINE
  8
DETAIL
  6
CONTINUOUS
 62
     5
 10
139.21028334132009
 20
-153.00273739279899
 30
0.0
 11
139.4758265095688
 21
-152.2998487209959
 31
0.0
  0
LINE
  8
DETAIL
  6
CONTINUOUS
 62
     5
 10
139.06582883416101
 20
-154.0027088785439
 30
0.0
 11
139.12445006606961
 21
-153.84716188466811
 31
0.0
  0
LINE
  8
DETAIL
  6
CONTINUOUS
 62
     5
 10
138.56598522873259
 20
-155.37546239999921
 30
0.0
 11
138.71655983151049
 21
-154.97247329139529
 31
0.0
  0
LINE
  8
DETAIL
  6
CONTINUOUS
 62
     5
 10
137.69978746015201
 20
-157.54354799588029
 30
0.0
 11
137.76104410115931
 21
-157.37897659121771
 31
0.0
  0
LINE
  8
DETAIL
  6
CONTINUOUS
 62
     5
 10
138.71655983151049
 20
-154.97247329139529
 30
0.0
 11
138.76634155792911
 21
-154.83794943454649
 31
0.0
  0
LINE
  8
DETAIL
  6
CONTINUOUS
 62
     5
 10
224.69073589735129
 20
-228.91580427360779
 30
0.0
 11
224.69073589735129
 21
-90.534533073607946
 31
0.0
  0
LINE
  8
DETAIL
  6
CONTINUOUS
 62
     5
 10
220.4999629474523
 20
-137.57253490142719
 30
0.0
 11
220.4999629474523
 21
-119.26280609999939
 31
0.0
  0
LINE
  8
DETAIL
  6
CONTINUOUS
 62
     5
 10
-123.65588985244629
 20
-14.02023890010037
 30
0.0
 11
-120.6212128524467
 21
-10.98556190010072
 31
0.0
  0
LINE
  8
DETAIL
  6
CONTINUOUS
 62
     5
 10
138.74288516499021
 20
-154.2310140345464
 30
0.0
 11
138.89089539105319
 21
-153.82807718004619
 31
0.0
  0
LINE
  8
DETAIL
  6
CONTINUOUS
 62
     5
 10
139.4758265095688
 20
-152.2998487209959
 30
0.0
 11
139.73735674992989
 21
-151.58241901167429
 31
0.0
  0
LINE
  8
DETAIL
  6
CONTINUOUS
 62
     5
 10
138.89089539105319
 20
-153.82807718004619
 30
0.0
 11
138.93984996011659
 21
-153.6935010690934
 31
0.0
  0
LINE
  8
DETAIL
  6
CONTINUOUS
 62
     5
 10
137.76104410115931
 20
-157.37897659121771
 30
0.0
 11
137.82064873046971
 21
-157.214836342235
 31
0.0
  0
LINE
  8
DETAIL
  6
CONTINUOUS
 62
     5
 10
139.12445006606961
 20
-153.84716188466811
 30
0.0
 11
139.18015916063001
 21
-153.6935010690934
 31
0.0
  0
LINE
  8
DETAIL
  6
CONTINUOUS
 62
     5
 10
138.74288516499021
 20
-154.2310140345464
 30
0.0
 11
138.7015861215796
 21
-154.34499154279069
 31
0.0
  0
LINE
  8
DETAIL
  6
CONTINUOUS
 62
     5
 10
138.76634155792911
 20
-154.83794943454649
 30
0.0
 11
138.8074382314762
 21
-154.7238746779542
 31
0.0
  0
LINE
  8
DETAIL
  6
CONTINUOUS
 62
     5
 10
137.82064873046971
 20
-157.214836342235
 30
0.0
 11
137.8787521976237
 21
-157.05065700327461
 31
0.0
  0
LINE
  8
DETAIL
  6
CONTINUOUS
 62
     5
 10
139.73735674992989
 20
-151.58241901167429
 30
0.0
 11
139.9922422069076
 21
-150.85769639056051
 31
0.0
  0
LINE
  8
DETAIL
  6
CONTINUOUS
 62
     5
 10
137.8787521976237
 20
-157.05065700327461
 30
0.0
 11
137.93548272379391
 21
-156.88586866503081
 31
0.0
  0
LINE
  8
DETAIL
  6
CONTINUOUS
 62
     5
 10
138.7015861215796
 20
-154.34499154279069
 30
0.0
 11
138.65833645121799
 21
-154.47095649768309
 31
0.0
  0
LINE
  8
DETAIL
  6
CONTINUOUS
 62
     5
 10
139.9922422069076
 20
-150.85769639056051
 30
0.0
 11
140.23848714793081
 21
-150.13044575695929
 31
0.0
  0
LINE
  8
DETAIL
  6
CONTINUOUS
 62
     5
 10
138.8074382314762
 20
-154.7238746779542
 30
0.0
 11
138.85005518989331
 21
-154.59786753042891
 31
0.0
  0
LINE
  8
DETAIL
  6
CONTINUOUS
 62
     5
 10
137.93548272379391
 20
-156.88586866503081
 30
0.0
 11
137.99086823894049
 21
-156.72050801340919
 31
0.0
  0
LINE
  8
DETAIL
  6
CONTINUOUS
 62
     5
 10
138.65833645121799
 20
-154.47095649768309
 30
0.0
 11
138.61313615360359
 21
-154.60827619213501
 31
0.0
  0
LINE
  8
DETAIL
  6
CONTINUOUS
 62
     5
 10
140.23848714793081
 20
-150.13044575695929
 30
0.0
 11
140.475060490814
 21
-149.40570075024681
 31
0.0
  0
LINE
  8
DETAIL
  6
CONTINUOUS
 62
     5
 10
137.99086823894049
 20
-156.72050801340919
 30
0.0
 11
138.0449653164151
 21
-156.554337551858
 31
0.0
  0
LINE
  8
DETAIL
  6
CONTINUOUS
 62
     5
 10
138.85005518989331
 20
-154.59786753042891
 30
0.0
 11
138.8941924325691
 21
-154.46057623387759
 31
0.0
  0
LINE
  8
DETAIL
  6
CONTINUOUS
 62
     5
 10
138.61313615360359
 20
-154.60827619213501
 30
0.0
 11
138.56598522873259
 21
-154.75609140772741
 31
0.0
  0
LINE
  8
DETAIL
  6
CONTINUOUS
 62
     5
 10
138.0449653164151
 20
-156.554337551858
 30
0.0
 11
138.09781624626609
 21
-156.38760991723601
 31
0.0
  0
LINE
  8
DETAIL
  6
CONTINUOUS
 62
     5
 10
140.475060490814
 20
-149.40570075024681
 30
0.0
 11
140.7001740885471
 21
-148.6894611769101
 31
0.0
  0
LINE
  8
DETAIL
  6
CONTINUOUS
 62
     5
 10
138.8941924325691
 20
-154.46057623387759
 30
0.0
 11
138.93984996011659
 21
-154.3128720613652
 31
0.0
  0
LINE
  8
DETAIL
  6
CONTINUOUS
 62
     5
 10
138.09781624626609
 20
-156.38760991723601
 30
0.0
 11
138.1494449881784
 21
-156.22053704683481
 31
0.0
  0
LINE
  8
DETAIL
  6
CONTINUOUS
 62
     5
 10
140.7001740885471
 20
-148.6894611769101
 30
0.0
 11
140.91410340392301
 21
-147.9835934370451
 31
0.0
  0
LINE
  8
DETAIL
  6
CONTINUOUS
 62
     5
 10
138.1494449881784
 20
-156.22053704683481
 30
0.0
 11
138.19996310840821
 21
-156.0530035422041
 31
0.0
  0
LINE
  8
DETAIL
  6
CONTINUOUS
 62
     5
 10
138.19996310840821
 20
-156.0530035422041
 30
0.0
 11
138.24945494245091
 21
-155.88510893225271
 31
0.0
  0
LINE
  8
DETAIL
  6
CONTINUOUS
 62
     5
 10
140.91410340392301
 20
-147.9835934370451
 30
0.0
 11
141.1156456830731
 21
-147.29439288524301
 31
0.0
  0
LINE
  8
DETAIL
  6
CONTINUOUS
 62
     5
 10
138.56598522873259
 20
-154.75609140772741
 30
0.0
 11
138.5214467656433
 21
-154.90956726034599
 31
0.0
  0
LINE
  8
DETAIL
  6
CONTINUOUS
 62
     5
 10
138.24945494245091
 20
-155.88510893225271
 30
0.0
 11
138.2980261422845
 21
-155.71642037250439
 31
0.0
  0
LINE
  8
DETAIL
  6
CONTINUOUS
 62
     5
 10
141.1156456830731
 20
-147.29439288524301
 30
0.0
 11
141.30744742957091
 21
-146.61457246603121
 31
0.0
  0
LINE
  8
DETAIL
  6
CONTINUOUS
 62
     5
 10
138.2980261422845
 20
-155.71642037250439
 30
0.0
 11
138.34582719177621
 21
-155.54648823671619
 31
0.0
  0
LINE
  8
DETAIL
  6
CONTINUOUS
 62
     5
 10
138.5214467656433
 20
-154.90956726034599
 30
0.0
 11
138.47773772802881
 21
-155.06507872513319
 31
0.0
  0
LINE
  8
DETAIL
  6
CONTINUOUS
 62
     5
 10
138.47773772802881
 20
-155.06507872513319
 30
0.0
 11
138.34582719177621
 21
-155.54648823671619
 31
0.0
  0
LINE
  8
DETAIL
  6
CONTINUOUS
 62
     5
 10
141.30744742957091
 20
-146.61457246603121
 30
0.0
 11
141.49122900241579
 21
-145.94096772748139
 31
0.0
  0
LINE
  8
DETAIL
  6
CONTINUOUS
 62
     5
 10
141.49122900241579
 20
-145.94096772748139
 30
0.0
 11
141.66856608086439
 21
-145.2675062099058
 31
0.0
  0
LINE
  8
DETAIL
  6
CONTINUOUS
 62
     5
 10
141.66856608086439
 20
-145.2675062099058
 30
0.0
 11
141.84129123321961
 21
-144.58891352936081
 31
0.0
  0
LINE
  8
DETAIL
  6
CONTINUOUS
 62
     5
 10
141.84129123321961
 20
-144.58891352936081
 30
0.0
 11
142.01035415193559
 21
-143.89963100395309
 31
0.0
  0
LINE
  8
DETAIL
  6
CONTINUOUS
 62
     5
 10
142.01035415193559
 20
-143.89963100395309
 30
0.0
 11
142.17734028793069
 21
-143.1933583176999
 31
0.0
  0
LINE
  8
DETAIL
  6
CONTINUOUS
 62
     5
 10
142.17734028793069
 20
-143.1933583176999
 30
0.0
 11
142.3421749356485
 21
-142.46704598619891
 31
0.0
  0
LINE
  8
DETAIL
  6
CONTINUOUS
 62
     5
 10
142.3421749356485
 20
-142.46704598619891
 30
0.0
 11
142.50624322880051
 21
-141.71215214568679
 31
0.0
  0
LINE
  8
DETAIL
  6
CONTINUOUS
 62
     5
 10
142.50624322880051
 20
-141.71215214568679
 30
0.0
 11
142.66675110324189
 21
-140.9388536191689
 31
0.0
  0
LINE
  8
DETAIL
  6
CONTINUOUS
 62
     5
 10
143.8737385059367
 20
-133.0665310615143
 30
0.0
 11
143.956322556468
 21
-132.27271788298569
 31
0.0
  0
LINE
  8
DETAIL
  6
CONTINUOUS
 62
     5
 10
143.956322556468
 20
-132.27271788298569
 30
0.0
 11
144.03215396178621
 21
-131.47682632943929
 31
0.0
  0
LINE
  8
DETAIL
  6
CONTINUOUS
 62
     5
 10
144.03215396178621
 20
-131.47682632943929
 30
0.0
 11
144.10095105683189
 21
-130.67891388129991
 31
0.0
  0
LINE
  8
DETAIL
  6
CONTINUOUS
 62
     5
 10
144.10095105683189
 20
-130.67891388129991
 30
0.0
 11
144.16280773026031
 21
-129.87896137852729
 31
0.0
  0
LINE
  8
DETAIL
  6
CONTINUOUS
 62
     5
 10
171.62956011448199
 20
-233.56897567350671
 30
0.0
 11
171.62956011448199
 21
-230.53429867350701
 31
0.0
  0
LINE
  8
DETAIL
  6
CONTINUOUS
 62
     5
 10
168.01297289735069
 20
-233.56897567350671
 30
0.0
 11
168.01297289735069
 21
-230.53429867350701
 31
0.0
  0
LINE
  8
DETAIL
  6
CONTINUOUS
 62
     5
 10
167.00141389745201
 20
-233.56897567350671
 30
0.0
 11
167.00141389745201
 21
-230.53429867350701
 31
0.0
  0
LINE
  8
DETAIL
  6
CONTINUOUS
 62
     5
 10
166.59679029755441
 20
-228.91580427360779
 30
0.0
 11
166.59679029755441
 21
-230.53429867350701
 31
0.0
  0
LINE
  8
DETAIL
  6
CONTINUOUS
 62
     5
 10
165.78754309745179
 20
-239.84064147360749
 30
0.0
 11
165.78754309745179
 21
-231.34354587360741
 31
0.0
  0
LINE
  8
DETAIL
  6
CONTINUOUS
 62
     5
 10
165.78754309745179
 20
-228.91580427360779
 30
0.0
 11
165.78754309745179
 21
-168.9303530001005
 31
0.0
  0
LINE
  8
DETAIL
  6
CONTINUOUS
 62
     5
 10
165.78754309745179
 20
-88.106791473607458
 30
0.0
 11
165.78754309745179
 21
-79.609695873607734
 31
0.0
  0
LINE
  8
DETAIL
  6
CONTINUOUS
 62
     5
 10
164.97829589735099
 20
-250.36085507340539
 30
0.0
 11
164.97829589735099
 21
-168.9303530001005
 31
0.0
  0
LINE
  8
DETAIL
  6
CONTINUOUS
 62
     5
 10
164.97829589735099
 20
-119.26280609999939
 30
0.0
 11
164.97829589735099
 21
-69.089482273506533
 31
0.0
  0
LINE
  8
DETAIL
  6
CONTINUOUS
 62
     5
 10
164.16904869755399
 20
-250.36085507340539
 30
0.0
 11
164.16904869755399
 21
-168.9303530001005
 31
0.0
  0
LINE
  8
DETAIL
  6
CONTINUOUS
 62
     5
 10
164.16904869755399
 20
-119.26280609999939
 30
0.0
 11
164.16904869755399
 21
-69.089482273506533
 31
0.0
  0
LINE
  8
DETAIL
  6
CONTINUOUS
 62
     5
 10
163.10691174755169
 20
-248.8434954368802
 30
0.0
 11
163.10691174755169
 21
-236.70480599999951
 31
0.0
  0
LINE
  8
DETAIL
  6
CONTINUOUS
 62
     5
 10
163.10691174755169
 20
-77.687731199999462
 30
0.0
 11
163.10691174755169
 21
-70.606874348604606
 31
0.0
  0
LINE
  8
DETAIL
  6
CONTINUOUS
 62
     5
 10
163.00575584735179
 20
-123.3090421002014
 30
0.0
 11
163.00575584735179
 21
-119.26280609999939
 31
0.0
  0
LINE
  8
DETAIL
  6
CONTINUOUS
 62
     5
 10
162.65171019755229
 20
-192.19621257360791
 30
0.0
 11
162.65171019755229
 21
-185.11529957340531
 31
0.0
  0
LINE
  8
DETAIL
  6
CONTINUOUS
 62
     5
 10
162.49997634755249
 20
-251.82442700020169
 30
0.0
 11
162.49997634755249
 21
-248.8435165734052
 31
0.0
  0
LINE
  8
DETAIL
  6
CONTINUOUS
 62
     5
 10
162.49997634755249
 20
-236.70480599999951
 30
0.0
 11
162.49997634755249
 21
-206.76266217360791
 31
0.0
  0
LINE
  8
DETAIL
  6
CONTINUOUS
 62
     5
 10
162.49997634755249
 20
-203.72798517360769
 30
0.0
 11
162.49997634755249
 21
-190.78002997350649
 31
0.0
  0
LINE
  8
DETAIL
  6
CONTINUOUS
 62
     5
 10
162.49997634755249
 20
-186.5314821735067
 30
0.0
 11
162.49997634755249
 21
-183.09218157360809
 31
0.0
  0
LINE
  8
DETAIL
  6
CONTINUOUS
 62
     5
 10
162.49997634755249
 20
-180.05750457360801
 30
0.0
 11
162.49997634755249
 21
-170.59942792350671
 31
0.0
  0
LINE
  8
DETAIL
  6
CONTINUOUS
 62
     5
 10
162.49997634755249
 20
-119.26280609999939
 30
0.0
 11
162.49997634755249
 21
-115.722352173608
 31
0.0
  0
LINE
  8
DETAIL
  6
CONTINUOUS
 62
     5
 10
162.49997634755249
 20
-112.6876751736079
 30
0.0
 11
162.49997634755249
 21
-77.687731199999462
 31
0.0
  0
LINE
  8
DETAIL
  6
CONTINUOUS
 62
     5
 10
162.49997634755249
 20
-70.606818200100179
 30
0.0
 11
162.49997634755249
 21
-3.6416123999990759
 31
0.0
  0
LINE
  8
DETAIL
  6
CONTINUOUS
 62
     5
 10
161.89304094755329
 20
-3.6416123999990759
 30
0.0
 11
161.89304094755329
 21
-2.8323652002020481
 31
0.0
  0
LINE
  8
DETAIL
  6
CONTINUOUS
 62
     5
 10
161.69072914745169
 20
-2.8323652002020481
 30
0.0
 11
161.69072914745169
 21
-123.3090421002014
 31
0.0
  0
LINE
  8
DETAIL
  6
CONTINUOUS
 62
     5
 10
161.69072914745169
 20
-168.9303530001005
 30
0.0
 11
161.69072914745169
 21
-252.63367419999921
 31
0.0
  0
LINE
  8
DETAIL
  6
CONTINUOUS
 62
     5
 10
160.67917014755491
 20
-254.6567922001002
 30
0.0
 11
160.67917014755491
 21
-252.63367419999921
 31
0.0
  0
LINE
  8
DETAIL
  6
CONTINUOUS
 62
     5
 10
160.67917014755491
 20
-2.8323652002020481
 30
0.0
 11
160.67917014755491
 21
-2.4277415999993082
 31
0.0
  0
LINE
  8
DETAIL
  6
CONTINUOUS
 62
     5
 10
161.9472269686803
 20
-0.1958330869881593
 30
0.0
 11
155.32998183243669
 21
4.1014561506383416
 31
0.0
  0
LINE
  8
DETAIL
  6
CONTINUOUS
 62
     5
 10
160.15982910777259
 20
0.0000000000002274
 30
0.0
 11
154.88923421835261
 21
3.422764341762786
 31
0.0
  0
LINE
  8
DETAIL
  6
CONTINUOUS
 62
     5
 10
142.66675110324189
 20
-140.9388536191689
 30
0.0
 11
142.8218323858755
 21
-140.15175427536749
 31
0.0
  0
LINE
  8
DETAIL
  6
CONTINUOUS
 62
     5
 10
142.8218323858755
 20
-140.15175427536749
 30
0.0
 11
142.97008854003519
 21
-139.35903111488301
 31
0.0
  0
LINE
  8
DETAIL
  6
CONTINUOUS
 62
     5
 10
142.97008854003519
 20
-139.35903111488301
 30
0.0
 11
143.10914259882071
 21
-138.57156276194539
 31
0.0
  0
LINE
  8
DETAIL
  6
CONTINUOUS
 62
     5
 10
143.10914259882071
 20
-138.57156276194539
 30
0.0
 11
143.24006368258509
 21
-137.78584821560869
 31
0.0
  0
LINE
  8
DETAIL
  6
CONTINUOUS
 62
     5
 10
143.24006368258509
 20
-137.78584821560869
 30
0.0
 11
143.3629035562362
 21
-137.0028962058457
 31
0.0
  0
LINE
  8
DETAIL
  6
CONTINUOUS
 62
     5
 10
143.3629035562362
 20
-137.0028962058457
 30
0.0
 11
143.47833731918129
 21
-136.22005616473939
 31
0.0
  0
LINE
  8
DETAIL
  6
CONTINUOUS
 62
     5
 10
143.47833731918129
 20
-136.22005616473939
 30
0.0
 11
143.58705036687661
 21
-135.43487795902209
 31
0.0
  0
LINE
  8
DETAIL
  6
CONTINUOUS
 62
     5
 10
143.58705036687661
 20
-135.43487795902209
 30
0.0
 11
143.68906357607469
 21
-134.6477690150198
 31
0.0
  0
LINE
  8
DETAIL
  6
CONTINUOUS
 62
     5
 10
143.68906357607469
 20
-134.6477690150198
 30
0.0
 11
143.78467046620341
 21
-133.85823863729709
 31
0.0
  0
LINE
  8
DETAIL
  6
CONTINUOUS
 62
     5
 10
143.78467046620341
 20
-133.85823863729709
 30
0.0
 11
143.8737385059367
 21
-133.0665310615143
 31
0.0
  0
LINE
  8
DETAIL
  6
CONTINUOUS
 62
     5
 10
124.8755311475534
 20
-14.02023890010037
 30
0.0
 11
124.8755311475534
 21
-144.44931476517041
 31
0.0
  0
LINE
  8
DETAIL
  6
CONTINUOUS
 62
     5
 10
124.8755311475534
 20
-177.02282500020169
 30
0.0
 11
124.8755311475534
 21
-251.3560837001003
 31
0.0
  0
LINE
  8
DETAIL
  6
CONTINUOUS
 62
     5
 10
138.93984996011659
 20
-154.3128720613652
 30
0.0
 11
138.93984996011659
 21
-153.6935010690934
 31
0.0
  0
LINE
  8
DETAIL
  6
CONTINUOUS
 62
     5
 10
138.56598522873259
 20
-155.37546239999921
 30
0.0
 11
138.56598522873259
 21
-154.75609140772741
 31
0.0
  0
LINE
  8
DETAIL
  6
CONTINUOUS
 62
     5
 10
116.7830591474512
 20
-151.73384999999939
 30
0.0
 11
116.7830591474512
 21
-171.9650300001006
 31
0.0
  0
LINE
  8
DETAIL
  6
CONTINUOUS
 62
     5
 10
121.8408541475537
 20
-10.98556190010072
 30
0.0
 11
124.8755311475534
 21
-14.02023890010037
 31
0.0
  0
LINE
  8
DETAIL
  6
CONTINUOUS
 62
     5
 10
154.88923421835261
 20
-258.8888037419631
 30
0.0
 11
155.32998183243669
 21
-259.56749555084002
 31
0.0
  0
LINE
  8
DETAIL
  6
CONTINUOUS
 62
     5
 10
119.8177361474509
 20
-171.9650300001006
 30
0.0
 11
124.8755311475534
 21
-177.02282500020169
 31
0.0
  0
LINE
  8
DETAIL
  6
CONTINUOUS
 62
     5
 10
-107.47094585254941
 20
-94.815568637367704
 30
0.0
 11
-107.47094585254941
 21
-160.18451176293431
 31
0.0
  0
LINE
  8
DETAIL
  6
CONTINUOUS
 62
     5
 10
-115.56341785264981
 20
-171.9650300001006
 30
0.0
 11
-115.56341785264981
 21
-151.73384999999939
 31
0.0
  0
LINE
  8
DETAIL
  6
CONTINUOUS
 62
     5
 10
-123.65588985244629
 20
-251.3560837001003
 30
0.0
 11
-123.65588985244629
 21
-177.02282500020169
 31
0.0
  0
LINE
  8
DETAIL
  6
CONTINUOUS
 62
     5
 10
-123.65588985244629
 20
-146.67605500020159
 30
0.0
 11
-123.65588985244629
 21
-14.02023890010037
 31
0.0
  0
LINE
  8
DETAIL
  6
CONTINUOUS
 62
     5
 10
-138.5659649338277
 20
-155.37546239999921
 30
0.0
 11
-138.5659649338277
 21
-154.75609140772741
 31
0.0
  0
LINE
  8
DETAIL
  6
CONTINUOUS
 62
     5
 10
-138.93982966521159
 20
-154.3128720613652
 30
0.0
 11
-138.93982966521159
 21
-153.6935010690934
 31
0.0
  0
LINE
  8
DETAIL
  6
CONTINUOUS
 62
     5
 10
-161.28614985264991
 20
-2.4277415999993082
 30
0.0
 11
-161.28614985264991
 21
-2.8323652002020481
 31
0.0
  0
LINE
  8
DETAIL
  6
CONTINUOUS
 62
     5
 10
-161.28614985264991
 20
-253.03829780020189
 30
0.0
 11
-161.28614985264991
 21
-252.63367419999921
 31
0.0
  0
LINE
  8
DETAIL
  6
CONTINUOUS
 62
     5
 10
-162.50002065264829
 20
-252.63367419999921
 30
0.0
 11
-162.50002065264829
 21
-168.9303530001005
 31
0.0
  0
LINE
  8
DETAIL
  6
CONTINUOUS
 62
     5
 10
-162.50002065264829
 20
-123.3090421002014
 30
0.0
 11
-162.50002065264829
 21
-2.8323652002020481
 31
0.0
  0
LINE
  8
DETAIL
  6
CONTINUOUS
 62
     5
 10
-163.61273555244679
 20
-123.3090421002014
 30
0.0
 11
-163.61273555244679
 21
-119.26280609999939
 31
0.0
  0
LINE
  8
DETAIL
  6
CONTINUOUS
 62
     5
 10
-144.10093076192879
 20
-130.67891388129991
 30
0.0
 11
-144.16278743535901
 21
-129.87896137852729
 31
0.0
  0
LINE
  8
DETAIL
  6
CONTINUOUS
 62
     5
 10
-144.0321336668849
 20
-131.47682632943929
 30
0.0
 11
-144.10093076192879
 21
-130.67891388129991
 31
0.0
  0
LINE
  8
DETAIL
  6
CONTINUOUS
 62
     5
 10
-143.956302261563
 20
-132.27271788298569
 30
0.0
 11
-144.0321336668849
 21
-131.47682632943929
 31
0.0
  0
LINE
  8
DETAIL
  6
CONTINUOUS
 62
     5
 10
-143.8737182110317
 20
-133.0665310615143
 30
0.0
 11
-143.956302261563
 21
-132.27271788298569
 31
0.0
  0
LINE
  8
DETAIL
  6
CONTINUOUS
 62
     5
 10
-143.78465017130199
 20
-133.85823863729709
 30
0.0
 11
-143.8737182110317
 21
-133.0665310615143
 31
0.0
  0
LINE
  8
DETAIL
  6
CONTINUOUS
 62
     5
 10
-143.6890432811733
 20
-134.6477690150198
 30
0.0
 11
-143.78465017130199
 21
-133.85823863729709
 31
0.0
  0
LINE
  8
DETAIL
  6
CONTINUOUS
 62
     5
 10
-143.58703007197161
 20
-135.43487795902209
 30
0.0
 11
-143.6890432811733
 21
-134.6477690150198
 31
0.0
  0
LINE
  8
DETAIL
  6
CONTINUOUS
 62
     5
 10
-143.47831702427811
 20
-136.22005616473939
 30
0.0
 11
-143.58703007197161
 21
-135.43487795902209
 31
0.0
  0
LINE
  8
DETAIL
  6
CONTINUOUS
 62
     5
 10
-143.36288326133129
 20
-137.0028962058457
 30
0.0
 11
-143.47831702427811
 21
-136.22005616473939
 31
0.0
  0
LINE
  8
DETAIL
  6
CONTINUOUS
 62
     5
 10
-143.24004338768009
 20
-137.78584821560869
 30
0.0
 11
-143.36288326133129
 21
-137.0028962058457
 31
0.0
  0
LINE
  8
DETAIL
  6
CONTINUOUS
 62
     5
 10
-143.10912230391929
 20
-138.57156276194539
 30
0.0
 11
-143.24004338768009
 21
-137.78584821560869
 31
0.0
  0
LINE
  8
DETAIL
  6
CONTINUOUS
 62
     5
 10
-142.97006824513031
 20
-139.35903111488301
 30
0.0
 11
-143.10912230391929
 21
-138.57156276194539
 31
0.0
  0
LINE
  8
DETAIL
  6
CONTINUOUS
 62
     5
 10
-142.8218120909705
 20
-140.15175427536749
 30
0.0
 11
-142.97006824513031
 21
-139.35903111488301
 31
0.0
  0
LINE
  8
DETAIL
  6
CONTINUOUS
 62
     5
 10
-142.66673080833701
 20
-140.9388536191689
 30
0.0
 11
-142.8218120909705
 21
-140.15175427536749
 31
0.0
  0
LINE
  8
DETAIL
  6
CONTINUOUS
 62
     5
 10
-118.5980948526494
 20
-151.73384999999939
 30
0.0
 11
-123.65588985244629
 21
-146.67605500020159
 31
0.0
  0
LINE
  8
DETAIL
  6
CONTINUOUS
 62
     5
 10
-220.50004265254941
 20
-137.57253490142719
 30
0.0
 11
-220.50004265254941
 21
-119.26280609999939
 31
0.0
  0
LINE
  8
DETAIL
  6
CONTINUOUS
 62
     5
 10
-142.50622293389549
 20
-141.71215214568679
 30
0.0
 11
-142.66673080833701
 21
-140.9388536191689
 31
0.0
  0
LINE
  8
DETAIL
  6
CONTINUOUS
 62
     5
 10
-142.34215464105091
 20
-142.46704598619891
 30
0.0
 11
-142.50622293389549
 21
-141.71215214568679
 31
0.0
  0
LINE
  8
DETAIL
  6
CONTINUOUS
 62
     5
 10
-142.17731999302941
 20
-143.1933583176999
 30
0.0
 11
-142.34215464105091
 21
-142.46704598619891
 31
0.0
  0
LINE
  8
DETAIL
  6
CONTINUOUS
 62
     5
 10
-142.0103338570307
 20
-143.89963100395309
 30
0.0
 11
-142.17731999302941
 21
-143.1933583176999
 31
0.0
  0
LINE
  8
DETAIL
  6
CONTINUOUS
 62
     5
 10
-141.84127093831469
 20
-144.58891352936081
 30
0.0
 11
-142.0103338570307
 21
-143.89963100395309
 31
0.0
  0
LINE
  8
DETAIL
  6
CONTINUOUS
 62
     5
 10
-141.66854578596119
 20
-145.2675062099058
 30
0.0
 11
-141.84127093831469
 21
-144.58891352936081
 31
0.0
  0
LINE
  8
DETAIL
  6
CONTINUOUS
 62
     5
 10
-141.4912087075127
 20
-145.94096772748139
 30
0.0
 11
-141.66854578596119
 21
-145.2675062099058
 31
0.0
  0
LINE
  8
DETAIL
  6
CONTINUOUS
 62
     5
 10
-141.30742713466589
 20
-146.61457246603121
 30
0.0
 11
-141.4912087075127
 21
-145.94096772748139
 31
0.0
  0
LINE
  8
DETAIL
  6
CONTINUOUS
 62
     5
 10
-138.4777174331239
 20
-155.06507872513319
 30
0.0
 11
-138.345806896873
 21
-155.54648823671619
 31
0.0
  0
LINE
  8
DETAIL
  6
CONTINUOUS
 62
     5
 10
-138.52142647073831
 20
-154.90956726034599
 30
0.0
 11
-138.4777174331239
 21
-155.06507872513319
 31
0.0
  0
LINE
  8
DETAIL
  6
CONTINUOUS
 62
     5
 10
-138.29800584738129
 20
-155.71642037250439
 30
0.0
 11
-138.345806896873
 21
-155.54648823671619
 31
0.0
  0
LINE
  8
DETAIL
  6
CONTINUOUS
 62
     5
 10
-141.11562538816821
 20
-147.29439288524301
 30
0.0
 11
-141.30742713466589
 21
-146.61457246603121
 31
0.0
  0
LINE
  8
DETAIL
  6
CONTINUOUS
 62
     5
 10
-138.249434647546
 20
-155.88510893225271
 30
0.0
 11
-138.29800584738129
 21
-155.71642037250439
 31
0.0
  0
LINE
  8
DETAIL
  6
CONTINUOUS
 62
     5
 10
-138.5659649338277
 20
-154.75609140772741
 30
0.0
 11
-138.52142647073831
 21
-154.90956726034599
 31
0.0
  0
LINE
  8
DETAIL
  6
CONTINUOUS
 62
     5
 10
-140.91408310901991
 20
-147.9835934370451
 30
0.0
 11
-141.11562538816821
 21
-147.29439288524301
 31
0.0
  0
LINE
  8
DETAIL
  6
CONTINUOUS
 62
     5
 10
-138.19994281350321
 20
-156.0530035422041
 30
0.0
 11
-138.249434647546
 21
-155.88510893225271
 31
0.0
  0
LINE
  8
DETAIL
  6
CONTINUOUS
 62
     5
 10
-138.1494246932734
 20
-156.22053704683481
 30
0.0
 11
-138.19994281350321
 21
-156.0530035422041
 31
0.0
  0
LINE
  8
DETAIL
  6
CONTINUOUS
 62
     5
 10
-140.7001537936421
 20
-148.6894611769101
 30
0.0
 11
-140.91408310901991
 21
-147.9835934370451
 31
0.0
  0
LINE
  8
DETAIL
  6
CONTINUOUS
 62
     5
 10
-138.097795951363
 20
-156.38760991723601
 30
0.0
 11
-138.1494246932734
 21
-156.22053704683481
 31
0.0
  0
LINE
  8
DETAIL
  6
CONTINUOUS
 62
     5
 10
-138.89417213766771
 20
-154.46057623387759
 30
0.0
 11
-138.93982966521159
 21
-154.3128720613652
 31
0.0
  0
LINE
  8
DETAIL
  6
CONTINUOUS
 62
     5
 10
-140.47504019590909
 20
-149.40570075024681
 30
0.0
 11
-140.7001537936421
 21
-148.6894611769101
 31
0.0
  0
LINE
  8
DETAIL
  6
CONTINUOUS
 62
     5
 10
-138.0449450215101
 20
-156.554337551858
 30
0.0
 11
-138.097795951363
 21
-156.38760991723601
 31
0.0
  0
LINE
  8
DETAIL
  6
CONTINUOUS
 62
     5
 10
-138.61311585869859
 20
-154.60827619213501
 30
0.0
 11
-138.5659649338277
 21
-154.75609140772741
 31
0.0
  0
LINE
  8
DETAIL
  6
CONTINUOUS
 62
     5
 10
-138.8500348949901
 20
-154.59786753042891
 30
0.0
 11
-138.89417213766771
 21
-154.46057623387759
 31
0.0
  0
LINE
  8
DETAIL
  6
CONTINUOUS
 62
     5
 10
-137.99084794403731
 20
-156.72050801340919
 30
0.0
 11
-138.0449450215101
 21
-156.554337551858
 31
0.0
  0
LINE
  8
DETAIL
  6
CONTINUOUS
 62
     5
 10
-140.2384668530276
 20
-150.13044575695929
 30
0.0
 11
-140.47504019590909
 21
-149.40570075024681
 31
0.0
  0
LINE
  8
DETAIL
  6
CONTINUOUS
 62
     5
 10
-138.65831615631299
 20
-154.47095649768309
 30
0.0
 11
-138.61311585869859
 21
-154.60827619213501
 31
0.0
  0
LINE
  8
DETAIL
  6
CONTINUOUS
 62
     5
 10
-137.93546242889261
 20
-156.88586866503081
 30
0.0
 11
-137.99084794403731
 21
-156.72050801340919
 31
0.0
  0
LINE
  8
DETAIL
  6
CONTINUOUS
 62
     5
 10
-138.80741793657489
 20
-154.7238746779542
 30
0.0
 11
-138.8500348949901
 21
-154.59786753042891
 31
0.0
  0
LINE
  8
DETAIL
  6
CONTINUOUS
 62
     5
 10
-139.9922219120044
 20
-150.85769639056051
 30
0.0
 11
-140.2384668530276
 21
-150.13044575695929
 31
0.0
  0
LINE
  8
DETAIL
  6
CONTINUOUS
 62
     5
 10
-138.70156582667639
 20
-154.34499154279069
 30
0.0
 11
-138.65831615631299
 21
-154.47095649768309
 31
0.0
  0
LINE
  8
DETAIL
  6
CONTINUOUS
 62
     5
 10
-137.87873190271881
 20
-157.05065700327461
 30
0.0
 11
-137.93546242889261
 21
-156.88586866503081
 31
0.0
  0
LINE
  8
DETAIL
  6
CONTINUOUS
 62
     5
 10
-139.73733645502489
 20
-151.58241901167429
 30
0.0
 11
-139.9922219120044
 21
-150.85769639056051
 31
0.0
  0
LINE
  8
DETAIL
  6
CONTINUOUS
 62
     5
 10
-137.82062843556471
 20
-157.214836342235
 30
0.0
 11
-137.87873190271881
 21
-157.05065700327461
 31
0.0
  0
LINE
  8
DETAIL
  6
CONTINUOUS
 62
     5
 10
-138.76632126302769
 20
-154.83794943454649
 30
0.0
 11
-138.80741793657489
 21
-154.7238746779542
 31
0.0
  0
LINE
  8
DETAIL
  6
CONTINUOUS
 62
     5
 10
-138.74286487008891
 20
-154.2310140345464
 30
0.0
 11
-138.70156582667639
 21
-154.34499154279069
 31
0.0
  0
LINE
  8
DETAIL
  6
CONTINUOUS
 62
     5
 10
-139.1244297711664
 20
-153.84716188466811
 30
0.0
 11
-139.18013886602881
 21
-153.6935010690934
 31
0.0
  0
LINE
  8
DETAIL
  6
CONTINUOUS
 62
     5
 10
-137.76102380625619
 20
-157.37897659121771
 30
0.0
 11
-137.82062843556471
 21
-157.214836342235
 31
0.0
  0
LINE
  8
DETAIL
  6
CONTINUOUS
 62
     5
 10
-139.4758062146675
 20
-152.2998487209959
 30
0.0
 11
-139.73733645502489
 21
-151.58241901167429
 31
0.0
  0
LINE
  8
DETAIL
  6
CONTINUOUS
 62
     5
 10
-138.7923926984358
 20
-154.0968336627723
 30
0.0
 11
-138.93982966521159
 21
-153.6935010690934
 31
0.0
  0
LINE
  8
DETAIL
  6
CONTINUOUS
 62
     5
 10
-138.74286487008891
 20
-154.2310140345464
 30
0.0
 11
-138.7923926984358
 21
-154.0968336627723
 31
0.0
  0
LINE
  8
DETAIL
  6
CONTINUOUS
 62
     5
 10
-138.61636137200821
 20
-155.24122977412179
 30
0.0
 11
-138.76632126302769
 21
-154.83794943454649
 31
0.0
  0
LINE
  8
DETAIL
  6
CONTINUOUS
 62
     5
 10
-137.69976716524889
 20
-157.54354799588029
 30
0.0
 11
-137.76102380625619
 21
-157.37897659121771
 31
0.0
  0
LINE
  8
DETAIL
  6
CONTINUOUS
 62
     5
 10
-138.5659649338277
 20
-155.37546239999921
 30
0.0
 11
-138.61636137200821
 21
-155.24122977412179
 31
0.0
  0
LINE
  8
DETAIL
  6
CONTINUOUS
 62
     5
 10
-139.06580853925789
 20
-154.0027088785439
 30
0.0
 11
-139.1244297711664
 21
-153.84716188466811
 31
0.0
  0
LINE
  8
DETAIL
  6
CONTINUOUS
 62
     5
 10
-139.21026304641509
 20
-153.00273739279899
 30
0.0
 11
-139.4758062146675
 21
-152.2998487209959
 31
0.0
  0
LINE
  8
DETAIL
  6
CONTINUOUS
 62
     5
 10
-137.6368984652772
 20
-157.70881286095599
 30
0.0
 11
-137.69976716524889
 21
-157.54354799588029
 31
0.0
  0
LINE
  8
DETAIL
  6
CONTINUOUS
 62
     5
 10
-137.5723447090086
 20
-157.8752372469819
 30
0.0
 11
-137.6368984652772
 21
-157.70881286095599
 31
0.0
  0
LINE
  8
DETAIL
  6
CONTINUOUS
 62
     5
 10
-138.93982966521159
 20
-153.6935010690934
 30
0.0
 11
-139.21026304641509
 21
-153.00273739279899
 31
0.0
  0
LINE
  8
DETAIL
  6
CONTINUOUS
 62
     5
 10
-137.50629389711409
 20
-158.04268013342579
 30
0.0
 11
-137.5723447090086
 21
-157.8752372469819
 31
0.0
  0
LINE
  8
DETAIL
  6
CONTINUOUS
 62
     5
 10
-139.00427517060689
 20
-154.1585356553758
 30
0.0
 11
-139.06580853925789
 21
-154.0027088785439
 31
0.0
  0
LINE
  8
DETAIL
  6
CONTINUOUS
 62
     5
 10
-137.43888290080119
 20
-158.2111968855431
 30
0.0
 11
-137.50629389711409
 21
-158.04268013342579
 31
0.0
  0
LINE
  8
DETAIL
  6
CONTINUOUS
 62
     5
 10
-137.30039021629
 20
-158.55089786843311
 30
0.0
 11
-137.43888290080119
 21
-158.2111968855431
 31
0.0
  0
LINE
  8
DETAIL
  6
CONTINUOUS
 62
     5
 10
-137.15698822554899
 20
-158.89458564154049
 30
0.0
 11
-137.30039021629
 21
-158.55089786843311
 31
0.0
  0
LINE
  8
DETAIL
  6
CONTINUOUS
 62
     5
 10
-138.93982966521159
 20
-154.3128720613652
 30
0.0
 11
-139.00427517060689
 21
-154.1585356553758
 31
0.0
  0
LINE
  8
DETAIL
  6
CONTINUOUS
 62
     5
 10
-137.08333427320119
 20
-159.06817417224761
 30
0.0
 11
-137.15698822554899
 21
-158.89458564154049
 31
0.0
  0
LINE
  8
DETAIL
  6
CONTINUOUS
 62
     5
 10
-120.6212128524467
 20
-254.3907607001004
 30
0.0
 11
-123.65588985244629
 21
-251.3560837001003
 31
0.0
  0
LINE
  8
DETAIL
  6
CONTINUOUS
 62
     5
 10
-196.65168615326269
 20
-166.85640159928539
 30
0.0
 11
-218.42609125173479
 21
-142.57949650081471
 31
0.0
  0
ARC
  8
DETAIL
  6
CONTINUOUS
 62
     5
 10
149.1779455675005
 20
-128.49646884373851
 30
0.0
 40
5.2022007971782838
 50
94.31913467068884
 51
195.41161033372401
  0
ARC
  8
DETAIL
  6
CONTINUOUS
 62
     5
 10
213.41904994755259
 20
-137.57253490142719
 30
0.0
 40
7.0809129998988443
 50
315.00000000000892
 51
0.0
  0
ARC
  8
DETAIL
  6
CONTINUOUS
 62
     5
 10
191.64474484877701
 20
-161.84944000020161
 30
0.0
 40
7.0809129998988443
 50
270.0
 51
315.00000000000892
  0
ARC
  8
DETAIL
  6
CONTINUOUS
 62
     5
 10
143.5951814473492
 20
-161.84944000020161
 30
0.0
 40
7.0809129998988443
 50
156.8721915298068
 51
270.0
  0
ARC
  8
DETAIL
  6
CONTINUOUS
 62
     5
 10
150.36126834755211
 20
-147.1818344999995
 30
0.0
 40
5.0577866037568322
 50
90.0
 51
270.00000115424109
  0
ARC
  8
DETAIL
  6
CONTINUOUS
 62
     5
 10
174.33521664755341
 20
-147.1818344999995
 30
0.0
 40
5.0577866037568322
 50
270.0
 51
90.000001154345313
  0
ARC
  8
DETAIL
  6
CONTINUOUS
 62
     5
 10
180.56766289755339
 20
-230.53429867350701
 30
0.0
 40
3.0346769999999998
 50
270.0
 51
0.0
  0
CIRCLE
  8
DETAIL
  6
CONTINUOUS
 62
     5
 10
202.77138294734959
 20
-143.54022209999931
 30
0.0
 40
3.0346769999999998
  0
ARC
  8
DETAIL
  6
CONTINUOUS
 62
     5
 10
169.98551294734989
 20
-240.23352289188031
 30
0.0
 40
1.6184943998988439
 50
273.60040798250918
 51
359.58234864019897
  0
ARC
  8
DETAIL
  6
CONTINUOUS
 62
     5
 10
169.98551294734989
 20
-240.2570021083209
 30
0.0
 40
1.6184943998988439
 50
0.4176513618853735
 51
86.39959201749086
  0
ARC
  8
DETAIL
  6
CONTINUOUS
 62
     5
 10
166.59679029755441
 20
-231.34354587360741
 30
0.0
 40
1.6184943998988439
 50
90.0
 51
180.0
  0
ARC
  8
DETAIL
  6
CONTINUOUS
 62
     5
 10
223.07224149745161
 20
-228.91580427360779
 30
0.0
 40
1.6184943998988439
 50
270.0
 51
0.0
  0
ARC
  8
DETAIL
  6
CONTINUOUS
 62
     5
 10
161.28610554755409
 20
-254.2521686002012
 30
0.0
 40
1.2138708
 50
303.00000000001751
 51
90.0
  0
ARC
  8
DETAIL
  6
CONTINUOUS
 62
     5
 10
160.4768583474515
 20
-254.2521686002012
 30
0.0
 40
1.2138708
 50
270.0
 51
80.381684631412199
  0
ARC
  8
DETAIL
  6
CONTINUOUS
 62
     5
 10
166.59679029755441
 20
-231.34354587360741
 30
0.0
 40
0.8092472001011558
 50
90.0
 51
180.0
  0
ARC
  8
DETAIL
  6
CONTINUOUS
 62
     5
 10
160.4768583474515
 20
-254.2521686002012
 30
0.0
 40
0.4046235998988441
 50
300.04402134956541
 51
59.955978650317753
  0
ARC
  8
DETAIL
  6
CONTINUOUS
 62
     5
 10
53.359866117244557
 20
-123.3090421002014
 30
0.0
 40
91.040310000000005
 50
336.8721915298068
 51
339.37670346839423
  0
ARC
  8
DETAIL
  6
CONTINUOUS
 62
     5
 10
53.359866117244557
 20
-123.3090421002014
 30
0.0
 40
91.040310000000005
 50
340.50361921991993
 51
355.86165577969803
  0
ARC
  8
DETAIL
  6
CONTINUOUS
 62
     5
 10
169.98551294734989
 20
-74.13553509198141
 30
0.0
 40
1.6184943998988439
 50
273.60040798250918
 51
359.58234864019897
  0
ARC
  8
DETAIL
  6
CONTINUOUS
 62
     5
 10
169.98551294734989
 20
-74.159014308421547
 30
0.0
 40
1.6184943998988439
 50
0.4176513618853735
 51
86.39959201749086
  0
ARC
  8
DETAIL
  6
CONTINUOUS
 62
     5
 10
223.07224149745161
 20
-90.534533073607946
 30
0.0
 40
1.6184943998988439
 50
0.0
 51
90.0
  0
ARC
  8
DETAIL
  6
CONTINUOUS
 62
     5
 10
161.28610554755409
 20
-1.2138707999990861
 30
0.0
 40
1.2138708
 50
270.0
 51
56.99999999998257
  0
ARC
  8
DETAIL
  6
CONTINUOUS
 62
     5
 10
160.46766235653291
 20
-1.22306679091821
 30
0.0
 40
1.223101361824886
 50
279.95807060381759
 51
89.569212782553535
  0
ARC
  8
DETAIL
  6
CONTINUOUS
 62
     5
 10
166.59679029755441
 20
-88.106791473607458
 30
0.0
 40
0.8092472001011558
 50
180.0
 51
270.0
  0
ARC
  8
DETAIL
  6
CONTINUOUS
 62
     5
 10
-191.6447245538757
 20
-161.84944000020161
 30
0.0
 40
7.0809129998988443
 50
224.99999999999099
 51
270.0
  0
ARC
  8
DETAIL
  6
CONTINUOUS
 62
     5
 10
-213.41912965264959
 20
-137.57253490142719
 30
0.0
 40
7.0809129998988443
 50
180.0
 51
224.99999999999099
  0
ARC
  8
DETAIL
  6
CONTINUOUS
 62
     5
 10
-151.22523844969419
 20
-130.3899551001002
 30
0.0
 40
7.0809129998988443
 50
4.1383442203020913
 51
90.0
  0
ARC
  8
DETAIL
  6
CONTINUOUS
 62
     5
 10
-143.5951611524479
 20
-161.84944000020161
 30
0.0
 40
7.0809129998988443
 50
270.0
 51
23.127808470193202
  0
ARC
  8
DETAIL
  6
CONTINUOUS
 62
     5
 10
-174.9421963526502
 20
-147.1818344999995
 30
0.0
 40
5.0577866037568322
 50
89.99999884575891
 51
270.0
  0
ARC
  8
DETAIL
  6
CONTINUOUS
 62
     5
 10
-152.80034805265041
 20
-147.1818344999995
 30
0.0
 40
5.0577866037568322
 50
269.99999884586322
 51
90.0
  0
ARC
  8
DETAIL
  6
CONTINUOUS
 62
     5
 10
-161.28614985264991
 20
-254.2521686002012
 30
0.0
 40
1.2138708
 50
90.0
 51
270.0
  0
ARC
  8
DETAIL
  6
CONTINUOUS
 62
     5
 10
0.0000000000236469
 20
-131.05776952350061
 30
0.0
 40
111.3479740090674
 50
195.1640152626191
 51
344.83598473729683
  0
ARC
  8
DETAIL
  6
CONTINUOUS
 62
     5
 10
-53.359845822343217
 20
-123.3090421002014
 30
0.0
 40
91.040310000000005
 50
184.13834422030209
 51
199.49638078007999
  0
ARC
  8
DETAIL
  6
CONTINUOUS
 62
     5
 10
-53.359845822343217
 20
-123.3090421002014
 30
0.0
 40
91.040310000000005
 50
200.6232965316058
 51
203.1278084701932
  0
CIRCLE
  8
DETAIL
  6
CONTINUOUS
 62
     5
 10
0.0000101474515759
 20
-127.5000401999993
 30
0.0
 40
104.0
  0
CIRCLE
  8
DETAIL
  6
CONTINUOUS
 62
     5
 10
0.0000101474515759
 20
-127.5000401999993
 30
0.0
 40
96.0
  0
ARC
  8
DETAIL
  6
CONTINUOUS
 62
     5
 10
-161.28614985264991
 20
-1.2138707999990861
 30
0.0
 40
1.2138708
 50
90.0
 51
270.0
  0
LINE
  8
DETAIL
  6
CONTINUOUS
 62
     5
 10
170.08715055354421
 20
-243.69949973460069
 30
0.0
 11
164.97829589735099
 21
-243.43167592350599
 31
0.0
  0
LINE
  8
DETAIL
  6
CONTINUOUS
 62
     5
 10
170.08715055354421
 20
-246.90662041307749
 30
0.0
 11
164.9782958972273
 21
-247.1869040754197
 31
0.0
  0
ARC
  8
DETAIL
  6
CONTINUOUS
 62
     5
 10
169.9855129472262
 20
-245.29132046561861
 30
0.0
 40
1.6184943998988439
 50
273.60040798250918
 51
359.58234864019897
  0
ARC
  8
DETAIL
  6
CONTINUOUS
 62
     5
 10
169.9855129472262
 20
-245.3147996820596
 30
0.0
 40
1.6184943998988439
 50
0.4176513618853735
 51
86.39959201749086
  0
LINE
  8
SIZE
  6
CONTINUOUS
 62
    30
 10
-162.50002065264829
 20
17.167634799797948
 30
0.0
 11
-162.50002065264829
 21
157.62701656796091
 31
0.0
  0
LINE
  8
SIZE
  6
CONTINUOUS
 62
    30
 10
162.49997634755249
 20
16.358387600000921
 30
0.0
 11
162.49997634755249
 21
157.62701656796091
 31
0.0
  0
LINE
  8
SIZE
  6
CONTINUOUS
 62
    30
 10
-150.50002065264829
 20
137.62701656796091
 30
0.0
 11
150.49997634755249
 21
137.62701656796091
 31
0.0
  0
CIRCLE
  8
SIZE
  6
CONTINUOUS
 62
    30
 10
-162.50002065264829
 20
137.62701656796091
 30
0.0
 40
6.0
  0
LINE
  8
SIZE
  6
CONTINUOUS
 62
    30
 10
-162.50002065264829
 20
137.62701656796091
 30
0.0
 11
-150.50002065264829
 21
137.62701656796091
 31
0.0
  0
CIRCLE
  8
SIZE
  6
CONTINUOUS
 62
    30
 10
162.49997634755249
 20
137.62701656796091
 30
0.0
 40
6.0
  0
LINE
  8
SIZE
  6
CONTINUOUS
 62
    30
 10
162.49997634755249
 20
137.62701656796091
 30
0.0
 11
150.49997634755249
 21
137.62701656796091
 31
0.0
  0
TEXT
  8
SIZE
  6
CONTINUOUS
 62
    30
 10
-74.057165009690749
 20
162.62701656796091
 30
0.0
 40
64.0
  1
325
 41
0.9
 72
     1
 11
-0.0000221525478992
 21
162.62701656796091
 31
0.0
  0
POINT
  8
DEFPOINTS
  6
CONTINUOUS
 62
    30
 10
-162.50002065264829
 20
-2.8323652002020481
 30
0.0
  0
POINT
  8
DEFPOINTS
  6
CONTINUOUS
 62
    30
 10
162.49997634755249
 20
-3.6416123999990759
 30
0.0
  0
POINT
  8
DEFPOINTS
  6
CONTINUOUS
 62
    30
 10
162.49997634755249
 20
137.62701656796091
 30
0.0
  0
LINE
  8
SIZE
  6
CONTINUOUS
 62
    30
 10
-220.50004265254941
 20
-99.262806099999352
 30
0.0
 11
-220.50004265254941
 21
285.62701656796088
 31
0.0
  0
LINE
  8
SIZE
  6
CONTINUOUS
 62
    30
 10
220.4999629474523
 20
-99.262806099999352
 30
0.0
 11
220.49996294745239
 21
285.62701656796088
 31
0.0
  0
LINE
  8
SIZE
  6
CONTINUOUS
 62
    30
 10
-208.50004265254941
 20
265.62701656796088
 30
0.0
 11
208.49996294745239
 21
265.62701656796088
 31
0.0
  0
CIRCLE
  8
SIZE
  6
CONTINUOUS
 62
    30
 10
-220.50004265254941
 20
265.62701656796088
 30
0.0
 40
6.0
  0
LINE
  8
SIZE
  6
CONTINUOUS
 62
    30
 10
-220.50004265254941
 20
265.62701656796088
 30
0.0
 11
-208.50004265254941
 21
265.62701656796088
 31
0.0
  0
CIRCLE
  8
SIZE
  6
CONTINUOUS
 62
    30
 10
220.49996294745239
 20
265.62701656796088
 30
0.0
 40
6.0
  0
LINE
  8
SIZE
  6
CONTINUOUS
 62
    30
 10
220.49996294745239
 20
265.62701656796088
 30
0.0
 11
208.49996294745239
 21
265.62701656796088
 31
0.0
  0
TEXT
  8
SIZE
  6
CONTINUOUS
 62
    30
 10
-40.214325566834688
 20
290.62701656796088
 30
0.0
 40
64.0
  1
441
 41
0.9
 72
     1
 11
21.49996014745102
 21
290.62701656796088
 31
0.0
  0
POINT
  8
DEFPOINTS
  6
CONTINUOUS
 62
    30
 10
-220.50004265254941
 20
-119.26280609999939
 30
0.0
  0
POINT
  8
DEFPOINTS
  6
CONTINUOUS
 62
    30
 10
220.4999629474523
 20
-119.26280609999939
 30
0.0
  0
POINT
  8
DEFPOINTS
  6
CONTINUOUS
 62
    30
 10
220.49996294745239
 20
265.62701656796088
 30
0.0
  0
LINE
  8
SIZE
  6
CONTINUOUS
 62
    30
 10
224.69073589735129
 20
-248.91580427360779
 30
0.0
 11
224.69073589735129
 21
-418.72136206699969
 31
0.0
  0
LINE
  8
SIZE
  6
CONTINUOUS
 62
    30
 10
161.69072914745169
 20
-272.63367419999918
 30
0.0
 11
161.69072914745169
 21
-418.72136206699969
 31
0.0
  0
LINE
  8
SIZE
  6
CONTINUOUS
 62
    30
 10
149.69072914745169
 20
-398.72136206699969
 30
0.0
 11
137.69072914745169
 21
-398.72136206699969
 31
0.0
  0
LINE
  8
SIZE
  6
CONTINUOUS
 62
    30
 10
236.69073589735129
 20
-398.72136206699969
 30
0.0
 11
396.73950732592232
 21
-398.72136206699969
 31
0.0
  0
LINE
  8
SIZE
  6
CONTINUOUS
 62
    30
 10
161.69072914745169
 20
-398.72136206699969
 30
0.0
 11
224.69073589735129
 21
-398.72136206699969
 31
0.0
  0
CIRCLE
  8
SIZE
  6
CONTINUOUS
 62
    30
 10
161.69072914745169
 20
-398.72136206699969
 30
0.0
 40
6.0
  0
LINE
  8
SIZE
  6
CONTINUOUS
 62
    30
 10
161.69072914745169
 20
-398.72136206699969
 30
0.0
 11
149.69072914745169
 21
-398.72136206699969
 31
0.0
  0
CIRCLE
  8
SIZE
  6
CONTINUOUS
 62
    30
 10
224.69073589735129
 20
-398.72136206699969
 30
0.0
 40
6.0
  0
LINE
  8
SIZE
  6
CONTINUOUS
 62
    30
 10
224.69073589735129
 20
-398.72136206699969
 30
0.0
 11
236.69073589735129
 21
-398.72136206699969
 31
0.0
  0
TEXT
  8
SIZE
  6
CONTINUOUS
 62
    30
 10
278.48236446877939
 20
-373.72136206699969
 30
0.0
 40
64.0
  1
63
 41
0.9
 72
     1
 11
325.11093589735083
 21
-373.72136206699969
 31
0.0
  0
POINT
  8
DEFPOINTS
  6
CONTINUOUS
 62
    30
 10
224.69073589735129
 20
-228.91580427360779
 30
0.0
  0
POINT
  8
DEFPOINTS
  6
CONTINUOUS
 62
    30
 10
161.69072914745169
 20
-252.63367419999921
 30
0.0
  0
POINT
  8
DEFPOINTS
  6
CONTINUOUS
 62
    30
 10
161.69072914745169
 20
-398.72136206699969
 30
0.0
  0
LINE
  8
SIZE
  6
CONTINUOUS
 62
    30
 10
-180.47685834745161
 20
-255.46603940020199
 30
0.0
 11
-332.34334851204488
 21
-255.46603940020211
 31
0.0
  0
LINE
  8
SIZE
  6
CONTINUOUS
 62
    30
 10
-180.47685834745161
 20
0.0000000000002242
 30
0.0
 11
-332.343348512045
 21
0.0000000000001997
 31
0.0
  0
LINE
  8
SIZE
  6
CONTINUOUS
 62
    30
 10
-312.34334851204488
 20
-243.46603940020199
 30
0.0
 11
-312.343348512045
 21
-11.999999999999799
 31
0.0
  0
CIRCLE
  8
SIZE
  6
CONTINUOUS
 62
    30
 10
-312.34334851204488
 20
-255.46603940020199
 30
0.0
 40
6.0
  0
LINE
  8
SIZE
  6
CONTINUOUS
 62
    30
 10
-312.34334851204488
 20
-255.46603940020199
 30
0.0
 11
-312.34334851204488
 21
-243.46603940020199
 31
0.0
  0
CIRCLE
  8
SIZE
  6
CONTINUOUS
 62
    30
 10
-312.343348512045
 20
0.000000000000203
 30
0.0
 40
6.0
  0
LINE
  8
SIZE
  6
CONTINUOUS
 62
    30
 10
-312.343348512045
 20
0.000000000000203
 30
0.0
 11
-312.343348512045
 21
-11.999999999999799
 31
0.0
  0
TEXT
  8
SIZE
  6
CONTINUOUS
 62
    30
 10
-337.34334851204488
 20
-203.840162557246
 30
0.0
 40
64.0
  1
255
 50
90.0
 41
0.9
 72
     1
 11
-337.34334851204488
 21
-129.78301970010321
 31
0.0
  0
POINT
  8
DEFPOINTS
  6
CONTINUOUS
 62
    30
 10
-160.47685834745161
 20
-255.46603940020199
 30
0.0
  0
POINT
  8
DEFPOINTS
  6
CONTINUOUS
 62
    30
 10
-160.47685834745161
 20
0.0000000000002274
 30
0.0
  0
POINT
  8
DEFPOINTS
  6
CONTINUOUS
 62
    30
 10
-312.343348512045
 20
0.000000000000203
 30
0.0
  0
LINE
  8
BASIS
  6
DASHDOT
 62
     6
 10
0.0
 20
58.888305302591782
 30
0.0
 11
0.0
 21
-317.44278090008203
 31
0.0
  0
LINE
  8
BASIS
  6
DASHDOT
 62
     6
 10
270.75108883167928
 20
-127.5000401999993
 30
0.0
 11
-270.75106853677607
 21
-127.5000401999993
 31
0.0
  0
LINE
  8
SIZE
  6
CONTINUOUS
 62
    30
 10
485.55934042916181
 20
-34.166918834678413
 30
0.0
 11
106.05845503886
 21
-107.1137196772514
 31
0.0
  0
LINE
  8
SIZE
  6
CONTINUOUS
 62
    30
 10
-106.0584753337631
 20
-147.88635571291201
 30
0.0
 11
-117.8427492433532
 21
-150.1515021593375
 31
0.0
  0
TEXT
  8
SIZE
  6
CONTINUOUS
 62
    30
 10
256.42842918081459
 20
-52.75228701779654
 30
0.0
 40
64.0
  1
φ192
 50
10.88055664511108
 41
0.9
 72
     1
 11
363.36229757183781
 21
-32.197700978232
 31
0.0
  0
LINE
  8
SIZE
  6
CONTINUOUS
 62
    30
 10
-94.274201424172986
 20
-145.6212092664864
 30
0.0
 11
94.274181129269863
 21
-109.378866123677
 31
0.0
  0
CIRCLE
  8
SIZE
  6
CONTINUOUS
 62
    30
 10
-94.274201424172986
 20
-145.6212092664864
 30
0.0
 40
6.0
  0
LINE
  8
SIZE
  6
CONTINUOUS
 62
    30
 10
-94.274201424172986
 20
-145.6212092664864
 30
0.0
 11
-106.0584753337631
 21
-147.88635571291201
 31
0.0
  0
CIRCLE
  8
SIZE
  6
CONTINUOUS
 62
    30
 10
94.274181129269863
 20
-109.378866123677
 30
0.0
 40
6.0
  0
LINE
  8
SIZE
  6
CONTINUOUS
 62
    30
 10
94.274181129269863
 20
-109.378866123677
 30
0.0
 11
106.05845503886
 21
-107.1137196772514
 31
0.0
  0
POINT
  8
DEFPOINTS
  6
CONTINUOUS
 62
    30
 10
94.274181129269863
 20
-109.378866123677
 30
0.0
  0
POINT
  8
DEFPOINTS
  6
CONTINUOUS
 62
    30
 10
-94.274201424172986
 20
-145.6212092664864
 30
0.0
  0
LINE
  8
SIZE
  6
CONTINUOUS
 62
    30
 10
513.0705966288366
 20
-254.15250002691971
 30
0.0
 11
112.6194452913912
 21
-155.30036605031589
 31
0.0
  0
LINE
  8
SIZE
  6
CONTINUOUS
 62
    30
 10
-112.6194655862916
 20
-99.699709339847772
 30
0.0
 11
-124.2697540799648
 21
-96.823813303099428
 31
0.0
  0
TEXT
  8
SIZE
  6
CONTINUOUS
 62
    30
 10
286.55002715380562
 20
-172.48502814311939
 30
0.0
 40
64.0
  1
φ208
 50
346.13364368714559
 41
0.9
 72
     1
 11
397.59391976778818
 21
-199.89642579624081
 31
0.0
  0
LINE
  8
SIZE
  6
CONTINUOUS
 62
    30
 10
-100.9691770926183
 20
-102.5756053765961
 30
0.0
 11
100.9691567977179
 21
-152.42447001356749
 31
0.0
  0
CIRCLE
  8
SIZE
  6
CONTINUOUS
 62
    30
 10
-100.9691770926183
 20
-102.5756053765961
 30
0.0
 40
6.0
  0
LINE
  8
SIZE
  6
CONTINUOUS
 62
    30
 10
-100.9691770926183
 20
-102.5756053765961
 30
0.0
 11
-112.6194655862915
 21
-99.699709339847743
 31
0.0
  0
CIRCLE
  8
SIZE
  6
CONTINUOUS
 62
    30
 10
100.9691567977179
 20
-152.42447001356749
 30
0.0
 40
6.0
  0
LINE
  8
SIZE
  6
CONTINUOUS
 62
    30
 10
100.9691567977179
 20
-152.42447001356749
 30
0.0
 11
112.6194452913911
 21
-155.3003660503158
 31
0.0
  0
POINT
  8
DEFPOINTS
  6
CONTINUOUS
 62
    30
 10
100.9691567977179
 20
-152.42447001356749
 30
0.0
  0
POINT
  8
DEFPOINTS
  6
CONTINUOUS
 62
    30
 10
-100.9691770926183
 20
-102.5756053765961
 30
0.0
  0
LINE
  8
BASIS
  6
DASHDOT
 62
     6
 10
-220.49997279990021
 20
-119.26280609999939
 30
0.0
 11
-180.49997279990021
 21
-119.26280609999939
 31
0.0
  0
LINE
  8
BASIS
  6
DASHDOT
 62
     6
 10
180.49997279989839
 20
-119.26280609999939
 30
0.0
 11
220.49997279989839
 21
-119.26280609999939
 31
0.0
  0
LINE
  8
BASIS
  6
DASHDOT
 62
     6
 10
200.49997279989839
 20
-99.262806099999352
 30
0.0
 11
200.49997279989839
 21
-139.26280609999941
 31
0.0
  0
LINE
  8
BASIS
  6
DASHDOT
 62
     6
 10
-200.49997279990021
 20
-99.262806099999352
 30
0.0
 11
-200.49997279990021
 21
-139.26280609999941
 31
0.0
  0
CIRCLE
  8
FIX
  6
CONTINUOUS
 62
    11
 10
-200.49997279990021
 20
-119.26280609999939
 30
0.0
 40
5.5
  0
CIRCLE
  8
FIX
  6
CONTINUOUS
 62
    11
 10
200.49997279989839
 20
-119.26280609999939
 30
0.0
 40
5.5
  0
LINE
  8
SIZE
  6
CONTINUOUS
 62
    30
 10
-200.49997279990021
 20
-159.26280609999941
 30
0.0
 11
-200.49997279990021
 21
-558.55249073405025
 31
0.0
  0
LINE
  8
SIZE
  6
CONTINUOUS
 62
    30
 10
200.49997279989839
 20
-159.26280609999941
 30
0.0
 11
200.49997279989839
 21
-558.55249073405025
 31
0.0
  0
LINE
  8
SIZE
  6
CONTINUOUS
 62
    30
 10
-188.49997279990021
 20
-538.55249073405025
 30
0.0
 11
188.49997279989839
 21
-538.55249073405025
 31
0.0
  0
CIRCLE
  8
SIZE
  6
CONTINUOUS
 62
    30
 10
-200.49997279990021
 20
-538.55249073405025
 30
0.0
 40
6.0
  0
LINE
  8
SIZE
  6
CONTINUOUS
 62
    30
 10
-200.49997279990021
 20
-538.55249073405025
 30
0.0
 11
-188.49997279990021
 21
-538.55249073405025
 31
0.0
  0
CIRCLE
  8
SIZE
  6
CONTINUOUS
 62
    30
 10
200.49997279989839
 20
-538.55249073405025
 30
0.0
 40
6.0
  0
LINE
  8
SIZE
  6
CONTINUOUS
 62
    30
 10
200.49997279989839
 20
-538.55249073405025
 30
0.0
 11
188.49997279989839
 21
-538.55249073405025
 31
0.0
  0
TEXT
  8
SIZE
  6
CONTINUOUS
 62
    30
 10
-40.214285714286618
 20
-513.55249073405025
 30
0.0
 40
64.0
  1
401
 41
0.9
 72
     1
 11
21.49999999999908
 21
-513.55249073405025
 31
0.0
  0
POINT
  8
DEFPOINTS
  6
CONTINUOUS
 62
    30
 10
-200.49997279990021
 20
-139.26280609999941
 30
0.0
  0
POINT
  8
DEFPOINTS
  6
CONTINUOUS
 62
    30
 10
200.49997279989839
 20
-139.26280609999941
 30
0.0
  0
POINT
  8
DEFPOINTS
  6
CONTINUOUS
 62
    30
 10
200.49997279989839
 20
-538.55249073405025
 30
0.0
  0
CIRCLE
  8
DETAIL
  6
CONTINUOUS
 62
     5
 10
-202.77138294734959
 20
-143.54022209999931
 30
0.0
 40
3.0346769999999998
  0
LINE
  8
OUTLINE
  6
CONTINUOUS
 62
     3
 10
170.0871505536679
 20
-238.6417021608622
 30
0.0
 11
165.78752988957879
 21
-238.40225578739501
 31
0.0
  0
LINE
  8
OUTLINE
  6
CONTINUOUS
 62
     3
 10
160.1598291077735
 20
-255.46603940020171
 30
0.0
 11
-161.28614985264991
 21
-255.46603940020171
 31
0.0
  0
LINE
  8
OUTLINE
  6
CONTINUOUS
 62
     3
 10
161.28610554755409
 20
-253.03829780020209
 30
0.0
 11
160.67917014755491
 21
-253.03829780020209
 31
0.0
  0
LINE
  8
OUTLINE
  6
CONTINUOUS
 62
     3
 10
-162.50002065264829
 20
-252.63367419999889
 30
0.0
 11
-161.28614985264991
 21
-252.63367419999889
 31
0.0
  0
LINE
  8
OUTLINE
  6
CONTINUOUS
 62
     3
 10
161.69072914745169
 20
-252.63367419999889
 30
0.0
 11
160.67917014755491
 21
-252.63367419999889
 31
0.0
  0
LINE
  8
OUTLINE
  6
CONTINUOUS
 62
     3
 10
161.69072914745169
 20
-251.82442700020189
 30
0.0
 11
162.49993582429761
 21
-251.82442700020189
 31
0.0
  0
LINE
  8
OUTLINE
  6
CONTINUOUS
 62
     3
 10
164.97829589735099
 20
-250.36085507340519
 30
0.0
 11
164.16904869755399
 21
-250.36085507340519
 31
0.0
  0
LINE
  8
OUTLINE
  6
CONTINUOUS
 62
     3
 10
162.49997634755351
 20
-248.84351657340591
 30
0.0
 11
163.10691174755169
 21
-248.8435165734054
 31
0.0
  0
LINE
  8
OUTLINE
  6
CONTINUOUS
 62
     3
 10
163.10691174755169
 20
-247.1744442234058
 30
0.0
 11
164.16904869755399
 21
-247.1744442234058
 31
0.0
  0
LINE
  8
OUTLINE
  6
CONTINUOUS
 62
     3
 10
180.56766289755339
 20
-233.5689756735064
 30
0.0
 11
165.78754309745179
 21
-233.5689756735064
 31
0.0
  0
LINE
  8
OUTLINE
  6
CONTINUOUS
 62
     3
 10
223.07224149745161
 20
-230.53429867350681
 30
0.0
 11
183.60233989755309
 21
-230.53429867350681
 31
0.0
  0
LINE
  8
OUTLINE
  6
CONTINUOUS
 62
     3
 10
170.0871505536679
 20
-241.84882283933891
 30
0.0
 11
164.97829589735099
 21
-242.12910650168121
 31
0.0
  0
LINE
  8
OUTLINE
  6
CONTINUOUS
 62
     3
 10
-162.50002065264829
 20
-168.93035300010021
 30
0.0
 11
-191.6447245538757
 21
-168.93035300010069
 31
0.0
  0
LINE
  8
OUTLINE
  6
CONTINUOUS
 62
     3
 10
164.97829589735099
 20
-72.26343069862105
 30
0.0
 11
165.3287590757491
 21
-72.285482478259809
 31
0.0
  0
LINE
  8
OUTLINE
  6
CONTINUOUS
 62
     3
 10
170.0871505536679
 20
-72.543714360963364
 30
0.0
 11
165.3287590757491
 21
-72.285482478259809
 31
0.0
  0
LINE
  8
OUTLINE
  6
CONTINUOUS
 62
     3
 10
-162.50002065264829
 20
-119.26280609999959
 30
0.0
 11
-220.50004265254941
 21
-119.26280609999959
 31
0.0
  0
LINE
  8
OUTLINE
  6
CONTINUOUS
 62
     3
 10
166.59679029755441
 20
-88.916038673405623
 30
0.0
 11
223.07224149745161
 21
-88.916038673405623
 31
0.0
  0
LINE
  8
OUTLINE
  6
CONTINUOUS
 62
     3
 10
165.78754309745179
 20
-79.609695873607976
 30
0.0
 11
164.97829589735099
 21
-79.609695873607976
 31
0.0
  0
LINE
  8
OUTLINE
  6
CONTINUOUS
 62
     3
 10
163.10691174755169
 20
-72.275890550100485
 30
0.0
 11
164.16904869755399
 21
-72.275890550100485
 31
0.0
  0
LINE
  8
OUTLINE
  6
CONTINUOUS
 62
     3
 10
164.97829589735099
 20
-72.275890550100485
 30
0.0
 11
165.00535269481131
 21
-72.275890550100485
 31
0.0
  0
LINE
  8
OUTLINE
  6
CONTINUOUS
 62
     3
 10
162.49997634755249
 20
-70.606818200099951
 30
0.0
 11
163.10691174755169
 21
-70.606818200099951
 31
0.0
  0
LINE
  8
OUTLINE
  6
CONTINUOUS
 62
     3
 10
164.97829589735099
 20
-69.089482273506292
 30
0.0
 11
164.16904869755399
 21
-69.089482273506292
 31
0.0
  0
LINE
  8
OUTLINE
  6
CONTINUOUS
 62
     3
 10
170.0871505536679
 20
-75.750835039136291
 30
0.0
 11
164.97829589735099
 21
-76.031118701782376
 31
0.0
  0
LINE
  8
OUTLINE
  6
CONTINUOUS
 62
     3
 10
161.9472269686803
 20
-255.27020631321329
 30
0.0
 11
155.32998183243669
 21
-259.56749555083979
 31
0.0
  0
LINE
  8
OUTLINE
  6
CONTINUOUS
 62
     3
 10
160.15982910777259
 20
-255.46603940020171
 30
0.0
 11
154.88923421835261
 21
-258.88880374196327
 31
0.0
  0
LINE
  8
OUTLINE
  6
CONTINUOUS
 62
     3
 10
161.89304094755329
 20
-3.6416123999983938
 30
0.0
 11
162.49993582429761
 21
-3.641612399998849
 31
0.0
  0
LINE
  8
OUTLINE
  6
CONTINUOUS
 62
     3
 10
161.89304094755329
 20
-2.8323652002018211
 30
0.0
 11
160.67917014755491
 21
-2.8323652002018211
 31
0.0
  0
LINE
  8
OUTLINE
  6
CONTINUOUS
 62
     3
 10
-161.28614985264991
 20
-2.8323652002018211
 30
0.0
 11
-162.50002065264829
 21
-2.8323652002018211
 31
0.0
  0
LINE
  8
OUTLINE
  6
CONTINUOUS
 62
     3
 10
160.15982910777259
 20
0.0
 30
0.0
 11
-161.28614985264991
 21
0.0
 31
0.0
  0
LINE
  8
OUTLINE
  6
CONTINUOUS
 62
     3
 10
154.88923421835261
 20
3.4227643417625591
 30
0.0
 11
155.32998183243669
 21
4.1014561506381133
 31
0.0
  0
LINE
  8
OUTLINE
  6
CONTINUOUS
 62
     3
 10
224.69073589735129
 20
-228.91580427360799
 30
0.0
 11
224.69073589735129
 21
-90.534533073608131
 31
0.0
  0
LINE
  8
OUTLINE
  6
CONTINUOUS
 62
     3
 10
165.7875430974527
 20
-238.40225652294291
 30
0.0
 11
165.7875430974527
 21
-233.5689756735064
 31
0.0
  0
LINE
  8
OUTLINE
  6
CONTINUOUS
 62
     3
 10
165.78754309745179
 20
-88.106791473607714
 30
0.0
 11
165.78754309745179
 21
-79.609695873607976
 31
0.0
  0
LINE
  8
OUTLINE
  6
CONTINUOUS
 62
     3
 10
164.97829589735099
 20
-250.36085507340519
 30
0.0
 11
164.97829589735099
 21
-247.1869040754132
 31
0.0
  0
LINE
  8
OUTLINE
  6
CONTINUOUS
 62
     3
 10
164.97829589735099
 20
-243.4316759235071
 30
0.0
 11
164.97829589735099
 21
-242.12910650168081
 31
0.0
  0
LINE
  8
OUTLINE
  6
CONTINUOUS
 62
     3
 10
164.97829589735011
 20
-79.609695873607976
 30
0.0
 11
164.97829589735011
 21
-76.031118701782376
 31
0.0
  0
LINE
  8
OUTLINE
  6
CONTINUOUS
 62
     3
 10
164.97829589735099
 20
-72.275890550100939
 30
0.0
 11
164.97829589735099
 21
-69.089482273506292
 31
0.0
  0
LINE
  8
OUTLINE
  6
CONTINUOUS
 62
     3
 10
164.16904869755399
 20
-250.36085507340519
 30
0.0
 11
164.16904869755399
 21
-247.1744442234062
 31
0.0
  0
LINE
  8
OUTLINE
  6
CONTINUOUS
 62
     3
 10
164.16904869755399
 20
-72.275890550100939
 30
0.0
 11
164.16904869755399
 21
-69.089482273506292
 31
0.0
  0
LINE
  8
OUTLINE
  6
CONTINUOUS
 62
     3
 10
163.10691174755169
 20
-248.8434954368804
 30
0.0
 11
163.10691174755081
 21
-247.1744442234058
 31
0.0
  0
LINE
  8
OUTLINE
  6
CONTINUOUS
 62
     3
 10
163.10691174755269
 20
-72.275890550100939
 30
0.0
 11
163.10691174755169
 21
-70.606874348604833
 31
0.0
  0
LINE
  8
OUTLINE
  6
CONTINUOUS
 62
     3
 10
162.49997634755249
 20
-251.82442700020189
 30
0.0
 11
162.49997634755249
 21
-248.8435165734054
 31
0.0
  0
LINE
  8
OUTLINE
  6
CONTINUOUS
 62
     3
 10
162.49997634755249
 20
-70.606818200099951
 30
0.0
 11
162.49997634755249
 21
-3.641612399998849
 31
0.0
  0
LINE
  8
OUTLINE
  6
CONTINUOUS
 62
     3
 10
161.89304094755329
 20
-3.641612399998849
 30
0.0
 11
161.89304094755329
 21
-2.8323652002018211
 31
0.0
  0
LINE
  8
OUTLINE
  6
CONTINUOUS
 62
     3
 10
161.6907291474536
 20
-251.82442700020189
 30
0.0
 11
161.69072914745169
 21
-252.63367419999889
 31
0.0
  0
LINE
  8
OUTLINE
  6
CONTINUOUS
 62
     3
 10
160.67917014755491
 20
-253.03829780020209
 30
0.0
 11
160.67917014755491
 21
-252.63367419999889
 31
0.0
  0
LINE
  8
OUTLINE
  6
CONTINUOUS
 62
     3
 10
160.67917014755491
 20
-2.8323652002018211
 30
0.0
 11
160.67917014755491
 21
-2.427741599999536
 31
0.0
  0
LINE
  8
OUTLINE
  6
CONTINUOUS
 62
     3
 10
161.9472269686803
 20
-0.1958330869883866
 30
0.0
 11
155.32998183243669
 21
4.1014561506381133
 31
0.0
  0
LINE
  8
OUTLINE
  6
CONTINUOUS
 62
     3
 10
160.15982910777259
 20
0.0
 30
0.0
 11
154.88923421835261
 21
3.4227643417625591
 31
0.0
  0
LINE
  8
OUTLINE
  6
CONTINUOUS
 62
     3
 10
154.88923421835261
 20
-258.88880374196327
 30
0.0
 11
155.32998183243669
 21
-259.56749555083979
 31
0.0
  0
LINE
  8
OUTLINE
  6
CONTINUOUS
 62
     3
 10
-161.28614985264991
 20
-2.427741599999536
 30
0.0
 11
-161.28614985264991
 21
-2.8323652002018211
 31
0.0
  0
LINE
  8
OUTLINE
  6
CONTINUOUS
 62
     3
 10
-161.28614985264991
 20
-253.03829780020209
 30
0.0
 11
-161.28614985264991
 21
-252.63367419999889
 31
0.0
  0
LINE
  8
OUTLINE
  6
CONTINUOUS
 62
     3
 10
-162.50002065264829
 20
-252.63367419999889
 30
0.0
 11
-162.50002065264829
 21
-168.93035300010069
 31
0.0
  0
LINE
  8
OUTLINE
  6
CONTINUOUS
 62
     3
 10
-162.50002065264829
 20
-119.26280609999959
 30
0.0
 11
-162.50002065264829
 21
-2.8323652002018211
 31
0.0
  0
LINE
  8
OUTLINE
  6
CONTINUOUS
 62
     3
 10
-220.50004265254941
 20
-137.57253490142739
 30
0.0
 11
-220.50004265254941
 21
-119.26280609999959
 31
0.0
  0
LINE
  8
OUTLINE
  6
CONTINUOUS
 62
     3
 10
-196.65168615326269
 20
-166.85640159928519
 30
0.0
 11
-218.42609125173479
 21
-142.57949650081451
 31
0.0
  0
ARC
  8
OUTLINE
  6
CONTINUOUS
 62
     3
 10
180.56766289755339
 20
-230.53429867350681
 30
0.0
 40
3.0346769999999998
 50
270.0
 51
0.0
  0
ARC
  8
OUTLINE
  6
CONTINUOUS
 62
     3
 10
169.98551294734989
 20
-240.23352289188011
 30
0.0
 40
1.6184943998988439
 50
273.60040798250918
 51
359.58234864019897
  0
ARC
  8
OUTLINE
  6
CONTINUOUS
 62
     3
 10
169.98551294734989
 20
-240.2570021083211
 30
0.0
 40
1.6184943998988439
 50
0.4176513618853735
 51
86.39959201749086
  0
ARC
  8
OUTLINE
  6
CONTINUOUS
 62
     3
 10
223.07224149745161
 20
-228.91580427360799
 30
0.0
 40
1.6184943998988439
 50
270.0
 51
0.0
  0
ARC
  8
OUTLINE
  6
CONTINUOUS
 62
     3
 10
161.28610554755409
 20
-254.25216860020149
 30
0.0
 40
1.2138708
 50
303.00000000001751
 51
90.0
  0
ARC
  8
OUTLINE
  6
CONTINUOUS
 62
     3
 10
169.98551294734989
 20
-74.135535091981197
 30
0.0
 40
1.6184943998988439
 50
273.60040798250918
 51
359.58234864019897
  0
ARC
  8
OUTLINE
  6
CONTINUOUS
 62
     3
 10
169.98551294734989
 20
-74.15901430842132
 30
0.0
 40
1.6184943998988439
 50
0.4176513618853735
 51
86.39959201749086
  0
ARC
  8
OUTLINE
  6
CONTINUOUS
 62
     3
 10
223.07224149745161
 20
-90.534533073608131
 30
0.0
 40
1.6184943998988439
 50
0.0
 51
90.0
  0
ARC
  8
OUTLINE
  6
CONTINUOUS
 62
     3
 10
161.28610554755409
 20
-1.213870799999313
 30
0.0
 40
1.2138708
 50
270.0
 51
56.99999999998257
  0
ARC
  8
OUTLINE
  6
CONTINUOUS
 62
     3
 10
166.59679029755441
 20
-88.106791473607714
 30
0.0
 40
0.8092472001011558
 50
180.0
 51
270.0
  0
ARC
  8
OUTLINE
  6
CONTINUOUS
 62
     3
 10
-191.6447245538757
 20
-161.84944000020189
 30
0.0
 40
7.0809129998988443
 50
224.99999999999099
 51
270.0
  0
ARC
  8
OUTLINE
  6
CONTINUOUS
 62
     3
 10
-213.41912965264959
 20
-137.57253490142739
 30
0.0
 40
7.0809129998988443
 50
180.0
 51
224.99999999999099
  0
ARC
  8
OUTLINE
  6
CONTINUOUS
 62
     3
 10
-161.28614985264991
 20
-254.25216860020149
 30
0.0
 40
1.2138708
 50
90.0
 51
270.0
  0
ARC
  8
OUTLINE
  6
CONTINUOUS
 62
     3
 10
-161.28614985264991
 20
-1.213870799999313
 30
0.0
 40
1.2138708
 50
90.0
 51
270.0
  0
LINE
  8
OUTLINE
  6
CONTINUOUS
 62
     3
 10
170.08715055354421
 20
-243.69949973460101
 30
0.0
 11
164.97829589735099
 21
-243.43167592350619
 31
0.0
  0
LINE
  8
OUTLINE
  6
CONTINUOUS
 62
     3
 10
170.08715055354421
 20
-246.90662041307769
 30
0.0
 11
164.9782958972273
 21
-247.18690407541999
 31
0.0
  0
ARC
  8
OUTLINE
  6
CONTINUOUS
 62
     3
 10
169.9855129472262
 20
-245.29132046561881
 30
0.0
 40
1.6184943998988439
 50
273.60040798250918
 51
359.58234864019897
  0
ARC
  8
OUTLINE
  6
CONTINUOUS
 62
     3
 10
169.9855129472262
 20
-245.31479968205991
 30
0.0
 40
1.6184943998988439
 50
0.4176513618853735
 51
86.39959201749086
  0
LINE
  8
DETAIL
  6
CONTINUOUS
 62
     5
 10
160.67917014755491
 20
-2.4277453025624709
 30
0.0
 11
161.28611169015579
 21
-2.4277453025624709
 31
0.0
  0
LINE
  8
OUTLINE
  6
CONTINUOUS
 62
     3
 10
161.2861129810999
 20
-2.4277373929890018
 30
0.0
 11
160.67917014755491
 21
-2.427741599999536
 31
0.0
  0
TEXT
  8
NOTE
  6
CONTINUOUS
 62
     4
 10
-81.55715441965458
 20
-159.26599266207521
 30
0.0
 40
64.0
  1
DA2
 41
0.9
  0
TEXT
  8
ETC
  6
CONTINUOUS
 62
    61
 10
339.47614798368431
 20
392.56466712617942
 30
0.0
 40
64.0
  1
BFS-50SSUA2_3
 41
0.9
  0
TEXT
  8
ETC
  6
CONTINUOUS
 62
    61
 10
335.29015398368477
 20
274.60935711134829
 30
0.0
 40
64.0
  1
産業扇
 41
0.9
  0
TEXT
  8
ETC
  6
CONTINUOUS
 62
    61
 10
385.99155223223988
 20
166.46058422512311
 30
0.0
 40
40.0
  1
BFS-50SSUA2
 41
0.9
  0
POINT
  8
ARRANGE
  6
CONTINUOUS
 62
     1
 10
0.0
 20
0.0
 30
0.0
 50
180.0
  0
CIRCLE
  8
ARRANGE
  6
CONTINUOUS
 62
     1
 10
0.0
 20
0.0
 30
0.0
 40
40.0
  0
LINE
  8
DETAIL
  6
CONTINUOUS
 62
     5
 10
124.05714606705899
 20
-147.49444008039359
 30
0.0
 11
124.8755311475534
 21
-144.44931476517041
 31
0.0
  0
LINE
  8
DETAIL
  6
CONTINUOUS
 62
     5
 10
107.47094585254941
 20
-94.815568637367704
 30
0.0
 11
107.47094585254941
 21
-160.18451176293431
 31
0.0
  0
ARC
  8
DETAIL
  6
CONTINUOUS
 62
     5
 10
0.0000000000236469
 20
-123.9423108764981
 30
0.0
 40
111.3479740090674
 50
15.16401526270338
 51
164.83598473738101
  0
TEXT
  8
NOTE
  6
CONTINUOUS
 62
     4
 10
492.27329382752879
 20
-373.6132822242605
 30
0.0
 40
64.0
  1
%%uAH 4
 41
0.9
  0
LINE
  8
NOTE
  6
CONTINUOUS
 62
     4
 10
492.1832938275287
 20
-386.41328222426051
 30
0.0
 11
706.2161509703858
 21
-386.41328222426051
 31
0.0
  0
LINE
  8
NOTE
  6
CONTINUOUS
 62
     4
 10
218.28954675887681
 20
-147.21010281574809
 30
0.0
 11
200.49997279990021
 21
-119.26280609999939
 31
0.0
  0
LINE
  8
NOTE
  6
CONTINUOUS
 62
     4
 10
200.49997279990021
 20
-119.26280609999939
 30
0.0
 11
229.87986719743671
 21
-134.5710437696205
 31
0.0
  0
LINE
  8
NOTE
  6
CONTINUOUS
 62
     4
 10
200.49997279990021
 20
-119.26280609999939
 30
0.0
 11
247.66944115641331
 21
-162.51834048536921
 31
0.0
  0
LINE
  8
NOTE
  6
CONTINUOUS
 62
     4
 10
247.66944115641331
 20
-162.51834048536921
 30
0.0
 11
491.82329382752869
 21
-386.41328222426051
 31
0.0
  0
LINE
  8
NOTE
  6
CONTINUOUS
 62
     4
 10
491.82329382752869
 20
-386.41328222426051
 30
0.0
 11
492.1832938275287
 21
-386.41328222426051
 31
0.0
  0
ENDSEC
  0
EOF
