  0
SECTION
  2
HEADER
  9
$ACADVER
  1
AC1009
  9
$DWGCODEPAGE
  3
dos932
  9
$INSBASE
 10
0.0
 20
0.0
 30
0.0
  9
$EXTMIN
 10
-679.77903623806742
 20
-746.29210290300216
 30
-0.000000034918195
  9
$EXTMAX
 10
950.33112720159079
 20
337.09717569534769
 30
0.000000081493575
  9
$LIMMIN
 10
-2970.0
 20
-2100.0
  9
$LIMMAX
 10
2970.0
 20
2100.0
  9
$ORTHOMODE
 70
     1
  9
$REGENMODE
 70
     1
  9
$FILLMODE
 70
     1
  9
$QTEXTMODE
 70
     0
  9
$MIRRTEXT
 70
     0
  9
$LTSCALE
 40
20.0
  9
$ATTMODE
 70
     1
  9
$TEXTSIZE
 40
64.0
  9
$TRACEWID
 40
0.05
  9
$TEXTSTYLE
  7
STANDARD
  9
$CLAYER
  8
SIZE
  9
$CELTYPE
  6
CONTINUOUS
  9
$CECOLOR
 62
     7
  9
$DIMSCALE
 40
1.0
  9
$DIMASZ
 40
12.0
  9
$DIMEXO
 40
20.0
  9
$DIMDLI
 40
200.0
  9
$DIMRND
 40
0.0
  9
$DIMDLE
 40
0.0
  9
$DIMEXE
 40
20.0
  9
$DIMTP
 40
0.0
  9
$DIMTM
 40
0.0
  9
$DIMTXT
 40
64.0
  9
$DIMCEN
 40
0.09
  9
$DIMTSZ
 40
0.0
  9
$DIMTOL
 70
     0
  9
$DIMLIM
 70
     0
  9
$DIMTIH
 70
     0
  9
$DIMTOH
 70
     0
  9
$DIMSE1
 70
     0
  9
$DIMSE2
 70
     0
  9
$DIMTAD
 70
     1
  9
$DIMZIN
 70
     8
  9
$DIMBLK
  1

  9
$DIMASO
 70
     1
  9
$DIMSHO
 70
     0
  9
$DIMPOST
  1

  9
$DIMAPOST
  1

  9
$DIMALT
 70
     0
  9
$DIMALTD
 70
     2
  9
$DIMALTF
 40
25.399999999999999
  9
$DIMLFAC
 40
1.0
  9
$DIMTOFL
 70
     1
  9
$DIMTVP
 40
0.0
  9
$DIMTIX
 70
     1
  9
$DIMSOXD
 70
     0
  9
$DIMSAH
 70
     0
  9
$DIMBLK1
  1

  9
$DIMBLK2
  1

  9
$DIMSTYLE
  2
STANDARD
  9
$DIMCLRD
 70
     7
  9
$DIMCLRE
 70
     7
  9
$DIMCLRT
 70
     7
  9
$DIMTFAC
 40
1.0
  9
$DIMGAP
 40
25.0
  9
$LUNITS
 70
     2
  9
$LUPREC
 70
     4
  9
$SKETCHINC
 40
0.1
  9
$FILLETRAD
 40
3.0
  9
$AUNITS
 70
     1
  9
$AUPREC
 70
     3
  9
$MENU
  1
ACAD
  9
$ELEVATION
 40
0.0
  9
$PELEVATION
 40
0.0
  9
$THICKNESS
 40
0.0
  9
$LIMCHECK
 70
     0
  9
$CHAMFERA
 40
0.0
  9
$CHAMFERB
 40
0.0
  9
$SKPOLY
 70
     0
  9
$TDCREATE
 40
2453019.62301037
  9
$TDUPDATE
 40
2459268.672803079
  9
$TDINDWG
 40
1.7202127431
  9
$TDUSRTIMER
 40
1.7202127431
  9
$USRTIMER
 70
     1
  9
$ANGBASE
 50
0.0
  9
$ANGDIR
 70
     0
  9
$PDMODE
 70
     3
  9
$PDSIZE
 40
-2.0
  9
$PLINEWID
 40
0.0
  9
$SPLFRAME
 70
     0
  9
$SPLINETYPE
 70
     6
  9
$SPLINESEGS
 70
     8
  9
$SURFTAB1
 70
     6
  9
$SURFTAB2
 70
     6
  9
$SURFTYPE
 70
     6
  9
$SURFU
 70
     6
  9
$SURFV
 70
     6
  9
$UCSNAME
  2

  9
$UCSORG
 10
0.0
 20
0.0
 30
0.0
  9
$UCSXDIR
 10
1.0
 20
0.0
 30
0.0
  9
$UCSYDIR
 10
0.0
 20
1.0
 30
0.0
  9
$PUCSNAME
  2

  9
$PUCSORG
 10
0.0
 20
0.0
 30
0.0
  9
$PUCSXDIR
 10
1.0
 20
0.0
 30
0.0
  9
$PUCSYDIR
 10
0.0
 20
1.0
 30
0.0
  9
$USERI1
 70
     0
  9
$USERI2
 70
     0
  9
$USERI3
 70
     0
  9
$USERI4
 70
     0
  9
$USERI5
 70
     0
  9
$USERR1
 40
20.0
  9
$USERR2
 40
0.0
  9
$USERR3
 40
0.0
  9
$USERR4
 40
0.0
  9
$USERR5
 40
0.0
  9
$WORLDVIEW
 70
     1
  9
$SHADEDGE
 70
     3
  9
$SHADEDIF
 70
    70
  9
$TILEMODE
 70
     1
  9
$MAXACTVP
 70
    48
  9
$PINSBASE
 10
0.0
 20
0.0
 30
0.0
  9
$PLIMCHECK
 70
     0
  9
$PEXTMIN
 10
-100000000000000000000.0
 20
-100000000000000000000.0
 30
-100000000000000000000.0
  9
$PEXTMAX
 10
100000000000000000000.0
 20
100000000000000000000.0
 30
100000000000000000000.0
  9
$PLIMMIN
 10
0.0
 20
0.0
  9
$PLIMMAX
 10
12.0
 20
9.0
  9
$UNITMODE
 70
     0
  9
$VISRETAIN
 70
     0
  9
$PLINEGEN
 70
     0
  9
$PSLTSCALE
 70
     0
  9
$TREEDEPTH
 70
  3020
  9
$ATTDIA
 70
     0
  9
$ATTREQ
 70
     1
  9
$BLIPMODE
 70
     1
  9
$COORDS
 70
     1
  9
$DRAGMODE
 70
     2
  9
$OSMODE
 70
     0
  9
$HANDLING
 70
     0
  9
$HANDSEED
  5
F26C
  0
ENDSEC
  0
SECTION
  2
TABLES
  0
TABLE
  2
LTYPE
 70
     2
  0
LTYPE
  2
CONTINUOUS
 70
     0
  3
実線
 72
    65
 73
     0
 40
0.0
  0
LTYPE
  2
DASHDOT
 70
     0
  3
____ _ ____ _ ____ _ ____ _ ____ _ ____ _ ____
 72
    65
 73
     4
 40
5.5
 49
4.0
 49
-0.6
 49
0.3
 49
-0.6
  0
ENDTAB
  0
TABLE
  2
LAYER
 70
    12
  0
LAYER
  2
0
 70
     0
 62
     7
  6
CONTINUOUS
  0
LAYER
  2
BASIS
 70
     0
 62
     6
  6
DASHDOT
  0
LAYER
  2
OUTLINE
 70
     0
 62
     3
  6
CONTINUOUS
  0
LAYER
  2
DETAIL
 70
     0
 62
     5
  6
CONTINUOUS
  0
LAYER
  2
SIZE
 70
     0
 62
    30
  6
CONTINUOUS
  0
LAYER
  2
ARRANGE
 70
     0
 62
     1
  6
CONTINUOUS
  0
LAYER
  2
DEFPOINTS
 70
     0
 62
     7
  6
CONTINUOUS
  0
LAYER
  2
ETC
 70
     0
 62
    61
  6
CONTINUOUS
  0
LAYER
  2
FIX
 70
     0
 62
    11
  6
CONTINUOUS
  0
LAYER
  2
NOTE
 70
     0
 62
     4
  6
CONTINUOUS
  0
LAYER
  2
SERVICESPACE
 70
    64
 62
     2
  6
DASHDOT
  0
LAYER
  2
SYMBOLLINE
 70
    64
 62
    15
  6
CONTINUOUS
  0
ENDTAB
  0
TABLE
  2
STYLE
 70
     1
  0
STYLE
  2
STANDARD
 70
     0
 40
64.0
 41
0.9
 50
0.0
 71
     0
 42
64.0
  3
SIMPLEX.shx
  4
BIGFONT.shx
  0
ENDTAB
  0
TABLE
  2
APPID
 70
    19
  0
APPID
  2
ACAD
 70
     0
  0
APPID
  2
AUTOCAD_POSTSCRIPT_FIGURE
 70
     0
  0
APPID
  2
ACAD_EXEMPT_FROM_CAD_STANDARDS
 70
     0
  0
APPID
  2
ACAD_PSEXT
 70
     0
  0
APPID
  2
ACAUTHENVIRON
 70
     0
  0
APPID
  2
GENIUS_GENOENT_13
 70
     0
  0
APPID
  2
GENIUS_GENCFG_13
 70
     0
  0
APPID
  2
GENIUS_GENCFG0_13
 70
     0
  0
APPID
  2
GENIUS_GENCFG1_13
 70
     0
  0
APPID
  2
GENIUS_GENCFG2_13
 70
     0
  0
APPID
  2
GENIUS_GENCFG3_13
 70
     0
  0
APPID
  2
GENIUS_GENCFG4_13
 70
     0
  0
APPID
  2
GENIUS_GEVCFG0_13
 70
     0
  0
APPID
  2
CONTENTBLOCKICON
 70
     0
  0
APPID
  2
CONTENTBLOCKDESCRIPTION
 70
     0
  0
APPID
  2
ACAD_NAV_VCDISPLAY
 70
     0
  0
APPID
  2
ACAD_MLEADERVER
 70
     0
  0
APPID
  2
ACDBDYNAMICBLOCKTRUENAME
 70
     0
  0
APPID
  2
ACDBDYNAMICBLOCKGUID
 70
     0
  0
ENDTAB
  0
TABLE
  2
DIMSTYLE
 70
     1
  0
DIMSTYLE
  2
STANDARD
 70
     0
  3

  4

  5
_ORIGIN
  6

  7

 40
1.0
 41
12.0
 42
20.0
 43
200.0
 44
20.0
 45
0.0
 46
0.0
 47
0.0
 48
0.0
140
64.0
141
0.09
142
0.0
143
25.399999999999999
144
1.0
145
0.0
146
1.0
147
25.0
 71
     0
 72
     0
 73
     0
 74
     0
 75
     0
 76
     0
 77
     1
 78
     8
170
     0
171
     2
172
     1
173
     0
174
     1
175
     0
176
     7
177
     7
178
     7
  0
ENDTAB
  0
TABLE
  2
VIEW
 70
     1
  0
VIEW
  2
ALL
 70
     0
 40
4282.6198079999986
 10
0.0
 20
41.309904000000003
 41
5940.0
 11
0.0
 21
0.0
 31
1.0
 12
0.0
 22
0.0
 32
0.0
 42
50.0
 43
0.0
 44
0.0
 50
0.0
 71
     0
  0
ENDTAB
  0
TABLE
  2
UCS
 70
     0
  0
ENDTAB
  0
TABLE
  2
VPORT
 70
     1
  0
VPORT
  2
*ACTIVE
 70
     0
 10
0.0
 20
0.0
 11
1.0
 21
1.0
 12
135.27604548176171
 22
-204.59746360382721
 13
0.0
 23
0.0
 14
1.0
 24
1.0
 15
0.0
 25
0.0
 16
0.0
 26
0.0
 36
1.0
 17
0.0
 27
0.0
 37
0.0
 40
818.90312198932622
 41
2.056631892697466
 42
50.0
 43
0.0
 44
0.0
 50
0.0
 51
0.0
 71
     0
 72
  1000
 73
     1
 74
     3
 75
     0
 76
     0
 77
     0
 78
     0
  0
ENDTAB
  0
ENDSEC
  0
SECTION
  2
BLOCKS
  0
BLOCK
  8
0
  2
_ORIGIN
 70
     0
 10
0.0
 20
0.0
 30
0.0
  3
_ORIGIN
  1
_ORIGIN
  0
CIRCLE
  8
SIZE
  6
CONTINUOUS
 62
    30
 10
0.0
 20
0.0
 30
0.0
 40
0.5
  0
LINE
  8
SIZE
  6
CONTINUOUS
 62
    30
 10
0.0
 20
0.0
 30
0.0
 11
-1.0
 21
0.0
 31
0.0
  0
ENDBLK
  8
0
  0
ENDSEC
  0
SECTION
  2
ENTITIES
  0
CIRCLE
  8
ARRANGE
  6
CONTINUOUS
 62
     1
 10
0.0
 20
0.0
 30
0.0
 40
40.0
  0
POINT
  8
ARRANGE
  6
CONTINUOUS
 62
     1
 10
0.0
 20
0.0
 30
0.0
  0
LINE
  8
BASIS
  6
DASHDOT
 62
     6
 10
-236.3734420000001
 20
0.0
 30
0.0
 11
232.5831619999999
 21
0.0
 31
0.0
  0
LINE
  8
BASIS
  6
DASHDOT
 62
     6
 10
0.0
 20
-315.416423225156
 30
0.0
 11
0.0
 21
138.67437389944789
 31
0.0
  0
LINE
  8
DETAIL
  6
CONTINUOUS
 62
     5
 10
-156.0
 20
-259.0
 30
0.0
 11
-156.0
 21
-162.0
 31
0.0
  0
LINE
  8
DETAIL
  6
CONTINUOUS
 62
     5
 10
156.0
 20
-259.0
 30
0.0
 11
156.0
 21
-162.0
 31
0.0
  0
LINE
  8
DETAIL
  6
CONTINUOUS
 62
     5
 10
-162.5
 20
0.0
 30
0.0
 11
162.5
 21
0.0
 31
0.0
  0
LINE
  8
DETAIL
  6
CONTINUOUS
 62
     5
 10
-127.0909149999998
 20
-162.0
 30
0.0
 11
-194.78031599999991
 21
-162.0
 31
0.0
  0
LINE
  8
NOTE
  6
CONTINUOUS
 62
     4
 10
-200.5
 20
-97.0
 30
0.0
 11
-200.5
 21
-137.0
 31
0.0
  0
LINE
  8
NOTE
  6
CONTINUOUS
 62
     4
 10
-180.5
 20
-117.0
 30
0.0
 11
-220.5
 21
-117.0
 31
0.0
  0
LINE
  8
DETAIL
  6
CONTINUOUS
 62
     5
 10
-220.5
 20
-137.9856090000001
 30
0.0
 11
-220.5
 21
-117.0
 31
0.0
  0
LINE
  8
DETAIL
  6
CONTINUOUS
 62
     5
 10
-220.5
 20
-117.0
 30
0.0
 11
-140.357947
 21
-117.0
 31
0.0
  0
CIRCLE
  8
FIX
  6
CONTINUOUS
 62
    11
 10
-200.5
 20
-117.0
 30
0.0
 40
5.5
  0
ARC
  8
DETAIL
  6
CONTINUOUS
 62
     5
 10
-140.357947
 20
-122.0
 30
0.0
 40
5.0
 50
17.87564799999998
 51
90.0
  0
LINE
  8
BASIS
  6
DASHDOT
 62
     6
 10
-236.16888699999981
 20
-128.0
 30
0.0
 11
232.78771700000021
 21
-128.0
 31
0.0
  0
LINE
  8
DETAIL
  6
CONTINUOUS
 62
     5
 10
-220.5
 20
-137.9856090000001
 30
0.0
 11
-194.78031599999991
 21
-162.0
 31
0.0
  0
ARC
  8
DETAIL
  6
CONTINUOUS
 62
     5
 10
16.449998999999931
 20
-94.980509999999867
 30
0.0
 40
154.170254
 50
189.51480799999561
 51
204.03695199999311
  0
ARC
  8
DETAIL
  6
CONTINUOUS
 62
     5
 10
-127.0909149999998
 20
-159.0
 30
0.0
 40
3.0
 50
270.0
 51
24.036951999993089
  0
POINT
  8
DEFPOINTS
  6
CONTINUOUS
 62
    30
 10
-156.0
 20
0.0
 30
0.0
 50
0.000000000000007
  0
POINT
  8
DEFPOINTS
  6
CONTINUOUS
 62
    30
 10
-220.5
 20
-117.0
 30
0.0
 50
0.000000000000007
  0
POINT
  8
DEFPOINTS
  6
CONTINUOUS
 62
    30
 10
156.0
 20
0.0
 30
0.0
 50
0.000000000000007
  0
POINT
  8
DEFPOINTS
  6
CONTINUOUS
 62
    30
 10
232.78771700000021
 20
-128.0
 30
0.0
 50
0.000000000000007
  0
POINT
  8
DEFPOINTS
  6
CONTINUOUS
 62
    30
 10
162.5
 20
0.0
 30
0.0
 50
0.000000000000007
  0
POINT
  8
DEFPOINTS
  6
CONTINUOUS
 62
    30
 10
-162.5
 20
0.0
 30
0.0
 50
0.000000000000007
  0
POINT
  8
DEFPOINTS
  6
CONTINUOUS
 62
    30
 10
162.5
 20
0.0
 30
0.0
 50
0.000000000000007
  0
LINE
  8
SIZE
  6
CONTINUOUS
 62
    30
 10
220.5
 20
-157.9856090000001
 30
0.0
 11
220.5
 21
-746.16106600000012
 31
0.0
  0
LINE
  8
SIZE
  6
CONTINUOUS
 62
    30
 10
-220.5
 20
-157.9856090000001
 30
0.0
 11
-220.5
 21
-746.16106600000012
 31
0.0
  0
LINE
  8
SIZE
  6
CONTINUOUS
 62
    30
 10
208.5
 20
-726.16106600000012
 30
0.0
 11
-208.5
 21
-726.16106600000012
 31
0.0
  0
CIRCLE
  8
SIZE
  6
CONTINUOUS
 62
    30
 10
220.5
 20
-726.16106600000012
 30
0.0
 40
6.0
  0
LINE
  8
SIZE
  6
CONTINUOUS
 62
    30
 10
220.5
 20
-726.16106600000012
 30
0.0
 11
208.5
 21
-726.16106600000012
 31
0.0
  0
CIRCLE
  8
SIZE
  6
CONTINUOUS
 62
    30
 10
-220.5
 20
-726.16106600000012
 30
0.0
 40
6.0
  0
LINE
  8
SIZE
  6
CONTINUOUS
 62
    30
 10
-220.5
 20
-726.16106600000012
 30
0.0
 11
-208.5
 21
-726.16106600000012
 31
0.0
  0
TEXT
  8
SIZE
  6
CONTINUOUS
 62
    30
 10
-61.714285714285708
 20
-701.16106600000012
 30
0.0
 40
64.0
  1
441
 41
0.9
 72
     1
 11
0.0
 21
-701.16106600000012
 31
0.0
  0
POINT
  8
DEFPOINTS
  6
CONTINUOUS
 62
    30
 10
220.5
 20
-137.9856090000001
 30
0.0
 50
0.000000000000007
  0
POINT
  8
DEFPOINTS
  6
CONTINUOUS
 62
    30
 10
-220.5
 20
-137.9856090000001
 30
0.0
 50
0.000000000000007
  0
POINT
  8
DEFPOINTS
  6
CONTINUOUS
 62
    30
 10
-220.5
 20
-726.16106600000012
 30
0.0
 50
0.000000000000007
  0
POINT
  8
DEFPOINTS
  6
CONTINUOUS
 62
    30
 10
-200.5
 20
-137.0
 30
0.0
 50
0.000000000000007
  0
POINT
  8
DEFPOINTS
  6
CONTINUOUS
 62
    30
 10
200.5
 20
-137.0
 30
0.0
 50
0.000000000000007
  0
LINE
  8
OUTLINE
  6
CONTINUOUS
 62
     3
 10
-162.5
 20
0.0
 30
0.0
 11
162.5
 21
0.0
 31
0.0
  0
LINE
  8
DETAIL
  6
CONTINUOUS
 62
     5
 10
-156.0
 20
-117.0
 30
0.0
 11
-156.0
 21
0.0
 31
0.0
  0
LINE
  8
DETAIL
  6
CONTINUOUS
 62
     5
 10
156.0
 20
-117.0
 30
0.0
 11
156.0
 21
0.0
 31
0.0
  0
LINE
  8
DETAIL
  6
CONTINUOUS
 62
     5
 10
220.5
 20
-117.0
 30
0.0
 11
140.357947
 21
-117.0
 31
0.0
  0
LINE
  8
DETAIL
  6
CONTINUOUS
 62
     5
 10
127.0909149999998
 20
-162.0
 30
0.0
 11
194.78031599999991
 21
-162.0
 31
0.0
  0
LINE
  8
NOTE
  6
CONTINUOUS
 62
     4
 10
200.5
 20
-97.0
 30
0.0
 11
200.5
 21
-137.0
 31
0.0
  0
LINE
  8
NOTE
  6
CONTINUOUS
 62
     4
 10
180.5
 20
-117.0
 30
0.0
 11
220.5
 21
-117.0
 31
0.0
  0
LINE
  8
DETAIL
  6
CONTINUOUS
 62
     5
 10
220.5
 20
-137.9856090000001
 30
0.0
 11
194.78031599999991
 21
-162.0
 31
0.0
  0
LINE
  8
DETAIL
  6
CONTINUOUS
 62
     5
 10
220.5
 20
-137.9856090000001
 30
0.0
 11
220.5
 21
-117.0
 31
0.0
  0
CIRCLE
  8
FIX
  6
CONTINUOUS
 62
    11
 10
200.5
 20
-117.0
 30
0.0
 40
5.5
  0
ARC
  8
DETAIL
  6
CONTINUOUS
 62
     5
 10
127.0909149999998
 20
-159.0
 30
0.0
 40
3.0
 50
155.96304800000689
 51
270.0
  0
ARC
  8
DETAIL
  6
CONTINUOUS
 62
     5
 10
-16.449998999999931
 20
-94.980509999999867
 30
0.0
 40
154.170254
 50
335.96304800000388
 51
350.48519200000442
  0
ARC
  8
DETAIL
  6
CONTINUOUS
 62
     5
 10
140.357947
 20
-122.0
 30
0.0
 40
5.0
 50
90.0
 51
162.12435199999999
  0
CIRCLE
  8
DETAIL
  6
CONTINUOUS
 62
     5
 10
0.0
 20
-128.0
 30
0.0
 40
104.0
  0
CIRCLE
  8
DETAIL
  6
CONTINUOUS
 62
     5
 10
0.0
 20
-128.0
 30
0.0
 40
96.0
  0
POINT
  8
DEFPOINTS
  6
CONTINUOUS
 62
    30
 10
104.0
 20
-128.0
 30
0.0
 50
0.000000000000007
  0
POINT
  8
DEFPOINTS
  6
CONTINUOUS
 62
    30
 10
-104.0
 20
-128.0
 30
0.0
 50
0.000000000000007
  0
POINT
  8
DEFPOINTS
  6
CONTINUOUS
 62
    30
 10
96.0
 20
-128.0
 30
0.0
 50
0.000000000000007
  0
POINT
  8
DEFPOINTS
  6
CONTINUOUS
 62
    30
 10
-96.0
 20
-128.0
 30
0.0
 50
0.000000000000007
  0
LINE
  8
DETAIL
  6
CONTINUOUS
 62
     5
 10
-162.5
 20
-117.0
 30
0.0
 11
-162.5
 21
0.0
 31
0.0
  0
LINE
  8
DETAIL
  6
CONTINUOUS
 62
     5
 10
-162.5
 20
-259.0
 30
0.0
 11
-162.5
 21
-162.0
 31
0.0
  0
LINE
  8
DETAIL
  6
CONTINUOUS
 62
     5
 10
162.5
 20
-117.0
 30
0.0
 11
162.5
 21
0.0
 31
0.0
  0
LINE
  8
DETAIL
  6
CONTINUOUS
 62
     5
 10
162.5
 20
-259.0
 30
0.0
 11
162.5
 21
-162.0
 31
0.0
  0
LINE
  8
OUTLINE
  6
CONTINUOUS
 62
     3
 10
-162.5
 20
-259.0
 30
0.0
 11
-162.5
 21
0.0
 31
0.0
  0
LINE
  8
OUTLINE
  6
CONTINUOUS
 62
     3
 10
162.5
 20
-259.0
 30
0.0
 11
162.5
 21
0.0
 31
0.0
  0
TEXT
  8
ETC
  6
CONTINUOUS
 62
    61
 10
332.73614323985748
 20
272.8294446307159
 30
0.0
 40
64.0
  1
BFS-50SYA2_2
 41
0.9
  0
TEXT
  8
ETC
  6
CONTINUOUS
 62
    61
 10
330.52773223985741
 20
172.18839863071571
 30
0.0
 40
64.0
  1
産業扇
 41
0.9
  0
TEXT
  8
ETC
  6
CONTINUOUS
 62
    61
 10
470.77200739709588
 20
86.644435366218659
 30
0.0
 40
50.0
  1
BFS-50SYA2
 41
0.9
  0
LINE
  8
SIZE
  6
CONTINUOUS
 62
    30
 10
-162.5
 20
20.0
 30
0.0
 11
-162.5
 21
192.23928194023981
 31
0.0
  0
LINE
  8
SIZE
  6
CONTINUOUS
 62
    30
 10
162.5
 20
20.0
 30
0.0
 11
162.5
 21
192.23928194023981
 31
0.0
  0
LINE
  8
SIZE
  6
CONTINUOUS
 62
    30
 10
-150.5
 20
172.23928194023981
 30
0.0
 11
150.5
 21
172.23928194023981
 31
0.0
  0
CIRCLE
  8
SIZE
  6
CONTINUOUS
 62
    30
 10
-162.5
 20
172.23928194023981
 30
0.0
 40
6.0
  0
LINE
  8
SIZE
  6
CONTINUOUS
 62
    30
 10
-162.5
 20
172.23928194023981
 30
0.0
 11
-150.5
 21
172.23928194023981
 31
0.0
  0
CIRCLE
  8
SIZE
  6
CONTINUOUS
 62
    30
 10
162.5
 20
172.23928194023981
 30
0.0
 40
6.0
  0
LINE
  8
SIZE
  6
CONTINUOUS
 62
    30
 10
162.5
 20
172.23928194023981
 30
0.0
 11
150.5
 21
172.23928194023981
 31
0.0
  0
TEXT
  8
SIZE
  6
CONTINUOUS
 62
    30
 10
-74.05714285714285
 20
197.23928194023981
 30
0.0
 40
64.0
  1
325
 41
0.9
 72
     1
 11
0.0
 21
197.23928194023981
 31
0.0
  0
POINT
  8
DEFPOINTS
  6
CONTINUOUS
 62
    30
 10
-162.5
 20
0.0
 30
0.0
  0
POINT
  8
DEFPOINTS
  6
CONTINUOUS
 62
    30
 10
162.5
 20
0.0
 30
0.0
  0
POINT
  8
DEFPOINTS
  6
CONTINUOUS
 62
    30
 10
162.5
 20
172.23928194023981
 30
0.0
  0
LINE
  8
SIZE
  6
CONTINUOUS
 62
    30
 10
518.37518867170832
 20
-207.0535143342826
 30
0.0
 11
106.76561115506451
 21
-144.282023052613
 31
0.0
  0
LINE
  8
SIZE
  6
CONTINUOUS
 62
    30
 10
-106.7656111550629
 20
-111.7179769473874
 30
0.0
 11
-118.6284568389588
 21
-109.9088632748748
 31
0.0
  0
TEXT
  8
SIZE
  6
CONTINUOUS
 62
    30
 10
296.23605084911787
 20
-147.8876977892858
 30
0.0
 40
64.0
  1
φ192
 50
351.3290583330986
 41
0.9
 72
     1
 11
403.88290196927062
 21
-164.30411214328521
 31
0.0
  0
LINE
  8
SIZE
  6
CONTINUOUS
 62
    30
 10
-94.902765471166987
 20
-113.52709061989989
 30
0.0
 11
94.90276547116855
 21
-142.47290938010039
 31
0.0
  0
CIRCLE
  8
SIZE
  6
CONTINUOUS
 62
    30
 10
-94.902765471166987
 20
-113.52709061989989
 30
0.0
 40
6.0
  0
LINE
  8
SIZE
  6
CONTINUOUS
 62
    30
 10
-94.902765471166987
 20
-113.52709061989989
 30
0.0
 11
-106.7656111550629
 21
-111.7179769473873
 31
0.0
  0
CIRCLE
  8
SIZE
  6
CONTINUOUS
 62
    30
 10
94.90276547116855
 20
-142.47290938010039
 30
0.0
 40
6.0
  0
LINE
  8
SIZE
  6
CONTINUOUS
 62
    30
 10
94.90276547116855
 20
-142.47290938010039
 30
0.0
 11
106.76561115506451
 21
-144.28202305261291
 31
0.0
  0
POINT
  8
DEFPOINTS
  6
CONTINUOUS
 62
    30
 10
94.90276547116855
 20
-142.47290938010039
 30
0.0
  0
POINT
  8
DEFPOINTS
  6
CONTINUOUS
 62
    30
 10
-94.902765471166987
 20
-113.52709061989989
 30
0.0
  0
LINE
  8
SIZE
  6
CONTINUOUS
 62
    30
 10
498.67484282234761
 20
-387.88487708319951
 30
0.0
 11
102.86864387338279
 21
-181.61009333746031
 31
0.0
  0
LINE
  8
SIZE
  6
CONTINUOUS
 62
    30
 10
-102.8686438733825
 20
-74.389906662539261
 30
0.0
 11
-113.51022772235309
 21
-68.844034937974357
 31
0.0
  0
TEXT
  8
SIZE
  6
CONTINUOUS
 62
    30
 10
297.84806572747368
 20
-255.03251556534951
 30
0.0
 40
64.0
  1
φ208
 50
332.47368350218721
 41
0.9
 72
     1
 11
399.27756207080478
 21
-307.89259577434512
 31
0.0
  0
LINE
  8
SIZE
  6
CONTINUOUS
 62
    30
 10
-92.227060024411912
 20
-79.935778387104108
 30
0.0
 11
92.227060024412154
 21
-176.06422161289541
 31
0.0
  0
CIRCLE
  8
SIZE
  6
CONTINUOUS
 62
    30
 10
-92.227060024411912
 20
-79.935778387104108
 30
0.0
 40
6.0
  0
LINE
  8
SIZE
  6
CONTINUOUS
 62
    30
 10
-92.227060024411912
 20
-79.935778387104108
 30
0.0
 11
-102.8686438733825
 21
-74.389906662539261
 31
0.0
  0
CIRCLE
  8
SIZE
  6
CONTINUOUS
 62
    30
 10
92.227060024412154
 20
-176.06422161289541
 30
0.0
 40
6.0
  0
LINE
  8
SIZE
  6
CONTINUOUS
 62
    30
 10
92.227060024412154
 20
-176.06422161289541
 30
0.0
 11
102.86864387338279
 21
-181.61009333746031
 31
0.0
  0
POINT
  8
DEFPOINTS
  6
CONTINUOUS
 62
    30
 10
92.227060024412154
 20
-176.06422161289541
 30
0.0
  0
POINT
  8
DEFPOINTS
  6
CONTINUOUS
 62
    30
 10
-92.227060024411912
 20
-79.935778387104108
 30
0.0
  0
LINE
  8
SIZE
  6
CONTINUOUS
 62
    30
 10
-256.37344200000013
 20
0.0
 30
0.0
 11
-332.71131502422668
 21
0.0
 31
0.0
  0
LINE
  8
SIZE
  6
CONTINUOUS
 62
    30
 10
-256.16888699999998
 20
-128.00000000000011
 30
0.0
 11
-332.71131502422668
 21
-128.00000000000011
 31
0.0
  0
LINE
  8
SIZE
  6
CONTINUOUS
 62
    30
 10
-312.71131502422668
 20
-116.0000000000001
 30
0.0
 11
-312.71131502422668
 21
-12.0
 31
0.0
  0
LINE
  8
SIZE
  6
CONTINUOUS
 62
    30
 10
-312.71131502422668
 20
0.0
 30
0.0
 11
-312.71131502422679
 21
199.14285714285711
 31
0.0
  0
CIRCLE
  8
SIZE
  6
CONTINUOUS
 62
    30
 10
-312.71131502422668
 20
-128.00000000000011
 30
0.0
 40
6.0
  0
LINE
  8
SIZE
  6
CONTINUOUS
 62
    30
 10
-312.71131502422668
 20
-128.00000000000011
 30
0.0
 11
-312.71131502422668
 21
-116.0000000000001
 31
0.0
  0
CIRCLE
  8
SIZE
  6
CONTINUOUS
 62
    30
 10
-312.71131502422668
 20
0.0
 30
0.0
 40
6.0
  0
LINE
  8
SIZE
  6
CONTINUOUS
 62
    30
 10
-312.71131502422668
 20
0.0
 30
0.0
 11
-312.71131502422668
 21
-12.0
 31
0.0
  0
TEXT
  8
SIZE
  6
CONTINUOUS
 62
    30
 10
-337.71131502422668
 20
37.000000000000099
 30
0.0
 40
64.0
  1
128
 50
90.0
 41
0.9
 72
     1
 11
-337.71131502422668
 21
105.5714285714287
 31
0.0
  0
POINT
  8
DEFPOINTS
  6
CONTINUOUS
 62
    30
 10
-236.37344200000021
 20
0.0
 30
0.0
  0
POINT
  8
DEFPOINTS
  6
CONTINUOUS
 62
    30
 10
-236.1688869999999
 20
-128.00000000000011
 30
0.0
  0
POINT
  8
DEFPOINTS
  6
CONTINUOUS
 62
    30
 10
-312.71131502422668
 20
-128.00000000000011
 30
0.0
  0
LINE
  8
DETAIL
  6
CONTINUOUS
 62
     5
 10
-165.2464169426938
 20
-312.31073695575799
 30
0.0
 11
-166.28718056049351
 21
-311.35323442735802
 31
0.0
  0
LINE
  8
DETAIL
  6
CONTINUOUS
 62
     5
 10
-167.26762806789321
 20
-312.57968113815798
 30
0.0
 11
-157.7637687994937
 21
-315.36333526555808
 31
0.0
  0
LINE
  8
DETAIL
  6
CONTINUOUS
 62
     5
 10
-173.82722469359939
 20
-286.01011089640002
 30
0.0
 11
-173.7907657183996
 21
-286.10993807680012
 31
0.0
  0
LINE
  8
DETAIL
  6
CONTINUOUS
 62
     5
 10
-173.7907657183996
 20
-286.10993807680012
 30
0.0
 11
-173.75437903119931
 21
-286.20729263499987
 31
0.0
  0
LINE
  8
DETAIL
  6
CONTINUOUS
 62
     5
 10
-173.75437903119931
 20
-286.20729263499987
 30
0.0
 11
-173.71829710759991
 21
-286.30090226200002
 31
0.0
  0
LINE
  8
DETAIL
  6
CONTINUOUS
 62
     5
 10
-173.71829710759991
 20
-286.30090226200002
 30
0.0
 11
-173.68238838399989
 21
-286.39049651879998
 31
0.0
  0
LINE
  8
DETAIL
  6
CONTINUOUS
 62
     5
 10
-173.68238838399989
 20
-286.39049651879998
 30
0.0
 11
-173.64661191079901
 21
-286.47556818980001
 31
0.0
  0
LINE
  8
DETAIL
  6
CONTINUOUS
 62
     5
 10
-173.64661191079901
 20
-286.47556818980001
 30
0.0
 11
-173.6109266285994
 21
-286.55561318519989
 31
0.0
  0
LINE
  8
DETAIL
  6
CONTINUOUS
 62
     5
 10
-173.6109266285994
 20
-286.55561318519989
 30
0.0
 11
-173.57520264999951
 21
-286.63030340499989
 31
0.0
  0
LINE
  8
DETAIL
  6
CONTINUOUS
 62
     5
 10
-173.57520264999951
 20
-286.63030340499989
 30
0.0
 11
-173.5396659443995
 21
-286.69858882900007
 31
0.0
  0
LINE
  8
DETAIL
  6
CONTINUOUS
 62
     5
 10
-173.5396659443995
 20
-286.69858882900007
 30
0.0
 11
-173.50453674499931
 21
-286.75961558519998
 31
0.0
  0
LINE
  8
DETAIL
  6
CONTINUOUS
 62
     5
 10
-173.50453674499931
 20
-286.75961558519998
 30
0.0
 11
-173.46967922479959
 21
-286.81325880059978
 31
0.0
  0
LINE
  8
DETAIL
  6
CONTINUOUS
 62
     5
 10
-173.46967922479959
 20
-286.81325880059978
 30
0.0
 11
-173.43504618739919
 21
-286.85922440500008
 31
0.0
  0
LINE
  8
DETAIL
  6
CONTINUOUS
 62
     5
 10
-173.43504618739919
 20
-286.85922440500008
 30
0.0
 11
-173.4005902969993
 21
-286.89722355260011
 31
0.0
  0
LINE
  8
DETAIL
  6
CONTINUOUS
 62
     5
 10
-173.4005902969993
 20
-286.89722355260011
 30
0.0
 11
-173.36617859459969
 21
-286.92703347239978
 31
0.0
  0
LINE
  8
DETAIL
  6
CONTINUOUS
 62
     5
 10
-173.36617859459969
 20
-286.92703347239978
 30
0.0
 11
-173.3320202951991
 21
-286.94817754780001
 31
0.0
  0
LINE
  8
DETAIL
  6
CONTINUOUS
 62
     5
 10
-173.3320202951991
 20
-286.94817754780001
 30
0.0
 11
-173.29828876919959
 21
-286.96045114100002
 31
0.0
  0
LINE
  8
DETAIL
  6
CONTINUOUS
 62
     5
 10
-173.29828876919959
 20
-286.96045114100002
 30
0.0
 11
-173.26492727039931
 21
-286.96388676219999
 31
0.0
  0
LINE
  8
DETAIL
  6
CONTINUOUS
 62
     5
 10
-173.8997847057999
 20
-285.80743168560002
 30
0.0
 11
-173.82722469359939
 21
-286.01011089640002
 31
0.0
  0
LINE
  8
DETAIL
  6
CONTINUOUS
 62
     5
 10
-166.28718056049351
 20
-311.35323442735802
 30
0.0
 11
-167.6670200816942
 21
-292.17149653955801
 31
0.0
  0
LINE
  8
DETAIL
  6
CONTINUOUS
 62
     5
 10
-167.6670200816942
 20
-292.17149653955801
 30
0.0
 11
-167.70678213489359
 21
-291.62089121415818
 31
0.0
  0
LINE
  8
DETAIL
  6
CONTINUOUS
 62
     5
 10
-167.88366178489349
 20
-286.73067961695813
 30
0.0
 11
-167.88579347729399
 21
-286.67951899995802
 31
0.0
  0
LINE
  8
DETAIL
  6
CONTINUOUS
 62
     5
 10
-167.70678213489359
 20
-291.62089121415818
 30
0.0
 11
-167.88366178489349
 21
-286.73067961695813
 31
0.0
  0
LINE
  8
DETAIL
  6
CONTINUOUS
 62
     5
 10
-163.99750060129361
 20
-312.2586987747581
 30
0.0
 11
-165.0382642188932
 21
-286.56087194755821
 31
0.0
  0
LINE
  8
DETAIL
  6
CONTINUOUS
 62
     5
 10
-168.8980481762936
 20
-292.2074915129582
 30
0.0
 11
-168.3453549710938
 21
-311.18399913735811
 31
0.0
  0
LINE
  8
DETAIL
  6
CONTINUOUS
 62
     5
 10
-173.89999999999961
 20
-285.78194327160008
 30
0.0
 11
-173.8997847057999
 21
-285.80743168560002
 31
0.0
  0
LINE
  8
DETAIL
  6
CONTINUOUS
 62
     5
 10
-175.0999999999996
 20
-272.0
 30
0.0
 11
-175.0999999999996
 21
-267.0
 31
0.0
  0
LINE
  8
DETAIL
  6
CONTINUOUS
 62
     5
 10
-174.5
 20
-285.7643994120001
 30
0.0
 11
-174.5
 21
-267.0
 31
0.0
  0
LINE
  8
DETAIL
  6
CONTINUOUS
 62
     5
 10
-173.89999999999961
 20
-285.78194327160008
 30
0.0
 11
-173.89999999999961
 21
-262.0
 31
0.0
  0
LINE
  8
DETAIL
  6
CONTINUOUS
 62
     5
 10
-168.89999999999961
 20
-258.40000000000009
 30
0.0
 11
-168.89999999999961
 21
-261.0
 31
0.0
  0
LINE
  8
DETAIL
  6
CONTINUOUS
 62
     5
 10
-142.0909902577996
 20
-264.40900974239997
 30
0.0
 11
-138.90900969459929
 21
-267.59099030540011
 31
0.0
  0
LINE
  8
DETAIL
  6
CONTINUOUS
 62
     5
 10
-148.01137143169379
 20
-311.59261005955813
 30
0.0
 11
-149.05213504949359
 21
-285.89478323215798
 31
0.0
  0
LINE
  8
DETAIL
  6
CONTINUOUS
 62
     5
 10
-146.0255944488934
 20
-290.71750839415802
 30
0.0
 11
-146.1912615108939
 21
-286.09639890715818
 31
0.0
  0
LINE
  8
DETAIL
  6
CONTINUOUS
 62
     5
 10
-146.1912615108939
 20
-286.09639890715818
 30
0.0
 11
-146.20460579109371
 21
-285.776136179758
 31
0.0
  0
LINE
  8
DETAIL
  6
CONTINUOUS
 62
     5
 10
-144.90830116929359
 20
-291.50603692235802
 30
0.0
 11
-144.35560796409379
 21
-310.48254454675811
 31
0.0
  0
LINE
  8
DETAIL
  6
CONTINUOUS
 62
     5
 10
-145.80495256209349
 20
-310.49980826075802
 30
0.0
 11
-146.01640364889391
 21
-291.53843757955798
 31
0.0
  0
LINE
  8
DETAIL
  6
CONTINUOUS
 62
     5
 10
-146.01640364889391
 20
-291.53843757955798
 30
0.0
 11
-146.0255944488934
 21
-290.71750839415802
 31
0.0
  0
LINE
  8
DETAIL
  6
CONTINUOUS
 62
     5
 10
-165.2464169426938
 20
-312.31073695575799
 30
0.0
 11
-146.76245509049369
 21
-311.54057187855818
 31
0.0
  0
LINE
  8
DETAIL
  6
CONTINUOUS
 62
     5
 10
-145.80495256209349
 20
-310.49980826075802
 30
0.0
 11
-166.28718056049351
 21
-311.35323442735802
 31
0.0
  0
LINE
  8
DETAIL
  6
CONTINUOUS
 62
     5
 10
-154.6749190012932
 20
-315.27301801995827
 30
0.0
 11
-157.7637687994937
 21
-315.36333526555808
 31
0.0
  0
LINE
  8
DETAIL
  6
CONTINUOUS
 62
     5
 10
-167.26762806789321
 20
-312.57968113815798
 30
0.0
 11
-145.3499444972939
 21
-311.93881319775818
 31
0.0
  0
LINE
  8
DETAIL
  6
CONTINUOUS
 62
     5
 10
-168.3453549710938
 20
-311.18399913735811
 30
0.0
 11
-144.35560796409379
 21
-310.48254454675811
 31
0.0
  0
LINE
  8
DETAIL
  6
CONTINUOUS
 62
     5
 10
-146.0255944488934
 20
-290.71750839415802
 30
0.0
 11
-167.70678213489359
 21
-291.62089121415818
 31
0.0
  0
LINE
  8
DETAIL
  6
CONTINUOUS
 62
     5
 10
-144.90830116929359
 20
-291.50603692235802
 30
0.0
 11
-168.8980481762936
 21
-292.2074915129582
 31
0.0
  0
LINE
  8
DETAIL
  6
CONTINUOUS
 62
     5
 10
-173.26492727039931
 20
-286.96388676219999
 30
0.0
 11
166.33507272960011
 21
-277.03406220080001
 31
0.0
  0
LINE
  8
DETAIL
  6
CONTINUOUS
 62
     5
 10
-174.5
 20
-285.7643994120001
 30
0.0
 11
-173.89999999999961
 21
-285.7643994120001
 31
0.0
  0
LINE
  8
DETAIL
  6
CONTINUOUS
 62
     5
 10
-174.49830612159889
 20
-285.82813667720012
 30
0.0
 11
-173.89915306079911
 21
-285.79626804460008
 31
0.0
  0
LINE
  8
DETAIL
  6
CONTINUOUS
 62
     5
 10
-167.88579347729399
 20
-286.67951899995802
 30
0.0
 11
-146.20460579109371
 21
-285.776136179758
 31
0.0
  0
LINE
  8
DETAIL
  6
CONTINUOUS
 62
     5
 10
-173.89999999999961
 20
-285.78194327160008
 30
0.0
 11
166.90000000000049
 21
-275.81703099079999
 31
0.0
  0
LINE
  8
DETAIL
  6
CONTINUOUS
 62
     5
 10
167.5
 20
-275.83457485060012
 30
0.0
 11
166.90000000000049
 21
-275.83457485060012
 31
0.0
  0
LINE
  8
DETAIL
  6
CONTINUOUS
 62
     5
 10
167.5
 20
-275.79948713120012
 30
0.0
 11
166.90000000000049
 21
-275.79948713120012
 31
0.0
  0
LINE
  8
DETAIL
  6
CONTINUOUS
 62
     5
 10
-174.5
 20
-272.0
 30
0.0
 11
-175.0999999999996
 21
-272.0
 31
0.0
  0
LINE
  8
DETAIL
  6
CONTINUOUS
 62
     5
 10
167.5
 20
-272.0
 30
0.0
 11
168.10000000000039
 21
-272.0
 31
0.0
  0
LINE
  8
DETAIL
  6
CONTINUOUS
 62
     5
 10
-174.5
 20
-269.0
 30
0.0
 11
-175.0999999999996
 21
-269.0
 31
0.0
  0
LINE
  8
DETAIL
  6
CONTINUOUS
 62
     5
 10
167.5
 20
-269.0
 30
0.0
 11
168.10000000000039
 21
-269.0
 31
0.0
  0
LINE
  8
DETAIL
  6
CONTINUOUS
 62
     5
 10
167.5
 20
-267.0
 30
0.0
 11
166.90000000000049
 21
-267.0
 31
0.0
  0
LINE
  8
DETAIL
  6
CONTINUOUS
 62
     5
 10
168.10000000000039
 20
-267.0
 30
0.0
 11
167.5
 21
-267.0
 31
0.0
  0
LINE
  8
DETAIL
  6
CONTINUOUS
 62
     5
 10
-174.5
 20
-267.0
 30
0.0
 11
-173.89999999999961
 21
-267.0
 31
0.0
  0
LINE
  8
DETAIL
  6
CONTINUOUS
 62
     5
 10
-175.0999999999996
 20
-267.0
 30
0.0
 11
-174.5
 21
-267.0
 31
0.0
  0
LINE
  8
DETAIL
  6
CONTINUOUS
 62
     5
 10
-165.89999999999961
 20
-264.0
 30
0.0
 11
-145.62347538299949
 21
-264.0
 31
0.0
  0
LINE
  8
DETAIL
  6
CONTINUOUS
 62
     5
 10
-135.3765246169996
 20
-264.0
 30
0.0
 11
-54.623475382999459
 21
-264.0
 31
0.0
  0
LINE
  8
DETAIL
  6
CONTINUOUS
 62
     5
 10
-44.376524616999632
 20
-264.0
 30
0.0
 11
25.376524617000541
 21
-264.0
 31
0.0
  0
LINE
  8
DETAIL
  6
CONTINUOUS
 62
     5
 10
35.623475383000368
 20
-264.0
 30
0.0
 11
158.90000000000049
 21
-264.0
 31
0.0
  0
LINE
  8
DETAIL
  6
CONTINUOUS
 62
     5
 10
167.49969622460051
 20
-275.86157427300009
 30
0.0
 11
166.89984811220069
 21
-275.8480745618001
 31
0.0
  0
LINE
  8
DETAIL
  6
CONTINUOUS
 62
     5
 10
-51.090990257799596
 20
-264.40900974239997
 30
0.0
 11
-47.909009694599263
 21
-267.59099030540011
 31
0.0
  0
LINE
  8
DETAIL
  6
CONTINUOUS
 62
     5
 10
-170.89999999999961
 20
-259.0
 30
0.0
 11
-168.89999999999961
 21
-259.0
 31
0.0
  0
LINE
  8
DETAIL
  6
CONTINUOUS
 62
     5
 10
-168.89999999999961
 20
-259.0
 30
0.0
 11
161.40000000000049
 21
-259.0
 31
0.0
  0
LINE
  8
DETAIL
  6
CONTINUOUS
 62
     5
 10
161.40000000000049
 20
-259.0
 30
0.0
 11
163.90000000000049
 21
-259.0
 31
0.0
  0
LINE
  8
DETAIL
  6
CONTINUOUS
 62
     5
 10
28.9090097422004
 20
-264.40900974239997
 30
0.0
 11
32.090990305400737
 21
-267.59099030540011
 31
0.0
  0
LINE
  8
DETAIL
  6
CONTINUOUS
 62
     5
 10
-138.9090097423996
 20
-264.40900974239997
 30
0.0
 11
-142.0909903053998
 21
-267.59099030540011
 31
0.0
  0
LINE
  8
DETAIL
  6
CONTINUOUS
 62
     5
 10
-146.76245509049369
 20
-311.54057187855818
 30
0.0
 11
-145.80495256209349
 21
-310.49980826075802
 31
0.0
  0
LINE
  8
DETAIL
  6
CONTINUOUS
 62
     5
 10
-47.909009742399583
 20
-264.40900974239997
 30
0.0
 11
-51.090990305399828
 21
-267.59099030540011
 31
0.0
  0
LINE
  8
DETAIL
  6
CONTINUOUS
 62
     5
 10
32.09099025760041
 20
-264.40900974239997
 30
0.0
 11
28.909009694600169
 21
-267.59099030540011
 31
0.0
  0
LINE
  8
DETAIL
  6
CONTINUOUS
 62
     5
 10
-145.3499444972939
 20
-311.93881319775818
 30
0.0
 11
-154.6749190012932
 21
-315.27301801995827
 31
0.0
  0
LINE
  8
DETAIL
  6
CONTINUOUS
 62
     5
 10
161.40000000000049
 20
-258.40000000000009
 30
0.0
 11
161.90000000000049
 21
-261.0
 31
0.0
  0
LINE
  8
DETAIL
  6
CONTINUOUS
 62
     5
 10
166.90000000000049
 20
-275.81703099079999
 30
0.0
 11
166.90054518360009
 21
-275.88163948319988
 31
0.0
  0
LINE
  8
DETAIL
  6
CONTINUOUS
 62
     5
 10
166.90000000000049
 20
-262.0
 30
0.0
 11
166.90000000000049
 21
-275.81703099079999
 31
0.0
  0
LINE
  8
DETAIL
  6
CONTINUOUS
 62
     5
 10
167.5
 20
-267.0
 30
0.0
 11
167.5
 21
-275.83457485060012
 31
0.0
  0
LINE
  8
DETAIL
  6
CONTINUOUS
 62
     5
 10
168.10000000000039
 20
-267.0
 30
0.0
 11
168.10000000000039
 21
-272.0
 31
0.0
  0
LINE
  8
DETAIL
  6
CONTINUOUS
 62
     5
 10
166.90054518360009
 20
-275.88163948319988
 30
0.0
 11
166.8703406610002
 21
-275.98282638339992
 31
0.0
  0
LINE
  8
DETAIL
  6
CONTINUOUS
 62
     5
 10
166.8703406610002
 20
-275.98282638339992
 30
0.0
 11
166.83084678480009
 21
-276.11284376160012
 31
0.0
  0
LINE
  8
DETAIL
  6
CONTINUOUS
 62
     5
 10
166.83084678480009
 20
-276.11284376160012
 30
0.0
 11
166.80946928900079
 21
-276.18210722899988
 31
0.0
  0
LINE
  8
DETAIL
  6
CONTINUOUS
 62
     5
 10
166.80946928900079
 20
-276.18210722899988
 30
0.0
 11
166.77885754920041
 21
-276.27845201200012
 31
0.0
  0
LINE
  8
DETAIL
  6
CONTINUOUS
 62
     5
 10
166.77885754920041
 20
-276.27845201200012
 30
0.0
 11
166.74832116240029
 21
-276.37101442419998
 31
0.0
  0
LINE
  8
DETAIL
  6
CONTINUOUS
 62
     5
 10
166.74832116240029
 20
-276.37101442419998
 30
0.0
 11
166.71772019939999
 21
-276.45955153959989
 31
0.0
  0
LINE
  8
DETAIL
  6
CONTINUOUS
 62
     5
 10
166.71772019939999
 20
-276.45955153959989
 30
0.0
 11
166.6869878614007
 21
-276.54359612600001
 31
0.0
  0
LINE
  8
DETAIL
  6
CONTINUOUS
 62
     5
 10
166.6869878614007
 20
-276.54359612600001
 30
0.0
 11
166.6560574562009
 21
-276.62268400359989
 31
0.0
  0
LINE
  8
DETAIL
  6
CONTINUOUS
 62
     5
 10
166.6560574562009
 20
-276.62268400359989
 30
0.0
 11
166.62478747040041
 21
-276.69651782080001
 31
0.0
  0
LINE
  8
DETAIL
  6
CONTINUOUS
 62
     5
 10
166.62478747040041
 20
-276.69651782080001
 30
0.0
 11
166.59333524340039
 21
-276.76411875379978
 31
0.0
  0
LINE
  8
DETAIL
  6
CONTINUOUS
 62
     5
 10
166.59333524340039
 20
-276.76411875379978
 30
0.0
 11
166.56186345720019
 21
-276.82469050840001
 31
0.0
  0
LINE
  8
DETAIL
  6
CONTINUOUS
 62
     5
 10
166.56186345720019
 20
-276.82469050840001
 30
0.0
 11
166.53023612520059
 21
-276.87812526599998
 31
0.0
  0
LINE
  8
DETAIL
  6
CONTINUOUS
 62
     5
 10
166.53023612520059
 20
-276.87812526599998
 30
0.0
 11
166.4983922804004
 21
-276.92415505160011
 31
0.0
  0
LINE
  8
DETAIL
  6
CONTINUOUS
 62
     5
 10
166.4983922804004
 20
-276.92415505160011
 30
0.0
 11
166.46627109159999
 21
-276.96251686520009
 31
0.0
  0
LINE
  8
DETAIL
  6
CONTINUOUS
 62
     5
 10
166.46627109159999
 20
-276.96251686520009
 30
0.0
 11
166.4337339358008
 21
-276.9930131128001
 31
0.0
  0
LINE
  8
DETAIL
  6
CONTINUOUS
 62
     5
 10
166.4337339358008
 20
-276.9930131128001
 30
0.0
 11
166.4009536952008
 21
-277.01519581339988
 31
0.0
  0
LINE
  8
DETAIL
  6
CONTINUOUS
 62
     5
 10
166.4009536952008
 20
-277.01519581339988
 30
0.0
 11
166.36808402180031
 21
-277.02886800300013
 31
0.0
  0
LINE
  8
DETAIL
  6
CONTINUOUS
 62
     5
 10
166.36808402180031
 20
-277.02886800300013
 30
0.0
 11
166.33507272960011
 21
-277.03406220080001
 31
0.0
  0
ARC
  8
DETAIL
  6
CONTINUOUS
 62
     5
 10
-140.5
 20
-266.0
 30
0.0
 40
5.5
 50
21.323686263491449
 51
158.6763137365086
  0
ARC
  8
DETAIL
  6
CONTINUOUS
 62
     5
 10
-156.35832785029359
 20
-310.56492555635828
 30
0.0
 40
5.0
 50
253.6748379899947
 51
289.67483799000922
  0
CIRCLE
  8
DETAIL
  6
CONTINUOUS
 62
     5
 10
-140.5
 20
-266.0
 30
0.0
 40
4.7
  0
ARC
  8
DETAIL
  6
CONTINUOUS
 62
     5
 10
-165.89999999999961
 20
-261.0
 30
0.0
 40
3.0
 50
180.0
 51
270.0
  0
ARC
  8
DETAIL
  6
CONTINUOUS
 62
     5
 10
-170.89999999999961
 20
-262.0
 30
0.0
 40
3.0
 50
90.0
 51
180.0
  0
ARC
  8
DETAIL
  6
CONTINUOUS
 62
     5
 10
-145.85496715209399
 20
-310.5263854585582
 30
0.0
 40
1.5
 50
289.67483798959398
 51
1.674837990002999
  0
ARC
  8
DETAIL
  6
CONTINUOUS
 62
     5
 10
-166.8459957830936
 20
-311.14015822535811
 30
0.0
 40
1.5
 50
181.67483798999001
 51
253.67483799040181
  0
ARC
  8
DETAIL
  6
CONTINUOUS
 62
     5
 10
-173.2999999999993
 20
-285.7643994120001
 30
0.0
 40
1.2
 50
180.0
 51
271.67483799051138
  0
ARC
  8
DETAIL
  6
CONTINUOUS
 62
     5
 10
-173.2999999999993
 20
-285.7643994120001
 30
0.0
 40
0.6
 50
189.3668371837004
 51
215.01349304119901
  0
ARC
  8
DETAIL
  6
CONTINUOUS
 62
     5
 10
-174.5
 20
-267.0
 30
0.0
 40
0.6
 50
0.0
 51
180.0
  0
ARC
  8
DETAIL
  6
CONTINUOUS
 62
     5
 10
-49.5
 20
-266.0
 30
0.0
 40
5.5
 50
21.323686263491449
 51
158.6763137365086
  0
CIRCLE
  8
DETAIL
  6
CONTINUOUS
 62
     5
 10
-49.5
 20
-266.0
 30
0.0
 40
4.7
  0
ARC
  8
DETAIL
  6
CONTINUOUS
 62
     5
 10
30.5
 20
-266.0
 30
0.0
 40
5.5
 50
21.323686263491449
 51
158.6763137365086
  0
CIRCLE
  8
DETAIL
  6
CONTINUOUS
 62
     5
 10
30.5
 20
-266.0
 30
0.0
 40
4.7
  0
ARC
  8
DETAIL
  6
CONTINUOUS
 62
     5
 10
158.90000000000049
 20
-261.0
 30
0.0
 40
3.0
 50
270.0
 51
0.0
  0
ARC
  8
DETAIL
  6
CONTINUOUS
 62
     5
 10
163.90000000000049
 20
-262.0
 30
0.0
 40
3.0
 50
0.0
 51
90.0
  0
ARC
  8
DETAIL
  6
CONTINUOUS
 62
     5
 10
166.30000000000021
 20
-275.83457485060012
 30
0.0
 40
1.2
 50
271.67483799051138
 51
0.0
  0
ARC
  8
DETAIL
  6
CONTINUOUS
 62
     5
 10
166.30000000000021
 20
-275.83457485060012
 30
0.0
 40
0.6
 50
340.05268154659871
 51
352.50191496539901
  0
ARC
  8
DETAIL
  6
CONTINUOUS
 62
     5
 10
167.5
 20
-267.0
 30
0.0
 40
0.6
 50
0.0
 51
180.0
  0
LINE
  8
OUTLINE
  6
CONTINUOUS
 62
     3
 10
-175.0999999999996
 20
-272.0
 30
0.0
 11
-175.0999999999996
 21
-267.0
 31
0.0
  0
LINE
  8
OUTLINE
  6
CONTINUOUS
 62
     3
 10
-174.5
 20
-285.7643994120001
 30
0.0
 11
-174.5
 21
-267.0
 31
0.0
  0
LINE
  8
OUTLINE
  6
CONTINUOUS
 62
     3
 10
-173.89999999999961
 20
-285.78194327160008
 30
0.0
 11
-173.89999999999961
 21
-262.0
 31
0.0
  0
LINE
  8
OUTLINE
  6
CONTINUOUS
 62
     3
 10
-168.89999999999961
 20
-258.40000000000009
 30
0.0
 11
-168.89999999999961
 21
-261.0
 31
0.0
  0
LINE
  8
OUTLINE
  6
CONTINUOUS
 62
     3
 10
-173.26492727039931
 20
-286.96388676219999
 30
0.0
 11
166.33507272960011
 21
-277.03406220080001
 31
0.0
  0
LINE
  8
OUTLINE
  6
CONTINUOUS
 62
     3
 10
-174.5
 20
-272.0
 30
0.0
 11
-175.0999999999996
 21
-272.0
 31
0.0
  0
LINE
  8
OUTLINE
  6
CONTINUOUS
 62
     3
 10
167.5
 20
-272.0
 30
0.0
 11
168.10000000000039
 21
-272.0
 31
0.0
  0
LINE
  8
OUTLINE
  6
CONTINUOUS
 62
     3
 10
-170.89999999999961
 20
-259.0
 30
0.0
 11
-168.89999999999961
 21
-259.0
 31
0.0
  0
LINE
  8
OUTLINE
  6
CONTINUOUS
 62
     3
 10
161.40000000000049
 20
-259.0
 30
0.0
 11
163.90000000000049
 21
-259.0
 31
0.0
  0
LINE
  8
OUTLINE
  6
CONTINUOUS
 62
     3
 10
161.40000000000049
 20
-258.40000000000009
 30
0.0
 11
161.40000000000049
 21
-259.0
 31
0.0
  0
LINE
  8
OUTLINE
  6
CONTINUOUS
 62
     3
 10
166.90000000000049
 20
-262.0
 30
0.0
 11
166.90000000000049
 21
-275.81703099079999
 31
0.0
  0
LINE
  8
OUTLINE
  6
CONTINUOUS
 62
     3
 10
167.5
 20
-267.0
 30
0.0
 11
167.5
 21
-275.83457485060012
 31
0.0
  0
LINE
  8
OUTLINE
  6
CONTINUOUS
 62
     3
 10
168.10000000000039
 20
-267.0
 30
0.0
 11
168.10000000000039
 21
-272.0
 31
0.0
  0
ARC
  8
OUTLINE
  6
CONTINUOUS
 62
     3
 10
-170.89999999999961
 20
-262.0
 30
0.0
 40
3.0
 50
90.0
 51
180.0
  0
ARC
  8
OUTLINE
  6
CONTINUOUS
 62
     3
 10
-173.2999999999993
 20
-285.7643994120001
 30
0.0
 40
1.2
 50
180.0
 51
271.67483799051138
  0
ARC
  8
OUTLINE
  6
CONTINUOUS
 62
     3
 10
-174.5
 20
-267.0
 30
0.0
 40
0.6
 50
0.0
 51
180.0
  0
ARC
  8
OUTLINE
  6
CONTINUOUS
 62
     3
 10
163.90000000000049
 20
-262.0
 30
0.0
 40
3.0
 50
0.0
 51
90.0
  0
ARC
  8
OUTLINE
  6
CONTINUOUS
 62
     3
 10
166.30000000000021
 20
-275.83457485060012
 30
0.0
 40
1.2
 50
271.67483799051138
 51
0.0
  0
ARC
  8
OUTLINE
  6
CONTINUOUS
 62
     3
 10
167.5
 20
-267.0
 30
0.0
 40
0.6
 50
0.0
 51
180.0
  0
LINE
  8
SIZE
  6
CONTINUOUS
 62
    30
 10
-193.36617859459969
 20
-286.96388676234722
 30
0.0
 11
-451.86781056006441
 21
-286.96388676234727
 31
0.0
  0
LINE
  8
SIZE
  6
CONTINUOUS
 62
    30
 10
-199.00056895934719
 20
-312.00002115357921
 30
0.0
 11
-451.86781056006441
 21
-312.00002115357921
 31
0.0
  0
LINE
  8
SIZE
  6
CONTINUOUS
 62
    30
 10
-431.86781056006441
 20
-274.96388676234727
 30
0.0
 11
-431.86781056006441
 21
-262.96388676234727
 31
0.0
  0
LINE
  8
SIZE
  6
CONTINUOUS
 62
    30
 10
-431.86781056006441
 20
-324.00002115357921
 30
0.0
 11
-431.8678105600643
 21
-479.98345931857159
 31
0.0
  0
LINE
  8
SIZE
  6
CONTINUOUS
 62
    30
 10
-431.86781056006441
 20
-286.96388676234727
 30
0.0
 11
-431.86781056006441
 21
-312.00002115357921
 31
0.0
  0
CIRCLE
  8
SIZE
  6
CONTINUOUS
 62
    30
 10
-431.86781056006441
 20
-286.96388676234727
 30
0.0
 40
6.0
  0
LINE
  8
SIZE
  6
CONTINUOUS
 62
    30
 10
-431.86781056006441
 20
-286.96388676234727
 30
0.0
 11
-431.86781056006441
 21
-274.96388676234727
 31
0.0
  0
CIRCLE
  8
SIZE
  6
CONTINUOUS
 62
    30
 10
-431.86781056006441
 20
-312.00002115357921
 30
0.0
 40
6.0
  0
LINE
  8
SIZE
  6
CONTINUOUS
 62
    30
 10
-431.86781056006441
 20
-312.00002115357921
 30
0.0
 11
-431.86781056006441
 21
-324.00002115357921
 31
0.0
  0
TEXT
  8
SIZE
  6
CONTINUOUS
 62
    30
 10
-456.8678105600643
 20
-454.98345931857142
 30
0.0
 40
64.0
  1
25
 50
90.0
 41
0.9
 72
     1
 11
-456.8678105600643
 21
-408.35488788999987
 31
0.0
  0
POINT
  8
DEFPOINTS
  6
CONTINUOUS
 62
    30
 10
-173.36617859459969
 20
-286.96388676234722
 30
0.0
  0
POINT
  8
DEFPOINTS
  6
CONTINUOUS
 62
    30
 10
-179.00056895934719
 20
-312.00002115357921
 30
0.0
  0
POINT
  8
DEFPOINTS
  6
CONTINUOUS
 62
    30
 10
-431.86781056006441
 20
-312.00002115357921
 30
0.0
  0
LINE
  8
SIZE
  6
CONTINUOUS
 62
    30
 10
-174.5
 20
-305.7643994120001
 30
0.0
 11
-174.5
 21
-512.89562540477073
 31
0.0
  0
LINE
  8
SIZE
  6
CONTINUOUS
 62
    30
 10
167.5
 20
-295.79948713120012
 30
0.0
 11
167.5
 21
-512.89562540477073
 31
0.0
  0
LINE
  8
SIZE
  6
CONTINUOUS
 62
    30
 10
-162.5
 20
-492.89562540477073
 30
0.0
 11
155.5
 21
-492.89562540477073
 31
0.0
  0
CIRCLE
  8
SIZE
  6
CONTINUOUS
 62
    30
 10
-174.5
 20
-492.89562540477073
 30
0.0
 40
6.0
  0
LINE
  8
SIZE
  6
CONTINUOUS
 62
    30
 10
-174.5
 20
-492.89562540477073
 30
0.0
 11
-162.5
 21
-492.89562540477073
 31
0.0
  0
CIRCLE
  8
SIZE
  6
CONTINUOUS
 62
    30
 10
167.5
 20
-492.89562540477073
 30
0.0
 40
6.0
  0
LINE
  8
SIZE
  6
CONTINUOUS
 62
    30
 10
167.5
 20
-492.89562540477073
 30
0.0
 11
155.5
 21
-492.89562540477073
 31
0.0
  0
TEXT
  8
SIZE
  6
CONTINUOUS
 62
    30
 10
-77.55714285714285
 20
-467.89562540477073
 30
0.0
 40
64.0
  1
342
 41
0.9
 72
     1
 11
-3.5
 21
-467.89562540477073
 31
0.0
  0
POINT
  8
DEFPOINTS
  6
CONTINUOUS
 62
    30
 10
-174.5
 20
-285.7643994120001
 30
0.0
  0
POINT
  8
DEFPOINTS
  6
CONTINUOUS
 62
    30
 10
167.5
 20
-275.79948713120012
 30
0.0
  0
POINT
  8
DEFPOINTS
  6
CONTINUOUS
 62
    30
 10
167.5
 20
-492.89562540477073
 30
0.0
  0
LINE
  8
DETAIL
  6
CONTINUOUS
 62
     5
 10
-214.89999999999779
 20
-211.69999999898729
 30
0.0
 11
-214.89999999999779
 21
-144.6999999987884
 31
0.0
  0
LINE
  8
DETAIL
  6
CONTINUOUS
 62
     5
 10
-213.29999999999839
 20
-214.09999999898741
 30
0.0
 11
-213.29999999999839
 21
-211.69999999898729
 31
0.0
  0
LINE
  8
DETAIL
  6
CONTINUOUS
 62
     5
 10
-213.29999999999839
 20
-211.69999999898729
 30
0.0
 11
-213.2999999999993
 21
-144.7082271783579
 31
0.0
  0
LINE
  8
DETAIL
  6
CONTINUOUS
 62
     5
 10
-163.29999999998839
 20
-214.0999999989881
 30
0.0
 11
-213.29999999999839
 21
-214.09999999898741
 31
0.0
  0
LINE
  8
DETAIL
  6
CONTINUOUS
 62
     5
 10
-163.2999999999893
 20
-212.49999999898711
 30
0.0
 11
-213.29999999999839
 21
-212.49999999898731
 31
0.0
  0
LINE
  8
DETAIL
  6
CONTINUOUS
 62
     5
 10
-214.89999999999779
 20
-211.69999999898729
 30
0.0
 11
-213.29999999999839
 21
-211.69999999898729
 31
0.0
  0
ARC
  8
DETAIL
  6
CONTINUOUS
 62
     5
 10
-213.29999999999839
 20
-211.69999999898729
 30
0.0
 40
1.6
 50
180.0
 51
270.0
  0
ARC
  8
DETAIL
  6
CONTINUOUS
 62
     5
 10
-213.29999999999839
 20
-211.69999999898729
 30
0.0
 40
0.8
 50
180.0
 51
270.0
  0
LINE
  8
OUTLINE
  6
CONTINUOUS
 62
     3
 10
-214.89999999999779
 20
-211.69999999898729
 30
0.0
 11
-214.89999999999779
 21
-144.6999999987884
 31
0.0
  0
LINE
  8
OUTLINE
  6
CONTINUOUS
 62
     3
 10
-213.29999999999839
 20
-214.09999999898741
 30
0.0
 11
-213.29999999999839
 21
-211.69999999898729
 31
0.0
  0
LINE
  8
OUTLINE
  6
CONTINUOUS
 62
     3
 10
-163.29999999998839
 20
-214.0999999989881
 30
0.0
 11
-213.29999999999839
 21
-214.09999999898741
 31
0.0
  0
ARC
  8
OUTLINE
  6
CONTINUOUS
 62
     3
 10
-213.29999999999839
 20
-211.69999999898729
 30
0.0
 40
1.6
 50
180.0
 51
270.0
  0
LINE
  8
OUTLINE
  6
CONTINUOUS
 62
     3
 10
-214.89999999999961
 20
-211.36887530553551
 30
0.0
 11
-214.89999999999961
 21
-143.21431202761141
 31
0.0
  0
LINE
  8
SIZE
  6
CONTINUOUS
 62
    30
 10
-200.5
 20
-157.0
 30
0.0
 11
-200.5
 21
-631.9528511646954
 31
0.0
  0
LINE
  8
SIZE
  6
CONTINUOUS
 62
    30
 10
200.5
 20
-157.0
 30
0.0
 11
200.5
 21
-631.9528511646954
 31
0.0
  0
LINE
  8
SIZE
  6
CONTINUOUS
 62
    30
 10
-188.5
 20
-611.9528511646954
 30
0.0
 11
188.5
 21
-611.9528511646954
 31
0.0
  0
CIRCLE
  8
SIZE
  6
CONTINUOUS
 62
    30
 10
-200.5
 20
-611.9528511646954
 30
0.0
 40
6.0
  0
LINE
  8
SIZE
  6
CONTINUOUS
 62
    30
 10
-200.5
 20
-611.9528511646954
 30
0.0
 11
-188.5
 21
-611.9528511646954
 31
0.0
  0
CIRCLE
  8
SIZE
  6
CONTINUOUS
 62
    30
 10
200.5
 20
-611.9528511646954
 30
0.0
 40
6.0
  0
LINE
  8
SIZE
  6
CONTINUOUS
 62
    30
 10
200.5
 20
-611.9528511646954
 30
0.0
 11
188.5
 21
-611.9528511646954
 31
0.0
  0
TEXT
  8
SIZE
  6
CONTINUOUS
 62
    30
 10
-61.714285714285701
 20
-586.9528511646954
 30
0.0
 40
64.0
  1
401
 41
0.9
 72
     1
 11
0.0
 21
-586.9528511646954
 31
0.0
  0
POINT
  8
DEFPOINTS
  6
CONTINUOUS
 62
    30
 10
-200.5
 20
-137.0
 30
0.0
  0
POINT
  8
DEFPOINTS
  6
CONTINUOUS
 62
    30
 10
200.5
 20
-137.0
 30
0.0
  0
POINT
  8
DEFPOINTS
  6
CONTINUOUS
 62
    30
 10
200.5
 20
-611.9528511646954
 30
0.0
  0
LINE
  8
SIZE
  6
CONTINUOUS
 62
    30
 10
-256.37344200000013
 20
0.0
 30
0.0
 11
-451.86781056006322
 21
0.0
 31
0.0
  0
LINE
  8
SIZE
  6
CONTINUOUS
 62
    30
 10
-193.36617859459969
 20
-286.96388676234722
 30
0.0
 11
-451.86781056006322
 21
-286.96388676234727
 31
0.0
  0
LINE
  8
SIZE
  6
CONTINUOUS
 62
    30
 10
-431.86781056006322
 20
-12.0
 30
0.0
 11
-431.86781056006322
 21
-274.96388676234727
 31
0.0
  0
CIRCLE
  8
SIZE
  6
CONTINUOUS
 62
    30
 10
-431.86781056006322
 20
0.0
 30
0.0
 40
6.0
  0
LINE
  8
SIZE
  6
CONTINUOUS
 62
    30
 10
-431.86781056006322
 20
0.0
 30
0.0
 11
-431.86781056006322
 21
-12.0
 31
0.0
  0
CIRCLE
  8
SIZE
  6
CONTINUOUS
 62
    30
 10
-431.86781056006322
 20
-286.96388676234727
 30
0.0
 40
6.0
  0
LINE
  8
SIZE
  6
CONTINUOUS
 62
    30
 10
-431.86781056006322
 20
-286.96388676234727
 30
0.0
 11
-431.86781056006322
 21
-274.96388676234727
 31
0.0
  0
TEXT
  8
SIZE
  6
CONTINUOUS
 62
    30
 10
-456.86781056006322
 20
-217.5390862383164
 30
0.0
 40
64.0
  1
287
 50
90.0
 41
0.9
 72
     1
 11
-456.86781056006322
 21
-143.48194338117361
 31
0.0
  0
POINT
  8
DEFPOINTS
  6
CONTINUOUS
 62
    30
 10
-236.37344200000021
 20
0.0
 30
0.0
  0
POINT
  8
DEFPOINTS
  6
CONTINUOUS
 62
    30
 10
-173.36617859459969
 20
-286.96388676234722
 30
0.0
  0
POINT
  8
DEFPOINTS
  6
CONTINUOUS
 62
    30
 10
-431.86781056006322
 20
-286.96388676234727
 30
0.0
  0
LINE
  8
NOTE
  6
CONTINUOUS
 62
     4
 10
-179.00056895934711
 20
-312.00002115357893
 30
0.0
 11
-133.00830307384129
 21
-311.85128768073707
 31
0.0
  0
LINE
  8
NOTE
  6
CONTINUOUS
 62
     4
 10
-156.00443601659421
 20
-292.10125441715797
 30
0.0
 11
-156.00443601659421
 21
-331.67565441715811
 31
0.0
  0
TEXT
  8
NOTE
  6
CONTINUOUS
 62
     4
 10
300.85941643967237
 20
-24.755747721344679
 30
0.0
 40
64.0
  1
AH
 41
0.9
  0
LINE
  8
NOTE
  6
CONTINUOUS
 62
     4
 10
300.76941643967251
 20
-37.555747721344687
 30
0.0
 11
396.85941643967237
 21
-37.555747721344687
 31
0.0
  0
LINE
  8
NOTE
  6
CONTINUOUS
 62
     4
 10
224.23700004384381
 20
-106.68360138027531
 30
0.0
 11
200.5
 21
-117.0
 31
0.0
  0
LINE
  8
NOTE
  6
CONTINUOUS
 62
     4
 10
200.5
 20
-117.0
 30
0.0
 11
215.89861438912729
 21
-96.1972134929606
 31
0.0
  0
LINE
  8
NOTE
  6
CONTINUOUS
 62
     4
 10
200.5
 20
-117.0
 30
0.0
 11
239.63561443297121
 21
-85.880814873235863
 31
0.0
  0
LINE
  8
NOTE
  6
CONTINUOUS
 62
     4
 10
239.6356144329711
 20
-85.880814873235806
 30
0.0
 11
300.40941643967238
 21
-37.555747721344687
 31
0.0
  0
LINE
  8
NOTE
  6
CONTINUOUS
 62
     4
 10
300.40941643967238
 20
-37.555747721344687
 30
0.0
 11
300.76941643967251
 21
-37.555747721344687
 31
0.0
  0
TEXT
  8
NOTE
  6
CONTINUOUS
 62
     4
 10
-667.88255108704755
 20
-590.52310728425675
 30
0.0
 40
64.0
  1
D φ21.7
 41
0.9
 72
     2
 11
-342.03112251561907
 21
-590.52310728425675
 31
0.0
  0
LINE
  8
NOTE
  6
CONTINUOUS
 62
     4
 10
-341.94112251561887
 20
-603.32310728425671
 30
0.0
 11
-679.40255108704753
 21
-603.32310728425648
 31
0.0
  0
LINE
  8
NOTE
  6
CONTINUOUS
 62
     4
 10
-175.08386397805941
 20
-329.41418437898591
 30
0.0
 11
-156.00443601659379
 21
-311.92565441715811
 31
0.0
  0
LINE
  8
NOTE
  6
CONTINUOUS
 62
     4
 10
-156.00443601659379
 20
-311.92565441715811
 30
0.0
 11
-163.78340314072989
 21
-336.61089134217281
 31
0.0
  0
LINE
  8
NOTE
  6
CONTINUOUS
 62
     4
 10
-156.00443601659379
 20
-311.92565441715811
 30
0.0
 11
-182.8628311021954
 21
-354.09942130400049
 31
0.0
  0
LINE
  8
NOTE
  6
CONTINUOUS
 62
     4
 10
-182.8628311021954
 20
-354.09942130400049
 30
0.0
 11
-341.58112251561892
 21
-603.32310728425671
 31
0.0
  0
LINE
  8
NOTE
  6
CONTINUOUS
 62
     4
 10
-341.58112251561892
 20
-603.32310728425671
 30
0.0
 11
-341.94112251561887
 21
-603.32310728425671
 31
0.0
  0
LINE
  8
OUTLINE
  6
CONTINUOUS
 62
     3
 10
-167.26762806789321
 20
-312.57968113815798
 30
0.0
 11
-157.7637687994937
 21
-315.36333526555808
 31
0.0
  0
LINE
  8
OUTLINE
  6
CONTINUOUS
 62
     3
 10
-167.6670200816942
 20
-292.17149653955801
 30
0.0
 11
-167.70678213489359
 21
-291.62089121415818
 31
0.0
  0
LINE
  8
OUTLINE
  6
CONTINUOUS
 62
     3
 10
-167.70678213489359
 20
-291.62089121415818
 30
0.0
 11
-167.88366178489349
 21
-286.73067961695813
 31
0.0
  0
LINE
  8
OUTLINE
  6
CONTINUOUS
 62
     3
 10
-168.8980481762936
 20
-292.2074915129582
 30
0.0
 11
-168.3453549710938
 21
-311.18399913735811
 31
0.0
  0
LINE
  8
OUTLINE
  6
CONTINUOUS
 62
     3
 10
-146.0255944488934
 20
-290.71750839415802
 30
0.0
 11
-146.1912615108939
 21
-286.09639890715818
 31
0.0
  0
LINE
  8
OUTLINE
  6
CONTINUOUS
 62
     3
 10
-144.90830116929359
 20
-291.50603692235802
 30
0.0
 11
-144.35560796409379
 21
-310.48254454675811
 31
0.0
  0
LINE
  8
OUTLINE
  6
CONTINUOUS
 62
     3
 10
-146.01640364889391
 20
-291.53843757955798
 30
0.0
 11
-146.0255944488934
 21
-290.71750839415802
 31
0.0
  0
LINE
  8
OUTLINE
  6
CONTINUOUS
 62
     3
 10
-144.90830116929359
 20
-291.50603692235802
 30
0.0
 11
-146.01640364889289
 21
-291.53843757964478
 31
0.0
  0
LINE
  8
OUTLINE
  6
CONTINUOUS
 62
     3
 10
-145.3499444972939
 20
-311.93881319775818
 30
0.0
 11
-154.6749190012932
 21
-315.27301801995827
 31
0.0
  0
ARC
  8
OUTLINE
  6
CONTINUOUS
 62
     3
 10
-156.35832785029359
 20
-310.56492555635828
 30
0.0
 40
5.0
 50
253.6748379899943
 51
289.67483799000928
  0
ARC
  8
OUTLINE
  6
CONTINUOUS
 62
     3
 10
-145.85496715209399
 20
-310.5263854585582
 30
0.0
 40
1.5
 50
289.67483798959421
 51
1.674837990002999
  0
ARC
  8
OUTLINE
  6
CONTINUOUS
 62
     3
 10
-166.8459957830936
 20
-311.14015822535811
 30
0.0
 40
1.5
 50
181.67483798999001
 51
253.67483799040161
  0
LINE
  8
OUTLINE
  6
CONTINUOUS
 62
     3
 10
-167.66702008170239
 20
-292.17149653944477
 30
0.0
 11
-168.8980481762936
 21
-292.2074915129582
 31
0.0
  0
ENDSEC
  0
EOF
