  0
SECTION
  2
HEADER
  9
$ACADVER
  1
AC1009
  9
$DWGCODEPAGE
  3
dos932
  9
$INSBASE
 10
0.0
 20
0.0
 30
0.0
  9
$EXTMIN
 10
-561.49748092458867
 20
-471.67967582549858
 30
-0.0030516297567118
  9
$EXTMAX
 10
1057.283031622974
 20
763.91602384848011
 30
0.0007631257219032
  9
$LIMMIN
 10
-2970.0
 20
-2100.0
  9
$LIMMAX
 10
2970.0
 20
2100.0
  9
$ORTHOMODE
 70
     1
  9
$REGENMODE
 70
     1
  9
$FILLMODE
 70
     1
  9
$QTEXTMODE
 70
     0
  9
$MIRRTEXT
 70
     0
  9
$LTSCALE
 40
20.0
  9
$ATTMODE
 70
     1
  9
$TEXTSIZE
 40
64.0
  9
$TRACEWID
 40
0.05
  9
$TEXTSTYLE
  7
STANDARD
  9
$CLAYER
  8
SIZE
  9
$CELTYPE
  6
CONTINUOUS
  9
$CECOLOR
 62
     7
  9
$DIMSCALE
 40
1.0
  9
$DIMASZ
 40
12.0
  9
$DIMEXO
 40
20.0
  9
$DIMDLI
 40
200.0
  9
$DIMRND
 40
0.0
  9
$DIMDLE
 40
0.0
  9
$DIMEXE
 40
20.0
  9
$DIMTP
 40
0.0
  9
$DIMTM
 40
0.0
  9
$DIMTXT
 40
64.0
  9
$DIMCEN
 40
0.09
  9
$DIMTSZ
 40
0.0
  9
$DIMTOL
 70
     0
  9
$DIMLIM
 70
     0
  9
$DIMTIH
 70
     0
  9
$DIMTOH
 70
     0
  9
$DIMSE1
 70
     0
  9
$DIMSE2
 70
     0
  9
$DIMTAD
 70
     1
  9
$DIMZIN
 70
     8
  9
$DIMBLK
  1

  9
$DIMASO
 70
     1
  9
$DIMSHO
 70
     0
  9
$DIMPOST
  1

  9
$DIMAPOST
  1

  9
$DIMALT
 70
     0
  9
$DIMALTD
 70
     2
  9
$DIMALTF
 40
25.399999999999999
  9
$DIMLFAC
 40
1.0
  9
$DIMTOFL
 70
     1
  9
$DIMTVP
 40
0.0
  9
$DIMTIX
 70
     1
  9
$DIMSOXD
 70
     0
  9
$DIMSAH
 70
     0
  9
$DIMBLK1
  1

  9
$DIMBLK2
  1

  9
$DIMSTYLE
  2
STANDARD
  9
$DIMCLRD
 70
     7
  9
$DIMCLRE
 70
     7
  9
$DIMCLRT
 70
     7
  9
$DIMTFAC
 40
1.0
  9
$DIMGAP
 40
25.0
  9
$LUNITS
 70
     2
  9
$LUPREC
 70
     4
  9
$SKETCHINC
 40
0.1
  9
$FILLETRAD
 40
3.0
  9
$AUNITS
 70
     1
  9
$AUPREC
 70
     3
  9
$MENU
  1
ACAD
  9
$ELEVATION
 40
0.0
  9
$PELEVATION
 40
0.0
  9
$THICKNESS
 40
0.0
  9
$LIMCHECK
 70
     0
  9
$CHAMFERA
 40
0.0
  9
$CHAMFERB
 40
0.0
  9
$SKPOLY
 70
     0
  9
$TDCREATE
 40
2453019.62301037
  9
$TDUPDATE
 40
2459268.673209514
  9
$TDINDWG
 40
1.7207335764
  9
$TDUSRTIMER
 40
1.7207335764
  9
$USRTIMER
 70
     1
  9
$ANGBASE
 50
0.0
  9
$ANGDIR
 70
     0
  9
$PDMODE
 70
     3
  9
$PDSIZE
 40
-2.0
  9
$PLINEWID
 40
0.0
  9
$SPLFRAME
 70
     0
  9
$SPLINETYPE
 70
     6
  9
$SPLINESEGS
 70
     8
  9
$SURFTAB1
 70
     6
  9
$SURFTAB2
 70
     6
  9
$SURFTYPE
 70
     6
  9
$SURFU
 70
     6
  9
$SURFV
 70
     6
  9
$UCSNAME
  2

  9
$UCSORG
 10
0.0
 20
0.0
 30
0.0
  9
$UCSXDIR
 10
1.0
 20
0.0
 30
0.0
  9
$UCSYDIR
 10
0.0
 20
1.0
 30
0.0
  9
$PUCSNAME
  2

  9
$PUCSORG
 10
0.0
 20
0.0
 30
0.0
  9
$PUCSXDIR
 10
1.0
 20
0.0
 30
0.0
  9
$PUCSYDIR
 10
0.0
 20
1.0
 30
0.0
  9
$USERI1
 70
     0
  9
$USERI2
 70
     0
  9
$USERI3
 70
     0
  9
$USERI4
 70
     0
  9
$USERI5
 70
     0
  9
$USERR1
 40
20.0
  9
$USERR2
 40
0.0
  9
$USERR3
 40
0.0
  9
$USERR4
 40
0.0
  9
$USERR5
 40
0.0
  9
$WORLDVIEW
 70
     1
  9
$SHADEDGE
 70
     3
  9
$SHADEDIF
 70
    70
  9
$TILEMODE
 70
     1
  9
$MAXACTVP
 70
    48
  9
$PINSBASE
 10
0.0
 20
0.0
 30
0.0
  9
$PLIMCHECK
 70
     0
  9
$PEXTMIN
 10
-100000000000000000000.0
 20
-100000000000000000000.0
 30
-100000000000000000000.0
  9
$PEXTMAX
 10
100000000000000000000.0
 20
100000000000000000000.0
 30
100000000000000000000.0
  9
$PLIMMIN
 10
0.0
 20
0.0
  9
$PLIMMAX
 10
12.0
 20
9.0
  9
$UNITMODE
 70
     0
  9
$VISRETAIN
 70
     0
  9
$PLINEGEN
 70
     0
  9
$PSLTSCALE
 70
     0
  9
$TREEDEPTH
 70
  3020
  9
$ATTDIA
 70
     0
  9
$ATTREQ
 70
     1
  9
$BLIPMODE
 70
     1
  9
$COORDS
 70
     1
  9
$DRAGMODE
 70
     2
  9
$OSMODE
 70
     0
  9
$HANDLING
 70
     0
  9
$HANDSEED
  5
10589
  0
ENDSEC
  0
SECTION
  2
TABLES
  0
TABLE
  2
LTYPE
 70
     2
  0
LTYPE
  2
CONTINUOUS
 70
     0
  3
実線
 72
    65
 73
     0
 40
0.0
  0
LTYPE
  2
DASHDOT
 70
     0
  3
____ _ ____ _ ____ _ ____ _ ____ _ ____ _ ____
 72
    65
 73
     4
 40
5.5
 49
4.0
 49
-0.6
 49
0.3
 49
-0.6
  0
ENDTAB
  0
TABLE
  2
LAYER
 70
    12
  0
LAYER
  2
0
 70
     0
 62
     7
  6
CONTINUOUS
  0
LAYER
  2
BASIS
 70
     0
 62
     6
  6
DASHDOT
  0
LAYER
  2
OUTLINE
 70
     0
 62
     3
  6
CONTINUOUS
  0
LAYER
  2
DETAIL
 70
     0
 62
     5
  6
CONTINUOUS
  0
LAYER
  2
SIZE
 70
     0
 62
    30
  6
CONTINUOUS
  0
LAYER
  2
ARRANGE
 70
     0
 62
     1
  6
CONTINUOUS
  0
LAYER
  2
DEFPOINTS
 70
     0
 62
     7
  6
CONTINUOUS
  0
LAYER
  2
ETC
 70
     0
 62
    61
  6
CONTINUOUS
  0
LAYER
  2
FIX
 70
     0
 62
    11
  6
CONTINUOUS
  0
LAYER
  2
NOTE
 70
     0
 62
     4
  6
CONTINUOUS
  0
LAYER
  2
SERVICESPACE
 70
    64
 62
     2
  6
DASHDOT
  0
LAYER
  2
SYMBOLLINE
 70
    64
 62
    15
  6
CONTINUOUS
  0
ENDTAB
  0
TABLE
  2
STYLE
 70
     1
  0
STYLE
  2
STANDARD
 70
     0
 40
64.0
 41
0.9
 50
0.0
 71
     0
 42
64.0
  3
SIMPLEX.shx
  4
BIGFONT.shx
  0
ENDTAB
  0
TABLE
  2
APPID
 70
    19
  0
APPID
  2
ACAD
 70
     0
  0
APPID
  2
AUTOCAD_POSTSCRIPT_FIGURE
 70
     0
  0
APPID
  2
ACAD_EXEMPT_FROM_CAD_STANDARDS
 70
     0
  0
APPID
  2
ACAD_PSEXT
 70
     0
  0
APPID
  2
ACAUTHENVIRON
 70
     0
  0
APPID
  2
GENIUS_GENOENT_13
 70
     0
  0
APPID
  2
GENIUS_GENCFG_13
 70
     0
  0
APPID
  2
GENIUS_GENCFG0_13
 70
     0
  0
APPID
  2
GENIUS_GENCFG1_13
 70
     0
  0
APPID
  2
GENIUS_GENCFG2_13
 70
     0
  0
APPID
  2
GENIUS_GENCFG3_13
 70
     0
  0
APPID
  2
GENIUS_GENCFG4_13
 70
     0
  0
APPID
  2
GENIUS_GEVCFG0_13
 70
     0
  0
APPID
  2
CONTENTBLOCKICON
 70
     0
  0
APPID
  2
CONTENTBLOCKDESCRIPTION
 70
     0
  0
APPID
  2
ACAD_NAV_VCDISPLAY
 70
     0
  0
APPID
  2
ACAD_MLEADERVER
 70
     0
  0
APPID
  2
ACDBDYNAMICBLOCKTRUENAME
 70
     0
  0
APPID
  2
ACDBDYNAMICBLOCKGUID
 70
     0
  0
ENDTAB
  0
TABLE
  2
DIMSTYLE
 70
     1
  0
DIMSTYLE
  2
STANDARD
 70
     0
  3

  4

  5
_ORIGIN
  6

  7

 40
1.0
 41
12.0
 42
20.0
 43
200.0
 44
20.0
 45
0.0
 46
0.0
 47
0.0
 48
0.0
140
64.0
141
0.09
142
0.0
143
25.399999999999999
144
1.0
145
0.0
146
1.0
147
25.0
 71
     0
 72
     0
 73
     0
 74
     0
 75
     0
 76
     0
 77
     1
 78
     8
170
     0
171
     2
172
     1
173
     0
174
     1
175
     0
176
     7
177
     7
178
     7
  0
ENDTAB
  0
TABLE
  2
VIEW
 70
     1
  0
VIEW
  2
ALL
 70
     0
 40
4282.6198079999986
 10
0.0
 20
41.309904000000003
 41
5940.0
 11
0.0
 21
0.0
 31
1.0
 12
0.0
 22
0.0
 32
0.0
 42
50.0
 43
0.0
 44
0.0
 50
0.0
 71
     0
  0
ENDTAB
  0
TABLE
  2
UCS
 70
     0
  0
ENDTAB
  0
TABLE
  2
VPORT
 70
     1
  0
VPORT
  2
*ACTIVE
 70
     0
 10
0.0
 20
0.0
 11
1.0
 21
1.0
 12
247.8927753491927
 22
146.11817401149071
 13
0.0
 23
0.0
 14
1.0
 24
1.0
 15
0.0
 25
0.0
 16
0.0
 26
0.0
 36
1.0
 17
0.0
 27
0.0
 37
0.0
 40
789.41149156487347
 41
2.2504409171075839
 42
50.0
 43
0.0
 44
0.0
 50
0.0
 51
0.0
 71
     0
 72
  1000
 73
     1
 74
     3
 75
     0
 76
     0
 77
     0
 78
     0
  0
ENDTAB
  0
ENDSEC
  0
SECTION
  2
BLOCKS
  0
BLOCK
  8
0
  2
_ORIGIN
 70
     0
 10
0.0
 20
0.0
 30
0.0
  3
_ORIGIN
  1
_ORIGIN
  0
CIRCLE
  8
SIZE
  6
CONTINUOUS
 62
    30
 10
0.0
 20
0.0
 30
0.0
 40
0.5
  0
LINE
  8
SIZE
  6
CONTINUOUS
 62
    30
 10
0.0
 20
0.0
 30
0.0
 11
-1.0
 21
0.0
 31
0.0
  0
ENDBLK
  8
0
  0
ENDSEC
  0
SECTION
  2
ENTITIES
  0
TEXT
  8
ETC
  6
CONTINUOUS
 62
    61
 10
442.53119285845668
 20
648.30423537389697
 30
0.0
 40
64.0
  1
BFS-50SYA2_6
 41
0.9
  0
TEXT
  8
ETC
  6
CONTINUOUS
 62
    61
 10
440.32278185845689
 20
547.66318937389678
 30
0.0
 40
64.0
  1
産業扇
 41
0.9
  0
TEXT
  8
ETC
  6
CONTINUOUS
 62
    61
 10
580.56705701569513
 20
462.11922610939968
 30
0.0
 40
50.0
  1
BFS-50SYA2
 41
0.9
  0
CIRCLE
  8
ARRANGE
  6
CONTINUOUS
 62
     1
 10
0.0
 20
0.0
 30
0.0
 40
40.0
  0
LINE
  8
BASIS
  6
DASHDOT
 62
     6
 10
0.0000000000000284
 20
326.65281599999997
 30
0.0
 11
-0.0000000000000284
 21
-314.15281599999997
 31
0.0
  0
LINE
  8
BASIS
  6
DASHDOT
 62
     6
 10
234.47830200000001
 20
-0.0000000000000568
 30
0.0
 11
-234.47830200000001
 21
0.0000000000000568
 31
0.0
  0
POINT
  8
ARRANGE
  6
CONTINUOUS
 62
     1
 10
0.0
 20
0.0
 30
0.0
 50
180.0
  0
POINT
  8
DEFPOINTS
  6
CONTINUOUS
 62
    30
 10
171.0
 20
-226.5
 30
0.0
 50
180.0
  0
LINE
  8
NOTE
  6
CONTINUOUS
 62
     4
 10
-177.0
 20
-194.0
 30
0.0
 11
-220.5
 21
-194.0
 31
0.0
  0
LINE
  8
NOTE
  6
CONTINUOUS
 62
     4
 10
-200.5
 20
-214.0
 30
0.0
 11
-200.5
 21
-174.5
 31
0.0
  0
LINE
  8
DETAIL
  6
CONTINUOUS
 62
     5
 10
-195.0
 20
-174.0
 30
0.0
 11
-171.0
 21
-174.0
 31
0.0
  0
LINE
  8
DETAIL
  6
CONTINUOUS
 62
     5
 10
-220.5
 20
-174.0
 30
0.0
 11
-206.0
 21
-174.0
 31
0.0
  0
LINE
  8
DETAIL
  6
CONTINUOUS
 62
     5
 10
-220.5
 20
-214.5
 30
0.0
 11
-220.5
 21
-174.0
 31
0.0
  0
POINT
  8
DEFPOINTS
  6
CONTINUOUS
 62
    30
 10
-220.5
 20
-194.0
 30
0.0
 50
180.0
  0
POINT
  8
DEFPOINTS
  6
CONTINUOUS
 62
    30
 10
-220.5
 20
194.0
 30
0.0
 50
180.0
  0
POINT
  8
DEFPOINTS
  6
CONTINUOUS
 62
    30
 10
-220.5
 20
-214.5
 30
0.0
 50
180.0
  0
POINT
  8
DEFPOINTS
  6
CONTINUOUS
 62
    30
 10
-220.5
 20
214.5
 30
0.0
 50
180.0
  0
LINE
  8
DETAIL
  6
CONTINUOUS
 62
     5
 10
-195.0
 20
-194.0
 30
0.0
 11
-195.0
 21
-174.0
 31
0.0
  0
LINE
  8
DETAIL
  6
CONTINUOUS
 62
     5
 10
-206.0
 20
-194.0
 30
0.0
 11
-206.0
 21
-174.0
 31
0.0
  0
ARC
  8
DETAIL
  6
CONTINUOUS
 62
     5
 10
-200.5
 20
-194.0
 30
0.0
 40
5.5
 50
180.0
 51
0.0
  0
CIRCLE
  8
FIX
  6
CONTINUOUS
 62
    11
 10
-200.5
 20
-194.0
 30
0.0
 40
5.5
  0
POINT
  8
DEFPOINTS
  6
CONTINUOUS
 62
    30
 10
171.0
 20
226.0
 30
0.0
 50
180.0
  0
POINT
  8
DEFPOINTS
  6
CONTINUOUS
 62
    30
 10
96.000000000000057
 20
297.0
 30
0.0
 50
180.0
  0
LINE
  8
DETAIL
  6
CONTINUOUS
 62
     5
 10
171.0
 20
-226.5
 30
0.0
 11
-171.0
 21
-226.5
 31
0.0
  0
LINE
  8
DETAIL
  6
CONTINUOUS
 62
     5
 10
171.0
 20
226.0
 30
0.0
 11
-171.0
 21
226.5
 31
0.0
  0
LINE
  8
DETAIL
  6
CONTINUOUS
 62
     5
 10
-171.0
 20
226.5
 30
0.0
 11
-171.0
 21
215.0
 31
0.0
  0
LINE
  8
DETAIL
  6
CONTINUOUS
 62
     5
 10
171.0
 20
226.0
 30
0.0
 11
-102.9047620000001
 21
226.0
 31
0.0
  0
LINE
  8
DETAIL
  6
CONTINUOUS
 62
     5
 10
-220.5
 20
214.5
 30
0.0
 11
-220.5
 21
173.5
 31
0.0
  0
LINE
  8
NOTE
  6
CONTINUOUS
 62
     4
 10
-177.0
 20
194.0
 30
0.0
 11
-220.5
 21
194.0
 31
0.0
  0
LINE
  8
NOTE
  6
CONTINUOUS
 62
     4
 10
-200.5
 20
214.0
 30
0.0
 11
-200.5
 21
174.5
 31
0.0
  0
LINE
  8
DETAIL
  6
CONTINUOUS
 62
     5
 10
-195.0
 20
173.5
 30
0.0
 11
-171.0
 21
173.5
 31
0.0
  0
LINE
  8
DETAIL
  6
CONTINUOUS
 62
     5
 10
-220.5
 20
173.5
 30
0.0
 11
-206.0
 21
173.5
 31
0.0
  0
LINE
  8
DETAIL
  6
CONTINUOUS
 62
     5
 10
-195.0
 20
194.0
 30
0.0
 11
-195.0
 21
173.5
 31
0.0
  0
LINE
  8
DETAIL
  6
CONTINUOUS
 62
     5
 10
-206.0
 20
194.0
 30
0.0
 11
-206.0
 21
173.5
 31
0.0
  0
ARC
  8
DETAIL
  6
CONTINUOUS
 62
     5
 10
-200.5
 20
194.0
 30
0.0
 40
5.5
 50
0.0
 51
180.0
  0
CIRCLE
  8
FIX
  6
CONTINUOUS
 62
    11
 10
-200.5
 20
194.0
 30
0.0
 40
5.5
  0
POINT
  8
DEFPOINTS
  6
CONTINUOUS
 62
    30
 10
-220.5
 20
-174.0
 30
0.0
 50
180.0
  0
POINT
  8
DEFPOINTS
  6
CONTINUOUS
 62
    30
 10
-220.5
 20
173.5
 30
0.0
 50
180.0
  0
LINE
  8
SIZE
  6
CONTINUOUS
 62
    30
 10
-220.5
 20
222.5
 30
0.0
 11
-220.5
 21
694.84712200000013
 31
0.0
  0
LINE
  8
SIZE
  6
CONTINUOUS
 62
    30
 10
220.5
 20
222.0
 30
0.0
 11
220.5
 21
694.84712200000013
 31
0.0
  0
LINE
  8
SIZE
  6
CONTINUOUS
 62
    30
 10
-208.5
 20
674.84712200000013
 30
0.0
 11
208.5
 21
674.84712200000013
 31
0.0
  0
CIRCLE
  8
SIZE
  6
CONTINUOUS
 62
    30
 10
-220.5
 20
674.84712200000013
 30
0.0
 40
6.0
  0
LINE
  8
SIZE
  6
CONTINUOUS
 62
    30
 10
-220.5
 20
674.84712200000013
 30
0.0
 11
-208.5
 21
674.84712200000013
 31
0.0
  0
CIRCLE
  8
SIZE
  6
CONTINUOUS
 62
    30
 10
220.5
 20
674.84712200000013
 30
0.0
 40
6.0
  0
LINE
  8
SIZE
  6
CONTINUOUS
 62
    30
 10
220.5
 20
674.84712200000013
 30
0.0
 11
208.5
 21
674.84712200000013
 31
0.0
  0
TEXT
  8
SIZE
  6
CONTINUOUS
 62
    30
 10
-61.714285714285708
 20
699.84712200000013
 30
0.0
 40
64.0
  1
441
 41
0.9
 72
     1
 11
0.0
 21
699.84712200000013
 31
0.0
  0
POINT
  8
DEFPOINTS
  6
CONTINUOUS
 62
    30
 10
220.5
 20
-215.5
 30
0.0
 50
180.0
  0
POINT
  8
DEFPOINTS
  6
CONTINUOUS
 62
    30
 10
-220.5
 20
-214.5
 30
0.0
 50
180.0
  0
POINT
  8
DEFPOINTS
  6
CONTINUOUS
 62
    30
 10
220.5
 20
674.84712200000013
 30
0.0
  0
LINE
  8
SIZE
  6
CONTINUOUS
 62
    30
 10
-200.5
 20
221.5
 30
0.0
 11
-200.5
 21
584.81593999999996
 31
0.0
  0
LINE
  8
SIZE
  6
CONTINUOUS
 62
    30
 10
200.5
 20
221.5
 30
0.0
 11
200.5
 21
584.81593999999996
 31
0.0
  0
LINE
  8
SIZE
  6
CONTINUOUS
 62
    30
 10
-188.5
 20
564.81593999999996
 30
0.0
 11
188.5
 21
564.81593999999996
 31
0.0
  0
CIRCLE
  8
SIZE
  6
CONTINUOUS
 62
    30
 10
-200.5
 20
564.81593999999996
 30
0.0
 40
6.0
  0
LINE
  8
SIZE
  6
CONTINUOUS
 62
    30
 10
-200.5
 20
564.81593999999996
 30
0.0
 11
-188.5
 21
564.81593999999996
 31
0.0
  0
CIRCLE
  8
SIZE
  6
CONTINUOUS
 62
    30
 10
200.5
 20
564.81593999999996
 30
0.0
 40
6.0
  0
LINE
  8
SIZE
  6
CONTINUOUS
 62
    30
 10
200.5
 20
564.81593999999996
 30
0.0
 11
188.5
 21
564.81593999999996
 31
0.0
  0
TEXT
  8
SIZE
  6
CONTINUOUS
 62
    30
 10
-61.714285714285701
 20
589.81593999999996
 30
0.0
 40
64.0
  1
401
 41
0.9
 72
     1
 11
0.0
 21
589.81593999999996
 31
0.0
  0
POINT
  8
DEFPOINTS
  6
CONTINUOUS
 62
    30
 10
200.5
 20
-214.5
 30
0.0
 50
180.0
  0
POINT
  8
DEFPOINTS
  6
CONTINUOUS
 62
    30
 10
-200.5
 20
-214.0
 30
0.0
 50
180.0
  0
POINT
  8
DEFPOINTS
  6
CONTINUOUS
 62
    30
 10
200.5
 20
564.81593999999996
 30
0.0
  0
POINT
  8
DEFPOINTS
  6
CONTINUOUS
 62
    30
 10
171.0
 20
-226.5
 30
0.0
 50
180.0
  0
POINT
  8
DEFPOINTS
  6
CONTINUOUS
 62
    30
 10
-171.0
 20
-226.5
 30
0.0
 50
180.0
  0
POINT
  8
DEFPOINTS
  6
CONTINUOUS
 62
    30
 10
-171.0
 20
-226.5
 30
0.0
 50
180.0
  0
POINT
  8
DEFPOINTS
  6
CONTINUOUS
 62
    30
 10
-171.0
 20
226.5
 30
0.0
 50
180.0
  0
POINT
  8
DEFPOINTS
  6
CONTINUOUS
 62
    30
 10
-171.0
 20
-226.5
 30
0.0
 50
180.0
  0
POINT
  8
DEFPOINTS
  6
CONTINUOUS
 62
    30
 10
171.0
 20
-226.5
 30
0.0
 50
180.0
  0
LINE
  8
DETAIL
  6
CONTINUOUS
 62
     5
 10
-171.0
 20
-214.0
 30
0.0
 11
-171.0
 21
-226.5
 31
0.0
  0
LINE
  8
DETAIL
  6
CONTINUOUS
 62
     5
 10
-102.9047620000001
 20
226.5
 30
0.0
 11
-171.0
 21
226.5
 31
0.0
  0
LINE
  8
DETAIL
  6
CONTINUOUS
 62
     5
 10
96.000000000000057
 20
297.0
 30
0.0
 11
-95.999999999999957
 21
297.0
 31
0.0
  0
LINE
  8
DETAIL
  6
CONTINUOUS
 62
     5
 10
102.6823529411765
 20
226.0
 30
0.0
 11
96.000000000000057
 21
297.0
 31
0.0
  0
LINE
  8
DETAIL
  6
CONTINUOUS
 62
     5
 10
-102.6823529411764
 20
226.0
 30
0.0
 11
-95.999999999999957
 21
297.0
 31
0.0
  0
LINE
  8
DETAIL
  6
CONTINUOUS
 62
     5
 10
96.761904999999842
 20
289.0
 30
0.0
 11
-96.761904999999786
 21
289.0
 31
0.0
  0
LINE
  8
SIZE
  6
CONTINUOUS
 62
    30
 10
96.0
 20
-317.0
 30
0.0
 11
96.0
 21
-443.24606399999999
 31
0.0
  0
LINE
  8
SIZE
  6
CONTINUOUS
 62
    30
 10
-96.0
 20
-317.0
 30
0.0
 11
-96.0
 21
-443.24606399999999
 31
0.0
  0
LINE
  8
SIZE
  6
CONTINUOUS
 62
    30
 10
108.0
 20
-423.24606399999999
 30
0.0
 11
120.0
 21
-423.24606399999999
 31
0.0
  0
LINE
  8
SIZE
  6
CONTINUOUS
 62
    30
 10
-108.0
 20
-423.24606399999999
 30
0.0
 11
-380.82197917746089
 21
-423.24606399999999
 31
0.0
  0
LINE
  8
SIZE
  6
CONTINUOUS
 62
    30
 10
96.0
 20
-423.24606399999999
 30
0.0
 11
-96.0
 21
-423.24606399999999
 31
0.0
  0
CIRCLE
  8
SIZE
  6
CONTINUOUS
 62
    30
 10
96.0
 20
-423.24606399999999
 30
0.0
 40
6.0
  0
LINE
  8
SIZE
  6
CONTINUOUS
 62
    30
 10
96.0
 20
-423.24606399999999
 30
0.0
 11
108.0
 21
-423.24606399999999
 31
0.0
  0
CIRCLE
  8
SIZE
  6
CONTINUOUS
 62
    30
 10
-96.0
 20
-423.24606399999999
 30
0.0
 40
6.0
  0
LINE
  8
SIZE
  6
CONTINUOUS
 62
    30
 10
-96.0
 20
-423.24606399999999
 30
0.0
 11
-108.0
 21
-423.24606399999999
 31
0.0
  0
TEXT
  8
SIZE
  6
CONTINUOUS
 62
    30
 10
-355.90566127866072
 20
-398.24606399999999
 30
0.0
 40
64.0
  1
φ192
 41
0.9
 72
     1
 11
-247.0142327072322
 21
-398.24606399999999
 31
0.0
  0
POINT
  8
DEFPOINTS
  6
CONTINUOUS
 62
    30
 10
-95.999999999999957
 20
297.0
 30
0.0
 50
180.0
  0
POINT
  8
DEFPOINTS
  6
CONTINUOUS
 62
    30
 10
96.000000000000057
 20
297.0
 30
0.0
 50
180.0
  0
POINT
  8
DEFPOINTS
  6
CONTINUOUS
 62
    30
 10
-96.0
 20
-423.24606399999999
 30
0.0
  0
LINE
  8
DETAIL
  6
CONTINUOUS
 62
     5
 10
96.761904999999786
 20
-289.0
 30
0.0
 11
-96.761904999999871
 21
-289.0
 31
0.0
  0
LINE
  8
DETAIL
  6
CONTINUOUS
 62
     5
 10
95.999999999999943
 20
-297.0
 30
0.0
 11
-96.000000000000043
 21
-297.0
 31
0.0
  0
LINE
  8
DETAIL
  6
CONTINUOUS
 62
     5
 10
102.67061345727809
 20
-226.12473201642021
 30
0.0
 11
95.999999999999943
 21
-297.0
 31
0.0
  0
LINE
  8
DETAIL
  6
CONTINUOUS
 62
     5
 10
-102.9047620000001
 20
-226.5
 30
0.0
 11
-96.000000000000043
 21
-297.0
 31
0.0
  0
POINT
  8
DEFPOINTS
  6
CONTINUOUS
 62
    30
 10
171.0
 20
-226.5
 30
0.0
 50
180.0
  0
POINT
  8
DEFPOINTS
  6
CONTINUOUS
 62
    30
 10
95.999999999999943
 20
-297.0
 30
0.0
 50
180.0
  0
LINE
  8
DETAIL
  6
CONTINUOUS
 62
     5
 10
171.0
 20
226.0
 30
0.0
 11
171.0
 21
-214.0
 31
0.0
  0
LINE
  8
DETAIL
  6
CONTINUOUS
 62
     5
 10
-171.0
 20
226.5
 30
0.0
 11
-171.0
 21
-214.0
 31
0.0
  0
LINE
  8
DETAIL
  6
CONTINUOUS
 62
     5
 10
-171.0
 20
-214.5
 30
0.0
 11
-220.5
 21
-214.5
 31
0.0
  0
LINE
  8
DETAIL
  6
CONTINUOUS
 62
     5
 10
-171.0
 20
215.0
 30
0.0
 11
-220.5
 21
214.5
 31
0.0
  0
LINE
  8
DETAIL
  6
CONTINUOUS
 62
     5
 10
220.5
 20
-215.0
 30
0.0
 11
220.5
 21
-174.0
 31
0.0
  0
LINE
  8
DETAIL
  6
CONTINUOUS
 62
     5
 10
206.0
 20
-194.5
 30
0.0
 11
206.0
 21
-174.0
 31
0.0
  0
LINE
  8
DETAIL
  6
CONTINUOUS
 62
     5
 10
195.0
 20
-194.5
 30
0.0
 11
195.0
 21
-174.0
 31
0.0
  0
LINE
  8
NOTE
  6
CONTINUOUS
 62
     4
 10
180.5
 20
-194.5
 30
0.0
 11
220.5
 21
-194.5
 31
0.0
  0
LINE
  8
NOTE
  6
CONTINUOUS
 62
     4
 10
200.5
 20
-214.5
 30
0.0
 11
200.5
 21
-174.5
 31
0.0
  0
LINE
  8
DETAIL
  6
CONTINUOUS
 62
     5
 10
195.0
 20
-174.0
 30
0.0
 11
171.0
 21
-174.0
 31
0.0
  0
LINE
  8
DETAIL
  6
CONTINUOUS
 62
     5
 10
220.5
 20
-174.0
 30
0.0
 11
206.0
 21
-174.0
 31
0.0
  0
LINE
  8
DETAIL
  6
CONTINUOUS
 62
     5
 10
171.0
 20
-215.0
 30
0.0
 11
220.5
 21
-215.0
 31
0.0
  0
CIRCLE
  8
FIX
  6
CONTINUOUS
 62
    11
 10
200.5
 20
-194.5
 30
0.0
 40
5.5
  0
ARC
  8
DETAIL
  6
CONTINUOUS
 62
     5
 10
200.5
 20
-194.5
 30
0.0
 40
5.5
 50
180.0
 51
0.0
  0
LINE
  8
DETAIL
  6
CONTINUOUS
 62
     5
 10
220.5
 20
215.0
 30
0.0
 11
220.5
 21
174.0
 31
0.0
  0
LINE
  8
DETAIL
  6
CONTINUOUS
 62
     5
 10
206.0
 20
194.5
 30
0.0
 11
206.0
 21
174.0
 31
0.0
  0
LINE
  8
DETAIL
  6
CONTINUOUS
 62
     5
 10
195.0
 20
194.5
 30
0.0
 11
195.0
 21
174.0
 31
0.0
  0
LINE
  8
NOTE
  6
CONTINUOUS
 62
     4
 10
180.5
 20
194.5
 30
0.0
 11
220.5
 21
194.5
 31
0.0
  0
LINE
  8
NOTE
  6
CONTINUOUS
 62
     4
 10
200.5
 20
214.5
 30
0.0
 11
200.5
 21
174.5
 31
0.0
  0
LINE
  8
DETAIL
  6
CONTINUOUS
 62
     5
 10
171.0
 20
215.0
 30
0.0
 11
220.5
 21
215.0
 31
0.0
  0
CIRCLE
  8
FIX
  6
CONTINUOUS
 62
    11
 10
200.5
 20
194.5
 30
0.0
 40
5.5
  0
ARC
  8
DETAIL
  6
CONTINUOUS
 62
     5
 10
200.5
 20
194.5
 30
0.0
 40
5.5
 50
0.0
 51
180.0
  0
LINE
  8
DETAIL
  6
CONTINUOUS
 62
     5
 10
195.0
 20
174.0
 30
0.0
 11
171.0
 21
174.0
 31
0.0
  0
LINE
  8
DETAIL
  6
CONTINUOUS
 62
     5
 10
220.5
 20
174.0
 30
0.0
 11
206.0
 21
174.0
 31
0.0
  0
LINE
  8
DETAIL
  6
CONTINUOUS
 62
     5
 10
171.0
 20
-214.0
 30
0.0
 11
171.0
 21
-226.5
 31
0.0
  0
LINE
  8
OUTLINE
  6
CONTINUOUS
 62
     3
 10
171.0
 20
226.0
 30
0.0
 11
171.0
 21
-214.0
 31
0.0
  0
LINE
  8
OUTLINE
  6
CONTINUOUS
 62
     3
 10
171.0
 20
226.0
 30
0.0
 11
-171.0
 21
226.5
 31
0.0
  0
LINE
  8
OUTLINE
  6
CONTINUOUS
 62
     3
 10
-171.0
 20
226.5
 30
0.0
 11
-171.0
 21
-214.0
 31
0.0
  0
LINE
  8
OUTLINE
  6
CONTINUOUS
 62
     3
 10
171.0
 20
-226.5
 30
0.0
 11
-171.0
 21
-226.5
 31
0.0
  0
LINE
  8
SIZE
  6
CONTINUOUS
 62
    30
 10
-171.0
 20
234.0
 30
0.0
 11
-171.0
 21
470.86072923980453
 31
0.0
  0
LINE
  8
SIZE
  6
CONTINUOUS
 62
    30
 10
171.0
 20
234.0
 30
0.0
 11
171.0
 21
470.86072923980453
 31
0.0
  0
LINE
  8
SIZE
  6
CONTINUOUS
 62
    30
 10
-159.0
 20
450.86072923980453
 30
0.0
 11
159.0
 21
450.86072923980453
 31
0.0
  0
CIRCLE
  8
SIZE
  6
CONTINUOUS
 62
    30
 10
-171.0
 20
450.86072923980453
 30
0.0
 40
6.0
  0
LINE
  8
SIZE
  6
CONTINUOUS
 62
    30
 10
-171.0
 20
450.86072923980453
 30
0.0
 11
-159.0
 21
450.86072923980453
 31
0.0
  0
CIRCLE
  8
SIZE
  6
CONTINUOUS
 62
    30
 10
171.0
 20
450.86072923980453
 30
0.0
 40
6.0
  0
LINE
  8
SIZE
  6
CONTINUOUS
 62
    30
 10
171.0
 20
450.86072923980453
 30
0.0
 11
159.0
 21
450.86072923980453
 31
0.0
  0
TEXT
  8
SIZE
  6
CONTINUOUS
 62
    30
 10
-73.672245824921362
 20
475.86072923980458
 30
0.0
 40
64.0
  1
342
 41
0.9
 72
     1
 11
0.3848970322214882
 21
475.86072923980458
 31
0.0
  0
POINT
  8
DEFPOINTS
  6
CONTINUOUS
 62
    30
 10
-171.0
 20
214.0
 30
0.0
  0
POINT
  8
DEFPOINTS
  6
CONTINUOUS
 62
    30
 10
171.0
 20
214.0
 30
0.0
  0
POINT
  8
DEFPOINTS
  6
CONTINUOUS
 62
    30
 10
171.0
 20
450.86072923980453
 30
0.0
  0
LINE
  8
DETAIL
  6
CONTINUOUS
 62
     5
 10
-221.40000000000009
 20
-128.80000126431739
 30
0.0
 11
-221.40000000000009
 21
7.999998735682766
 31
0.0
  0
LINE
  8
DETAIL
  6
CONTINUOUS
 62
     5
 10
-219.80000000000001
 20
-128.80000126431739
 30
0.0
 11
-219.80000000000001
 21
7.999998735682766
 31
0.0
  0
LINE
  8
DETAIL
  6
CONTINUOUS
 62
     5
 10
-219.80000000000001
 20
7.999998735682766
 30
0.0
 11
-219.80000000000001
 21
9.5999987356822203
 31
0.0
  0
LINE
  8
DETAIL
  6
CONTINUOUS
 62
     5
 10
-219.80000000000001
 20
-128.80000126431739
 30
0.0
 11
-219.80000000000001
 21
-130.40000126431781
 31
0.0
  0
LINE
  8
DETAIL
  6
CONTINUOUS
 62
     5
 10
-216.69072825020001
 20
-122.13214647911759
 30
0.0
 11
-219.80000000000001
 21
-128.80000126431739
 31
0.0
  0
LINE
  8
DETAIL
  6
CONTINUOUS
 62
     5
 10
-173.90000000000009
 20
10.29999873568204
 30
0.0
 11
-171.0
 21
10.29999873568204
 31
0.0
  0
LINE
  8
DETAIL
  6
CONTINUOUS
 62
     5
 10
-171.0
 20
9.5999987356822203
 30
0.0
 11
-219.80000000000001
 21
9.5999987356822203
 31
0.0
  0
LINE
  8
DETAIL
  6
CONTINUOUS
 62
     5
 10
-171.0
 20
7.999998735682766
 30
0.0
 11
-219.80000000000001
 21
7.999998735682766
 31
0.0
  0
LINE
  8
DETAIL
  6
CONTINUOUS
 62
     5
 10
-221.40000000000009
 20
7.999998735682766
 30
0.0
 11
-219.80000000000001
 21
7.999998735682766
 31
0.0
  0
LINE
  8
DETAIL
  6
CONTINUOUS
 62
     5
 10
-213.9718048892
 20
-0.4000012643177797
 30
0.0
 11
-170.99332473129019
 21
-0.4000012643177797
 31
0.0
  0
LINE
  8
DETAIL
  6
CONTINUOUS
 62
     5
 10
-171.0
 20
-120.40000126431779
 30
0.0
 11
-213.97180488920009
 21
-120.40000126431779
 31
0.0
  0
LINE
  8
DETAIL
  6
CONTINUOUS
 62
     5
 10
-221.40000000000009
 20
-128.80000126431739
 30
0.0
 11
-219.80000000000001
 21
-128.80000126431739
 31
0.0
  0
LINE
  8
DETAIL
  6
CONTINUOUS
 62
     5
 10
-219.80000000000001
 20
-128.80000126431739
 30
0.0
 11
-171.0
 21
-128.80000126431739
 31
0.0
  0
LINE
  8
DETAIL
  6
CONTINUOUS
 62
     5
 10
-219.80000000000001
 20
-130.40000126431781
 30
0.0
 11
-171.0
 21
-130.40000126431781
 31
0.0
  0
LINE
  8
DETAIL
  6
CONTINUOUS
 62
     5
 10
-219.80000000000001
 20
7.999998735682766
 30
0.0
 11
-216.69072825020001
 21
1.3321439504820769
 31
0.0
  0
ARC
  8
DETAIL
  6
CONTINUOUS
 62
     5
 10
-170.90000000000009
 20
10.29999873568204
 30
0.0
 40
3.0
 50
90.0
 51
180.0
  0
ARC
  8
DETAIL
  6
CONTINUOUS
 62
     5
 10
-213.9718048892
 20
2.5999987356822198
 30
0.0
 40
3.0
 50
205.00000000000369
 51
270.0
  0
ARC
  8
DETAIL
  6
CONTINUOUS
 62
     5
 10
-219.80000000000001
 20
7.999998735682766
 30
0.0
 40
1.6000000000000001
 50
90.0
 51
180.0
  0
ARC
  8
DETAIL
  6
CONTINUOUS
 62
     5
 10
-219.80000000000001
 20
7.999998735682766
 30
0.0
 40
0.8
 50
90.0
 51
180.0
  0
ARC
  8
DETAIL
  6
CONTINUOUS
 62
     5
 10
-213.97180488920009
 20
-123.40000126431779
 30
0.0
 40
3.0
 50
90.0
 51
154.99999999999631
  0
ARC
  8
DETAIL
  6
CONTINUOUS
 62
     5
 10
-219.80000000000001
 20
-128.80000126431739
 30
0.0
 40
1.6000000000000001
 50
180.0
 51
270.0
  0
ARC
  8
DETAIL
  6
CONTINUOUS
 62
     5
 10
-219.80000000000001
 20
-128.80000126431739
 30
0.0
 40
0.8
 50
180.0
 51
270.0
  0
LINE
  8
OUTLINE
  6
CONTINUOUS
 62
     3
 10
-221.40000000000009
 20
-128.80000126431739
 30
0.0
 11
-221.40000000000009
 21
7.999998735682766
 31
0.0
  0
LINE
  8
OUTLINE
  6
CONTINUOUS
 62
     3
 10
-171.0
 20
9.5999987356822203
 30
0.0
 11
-219.80000000000001
 21
9.5999987356822203
 31
0.0
  0
LINE
  8
OUTLINE
  6
CONTINUOUS
 62
     3
 10
-219.80000000000001
 20
-130.40000126431781
 30
0.0
 11
-171.0
 21
-130.40000126431781
 31
0.0
  0
ARC
  8
OUTLINE
  6
CONTINUOUS
 62
     3
 10
-219.80000000000001
 20
7.999998735682766
 30
0.0
 40
1.6000000000000001
 50
90.0
 51
180.0
  0
ARC
  8
OUTLINE
  6
CONTINUOUS
 62
     3
 10
-219.80000000000001
 20
-128.80000126431739
 30
0.0
 40
1.6000000000000001
 50
180.0
 51
270.0
  0
LINE
  8
NOTE
  6
CONTINUOUS
 62
     4
 10
-155.77563015527511
 20
-17.008201023534468
 30
0.0
 11
-156.0
 21
20.000201046800161
 31
0.0
  0
LINE
  8
NOTE
  6
CONTINUOUS
 62
     4
 10
-179.0
 20
0.0002010468001572
 30
0.0
 11
-136.0
 21
0.0002010468001572
 31
0.0
  0
CIRCLE
  8
DETAIL
  6
CONTINUOUS
 62
     5
 10
-156.0
 20
0.0002010468001572
 30
0.0
 40
12.0
  0
LINE
  8
SIZE
  6
CONTINUOUS
 62
    30
 10
191.00000000000011
 20
226.50000000000011
 30
0.0
 11
900.06680528123366
 21
226.5000000000002
 31
0.0
  0
LINE
  8
SIZE
  6
CONTINUOUS
 62
    30
 10
191.00000000000011
 20
-226.50000000000011
 30
0.0
 11
900.06680528123366
 21
-226.5
 31
0.0
  0
LINE
  8
SIZE
  6
CONTINUOUS
 62
    30
 10
880.06680528123366
 20
214.5000000000002
 30
0.0
 11
880.06680528123366
 21
-214.5
 31
0.0
  0
CIRCLE
  8
SIZE
  6
CONTINUOUS
 62
    30
 10
880.06680528123366
 20
226.5000000000002
 30
0.0
 40
6.0
  0
LINE
  8
SIZE
  6
CONTINUOUS
 62
    30
 10
880.06680528123366
 20
226.5000000000002
 30
0.0
 11
880.06680528123366
 21
214.5000000000002
 31
0.0
  0
CIRCLE
  8
SIZE
  6
CONTINUOUS
 62
    30
 10
880.06680528123366
 20
-226.5
 30
0.0
 40
6.0
  0
LINE
  8
SIZE
  6
CONTINUOUS
 62
    30
 10
880.06680528123366
 20
-226.5
 30
0.0
 11
880.06680528123366
 21
-214.5
 31
0.0
  0
TEXT
  8
SIZE
  6
CONTINUOUS
 62
    30
 10
855.06680528123343
 20
-76.057142857142892
 30
0.0
 40
64.0
  1
453
 50
90.0
 41
0.9
 72
     1
 11
855.06680528123343
 21
-2.0000000000000568
 31
0.0
  0
POINT
  8
DEFPOINTS
  6
CONTINUOUS
 62
    30
 10
171.00000000000011
 20
226.50000000000011
 30
0.0
  0
POINT
  8
DEFPOINTS
  6
CONTINUOUS
 62
    30
 10
171.00000000000011
 20
-226.50000000000011
 30
0.0
  0
POINT
  8
DEFPOINTS
  6
CONTINUOUS
 62
    30
 10
880.06680528123366
 20
-226.5
 30
0.0
  0
LINE
  8
SIZE
  6
CONTINUOUS
 62
    30
 10
240.50000000000011
 20
214.5000000000002
 30
0.0
 11
771.8310889498656
 21
214.50000000000031
 31
0.0
  0
LINE
  8
SIZE
  6
CONTINUOUS
 62
    30
 10
240.50000000000011
 20
-214.50000000000011
 30
0.0
 11
771.8310889498656
 21
-214.5
 31
0.0
  0
LINE
  8
SIZE
  6
CONTINUOUS
 62
    30
 10
751.83108894986526
 20
202.50000000000031
 30
0.0
 11
751.83108894986526
 21
-202.5
 31
0.0
  0
CIRCLE
  8
SIZE
  6
CONTINUOUS
 62
    30
 10
751.83108894986526
 20
214.50000000000031
 30
0.0
 40
6.0
  0
LINE
  8
SIZE
  6
CONTINUOUS
 62
    30
 10
751.83108894986526
 20
214.50000000000031
 30
0.0
 11
751.83108894986526
 21
202.50000000000031
 31
0.0
  0
CIRCLE
  8
SIZE
  6
CONTINUOUS
 62
    30
 10
751.83108894986526
 20
-214.5
 30
0.0
 40
6.0
  0
LINE
  8
SIZE
  6
CONTINUOUS
 62
    30
 10
751.83108894986526
 20
-214.5
 30
0.0
 11
751.83108894986526
 21
-202.5
 31
0.0
  0
TEXT
  8
SIZE
  6
CONTINUOUS
 62
    30
 10
726.83108894986526
 20
-72.18571428571434
 30
0.0
 40
64.0
  1
429
 50
90.0
 41
0.9
 72
     1
 11
726.83108894986526
 21
0.4999999999999432
 31
0.0
  0
POINT
  8
DEFPOINTS
  6
CONTINUOUS
 62
    30
 10
220.50000000000011
 20
214.5000000000002
 30
0.0
  0
POINT
  8
DEFPOINTS
  6
CONTINUOUS
 62
    30
 10
220.50000000000011
 20
-214.50000000000011
 30
0.0
  0
POINT
  8
DEFPOINTS
  6
CONTINUOUS
 62
    30
 10
751.83108894986526
 20
-214.5
 30
0.0
  0
LINE
  8
SIZE
  6
CONTINUOUS
 62
    30
 10
240.50000000000011
 20
194.00000000000011
 30
0.0
 11
645.00455281156621
 21
194.0000000000002
 31
0.0
  0
LINE
  8
SIZE
  6
CONTINUOUS
 62
    30
 10
240.50000000000011
 20
-194.00000000000011
 30
0.0
 11
645.00455281156621
 21
-194.00000000000011
 31
0.0
  0
LINE
  8
SIZE
  6
CONTINUOUS
 62
    30
 10
625.00455281156621
 20
182.00000000000011
 30
0.0
 11
625.00455281156621
 21
-182.0
 31
0.0
  0
CIRCLE
  8
SIZE
  6
CONTINUOUS
 62
    30
 10
625.00455281156621
 20
194.0000000000002
 30
0.0
 40
6.0
  0
LINE
  8
SIZE
  6
CONTINUOUS
 62
    30
 10
625.00455281156621
 20
194.0000000000002
 30
0.0
 11
625.00455281156621
 21
182.0000000000002
 31
0.0
  0
CIRCLE
  8
SIZE
  6
CONTINUOUS
 62
    30
 10
625.00455281156621
 20
-194.00000000000011
 30
0.0
 40
6.0
  0
LINE
  8
SIZE
  6
CONTINUOUS
 62
    30
 10
625.00455281156621
 20
-194.00000000000011
 30
0.0
 11
625.00455281156621
 21
-182.00000000000011
 31
0.0
  0
TEXT
  8
SIZE
  6
CONTINUOUS
 62
    30
 10
600.00455281156621
 20
-73.557142857142836
 30
0.0
 40
64.0
  1
388
 50
90.0
 41
0.9
 72
     1
 11
600.00455281156621
 21
0.5
 31
0.0
  0
POINT
  8
DEFPOINTS
  6
CONTINUOUS
 62
    30
 10
220.50000000000011
 20
194.00000000000011
 30
0.0
  0
POINT
  8
DEFPOINTS
  6
CONTINUOUS
 62
    30
 10
220.50000000000011
 20
-194.00000000000011
 30
0.0
  0
POINT
  8
DEFPOINTS
  6
CONTINUOUS
 62
    30
 10
625.00455281156621
 20
-194.00000000000011
 30
0.0
  0
LINE
  8
SIZE
  6
CONTINUOUS
 62
    30
 10
195.0
 20
-213.5
 30
0.0
 11
195.0
 21
-363.18188182704171
 31
0.0
  0
LINE
  8
SIZE
  6
CONTINUOUS
 62
    30
 10
206.0
 20
-213.5
 30
0.0
 11
206.0
 21
-363.18188182704171
 31
0.0
  0
LINE
  8
SIZE
  6
CONTINUOUS
 62
    30
 10
183.0
 20
-343.18188182704171
 30
0.0
 11
171.0
 21
-343.18188182704171
 31
0.0
  0
LINE
  8
SIZE
  6
CONTINUOUS
 62
    30
 10
218.0
 20
-343.18188182704171
 30
0.0
 11
337.60000000000002
 21
-343.18188182704171
 31
0.0
  0
LINE
  8
SIZE
  6
CONTINUOUS
 62
    30
 10
195.0
 20
-343.18188182704171
 30
0.0
 11
206.0
 21
-343.18188182704171
 31
0.0
  0
CIRCLE
  8
SIZE
  6
CONTINUOUS
 62
    30
 10
195.0
 20
-343.18188182704171
 30
0.0
 40
6.0
  0
LINE
  8
SIZE
  6
CONTINUOUS
 62
    30
 10
195.0
 20
-343.18188182704171
 30
0.0
 11
183.0
 21
-343.18188182704171
 31
0.0
  0
CIRCLE
  8
SIZE
  6
CONTINUOUS
 62
    30
 10
206.0
 20
-343.18188182704171
 30
0.0
 40
6.0
  0
LINE
  8
SIZE
  6
CONTINUOUS
 62
    30
 10
206.0
 20
-343.18188182704171
 30
0.0
 11
218.0
 21
-343.18188182704171
 31
0.0
  0
TEXT
  8
SIZE
  6
CONTINUOUS
 62
    30
 10
255.0
 20
-318.18188182704171
 30
0.0
 40
64.0
  1
11
 41
0.9
 72
     1
 11
283.80000000000001
 21
-318.18188182704171
 31
0.0
  0
POINT
  8
DEFPOINTS
  6
CONTINUOUS
 62
    30
 10
195.0
 20
-193.5
 30
0.0
  0
POINT
  8
DEFPOINTS
  6
CONTINUOUS
 62
    30
 10
206.0
 20
-193.5
 30
0.0
  0
POINT
  8
DEFPOINTS
  6
CONTINUOUS
 62
    30
 10
206.0
 20
-343.18188182704171
 30
0.0
  0
LINE
  8
SIZE
  6
CONTINUOUS
 62
    30
 10
220.5
 20
-234.5
 30
0.0
 11
220.5
 21
-471.6443688108684
 31
0.0
  0
LINE
  8
SIZE
  6
CONTINUOUS
 62
    30
 10
200.5
 20
-233.5
 30
0.0
 11
200.5
 21
-471.6443688108684
 31
0.0
  0
LINE
  8
SIZE
  6
CONTINUOUS
 62
    30
 10
188.5
 20
-451.6443688108684
 30
0.0
 11
176.5
 21
-451.6443688108684
 31
0.0
  0
LINE
  8
SIZE
  6
CONTINUOUS
 62
    30
 10
232.5
 20
-451.6443688108684
 30
0.0
 11
387.75714285714281
 21
-451.6443688108684
 31
0.0
  0
LINE
  8
SIZE
  6
CONTINUOUS
 62
    30
 10
200.5
 20
-451.6443688108684
 30
0.0
 11
220.5
 21
-451.6443688108684
 31
0.0
  0
CIRCLE
  8
SIZE
  6
CONTINUOUS
 62
    30
 10
200.5
 20
-451.6443688108684
 30
0.0
 40
6.0
  0
LINE
  8
SIZE
  6
CONTINUOUS
 62
    30
 10
200.5
 20
-451.6443688108684
 30
0.0
 11
188.5
 21
-451.6443688108684
 31
0.0
  0
CIRCLE
  8
SIZE
  6
CONTINUOUS
 62
    30
 10
220.5
 20
-451.6443688108684
 30
0.0
 40
6.0
  0
LINE
  8
SIZE
  6
CONTINUOUS
 62
    30
 10
220.5
 20
-451.6443688108684
 30
0.0
 11
232.5
 21
-451.6443688108684
 31
0.0
  0
TEXT
  8
SIZE
  6
CONTINUOUS
 62
    30
 10
269.49999999999989
 20
-426.6443688108684
 30
0.0
 40
64.0
  1
20
 41
0.9
 72
     1
 11
316.12857142857138
 21
-426.6443688108684
 31
0.0
  0
POINT
  8
DEFPOINTS
  6
CONTINUOUS
 62
    30
 10
220.5
 20
-214.5
 30
0.0
  0
POINT
  8
DEFPOINTS
  6
CONTINUOUS
 62
    30
 10
200.5
 20
-213.5
 30
0.0
  0
POINT
  8
DEFPOINTS
  6
CONTINUOUS
 62
    30
 10
200.5
 20
-451.6443688108684
 30
0.0
  0
LINE
  8
SIZE
  6
CONTINUOUS
 62
    30
 10
240.50000000000011
 20
-173.50000000000011
 30
0.0
 11
388.53311500750561
 21
-173.5
 31
0.0
  0
LINE
  8
SIZE
  6
CONTINUOUS
 62
    30
 10
240.50000000000011
 20
-193.95734356691369
 30
0.0
 11
388.53311500750561
 21
-193.95734356691361
 31
0.0
  0
LINE
  8
SIZE
  6
CONTINUOUS
 62
    30
 10
368.53311500750527
 20
-205.95734356691361
 30
0.0
 11
368.53311500750527
 21
-217.95734356691361
 31
0.0
  0
LINE
  8
SIZE
  6
CONTINUOUS
 62
    30
 10
368.53311500750527
 20
-161.5
 30
0.0
 11
368.53311500750527
 21
6.75714285714281
 31
0.0
  0
LINE
  8
SIZE
  6
CONTINUOUS
 62
    30
 10
368.53311500750527
 20
-193.95734356691361
 30
0.0
 11
368.53311500750527
 21
-173.5
 31
0.0
  0
CIRCLE
  8
SIZE
  6
CONTINUOUS
 62
    30
 10
368.53311500750527
 20
-193.95734356691361
 30
0.0
 40
6.0
  0
LINE
  8
SIZE
  6
CONTINUOUS
 62
    30
 10
368.53311500750527
 20
-193.95734356691361
 30
0.0
 11
368.53311500750527
 21
-205.95734356691361
 31
0.0
  0
CIRCLE
  8
SIZE
  6
CONTINUOUS
 62
    30
 10
368.53311500750527
 20
-173.5
 30
0.0
 40
6.0
  0
LINE
  8
SIZE
  6
CONTINUOUS
 62
    30
 10
368.53311500750527
 20
-173.5
 30
0.0
 11
368.53311500750527
 21
-161.5
 31
0.0
  0
TEXT
  8
SIZE
  6
CONTINUOUS
 62
    30
 10
343.53311500750527
 20
-111.5000000000001
 30
0.0
 40
64.0
  1
20
 50
90.0
 41
0.9
 72
     1
 11
343.53311500750527
 21
-64.87142857142868
 31
0.0
  0
POINT
  8
DEFPOINTS
  6
CONTINUOUS
 62
    30
 10
220.50000000000011
 20
-173.50000000000011
 30
0.0
  0
POINT
  8
DEFPOINTS
  6
CONTINUOUS
 62
    30
 10
220.50000000000011
 20
-193.95734356691369
 30
0.0
  0
POINT
  8
DEFPOINTS
  6
CONTINUOUS
 62
    30
 10
368.53311500750527
 20
-193.95734356691361
 30
0.0
  0
LINE
  8
SIZE
  6
CONTINUOUS
 62
    30
 10
240.50000000000011
 20
-173.50000000000011
 30
0.0
 11
521.50557092459371
 21
-173.5
 31
0.0
  0
LINE
  8
SIZE
  6
CONTINUOUS
 62
    30
 10
240.50000000000011
 20
-214.50000000000011
 30
0.0
 11
521.50557092459371
 21
-214.50000000000011
 31
0.0
  0
LINE
  8
SIZE
  6
CONTINUOUS
 62
    30
 10
501.50557092459371
 20
-226.50000000000011
 30
0.0
 11
501.50557092459371
 21
-238.50000000000011
 31
0.0
  0
LINE
  8
SIZE
  6
CONTINUOUS
 62
    30
 10
501.50557092459371
 20
-161.5
 30
0.0
 11
501.50557092459371
 21
-17.928571428571221
 31
0.0
  0
LINE
  8
SIZE
  6
CONTINUOUS
 62
    30
 10
501.50557092459371
 20
-214.50000000000011
 30
0.0
 11
501.50557092459371
 21
-173.5
 31
0.0
  0
CIRCLE
  8
SIZE
  6
CONTINUOUS
 62
    30
 10
501.50557092459371
 20
-214.50000000000011
 30
0.0
 40
6.0
  0
LINE
  8
SIZE
  6
CONTINUOUS
 62
    30
 10
501.50557092459371
 20
-214.50000000000011
 30
0.0
 11
501.50557092459371
 21
-226.50000000000011
 31
0.0
  0
CIRCLE
  8
SIZE
  6
CONTINUOUS
 62
    30
 10
501.50557092459371
 20
-173.5
 30
0.0
 40
6.0
  0
LINE
  8
SIZE
  6
CONTINUOUS
 62
    30
 10
501.50557092459371
 20
-173.5
 30
0.0
 11
501.50557092459371
 21
-161.5
 31
0.0
  0
TEXT
  8
SIZE
  6
CONTINUOUS
 62
    30
 10
476.50557092459348
 20
-111.4999999999999
 30
0.0
 40
64.0
  1
41
 50
90.0
 41
0.9
 72
     1
 11
476.50557092459348
 21
-77.214285714285666
 31
0.0
  0
POINT
  8
DEFPOINTS
  6
CONTINUOUS
 62
    30
 10
220.50000000000011
 20
-173.50000000000011
 30
0.0
  0
POINT
  8
DEFPOINTS
  6
CONTINUOUS
 62
    30
 10
220.50000000000011
 20
-214.50000000000011
 30
0.0
  0
POINT
  8
DEFPOINTS
  6
CONTINUOUS
 62
    30
 10
501.50557092459371
 20
-214.50000000000011
 30
0.0
  0
TEXT
  8
NOTE
  6
CONTINUOUS
 62
     4
 10
291.60430120550882
 20
275.5423612540651
 30
0.0
 40
64.0
  1
AH
 41
0.9
  0
LINE
  8
NOTE
  6
CONTINUOUS
 62
     4
 10
291.51430120550879
 20
262.74236125406509
 30
0.0
 11
387.60430120550882
 21
262.74236125406509
 31
0.0
  0
LINE
  8
NOTE
  6
CONTINUOUS
 62
     4
 10
223.62414546056701
 20
193.62528056784171
 30
0.0
 11
200.5
 21
182.0
 31
0.0
  0
LINE
  8
NOTE
  6
CONTINUOUS
 62
     4
 10
200.5
 20
182.0
 30
0.0
 11
214.713424530737
 21
203.62988244701171
 31
0.0
  0
LINE
  8
NOTE
  6
CONTINUOUS
 62
     4
 10
200.5
 20
182.0
 30
0.0
 11
237.83756999130409
 21
215.25516301485331
 31
0.0
  0
LINE
  8
NOTE
  6
CONTINUOUS
 62
     4
 10
237.83756999130409
 20
215.25516301485331
 30
0.0
 11
291.15430120550877
 21
262.74236125406509
 31
0.0
  0
LINE
  8
NOTE
  6
CONTINUOUS
 62
     4
 10
291.15430120550877
 20
262.74236125406509
 30
0.0
 11
291.51430120550879
 21
262.74236125406509
 31
0.0
  0
TEXT
  8
NOTE
  6
CONTINUOUS
 62
     4
 10
-549.94713772488694
 20
65.879698172484495
 30
0.0
 40
64.0
  1
D φ21.7
 41
0.9
 72
     2
 11
-224.09570915345839
 21
65.879698172484495
 31
0.0
  0
LINE
  8
NOTE
  6
CONTINUOUS
 62
     4
 10
-224.0057091534583
 20
53.079698172484477
 30
0.0
 11
-561.46713772488681
 21
53.07969817248437
 31
0.0
  0
LINE
  8
NOTE
  6
CONTINUOUS
 62
     4
 10
-168.4261418564208
 20
16.562302966801042
 30
0.0
 11
-156.0
 21
0.0
 31
0.0
  0
LINE
  8
NOTE
  6
CONTINUOUS
 62
     4
 10
-156.0
 20
0.0
 30
0.0
 11
-175.04251825397949
 21
8.130275490219276
 31
0.0
  0
LINE
  8
NOTE
  6
CONTINUOUS
 62
     4
 10
-156.0
 20
0.0
 30
0.0
 11
-187.46866011040021
 21
24.692578457020321
 31
0.0
  0
LINE
  8
NOTE
  6
CONTINUOUS
 62
     4
 10
-187.46866011040021
 20
24.692578457020371
 30
0.0
 11
-223.64570915345831
 21
53.079698172484477
 31
0.0
  0
LINE
  8
NOTE
  6
CONTINUOUS
 62
     4
 10
-223.64570915345831
 20
53.079698172484477
 30
0.0
 11
-224.0057091534583
 21
53.079698172484477
 31
0.0
  0
LINE
  8
OUTLINE
  6
CONTINUOUS
 62
     3
 10
96.0
 20
297.0
 30
0.0
 11
-96.0
 21
297.0
 31
0.0
  0
LINE
  8
OUTLINE
  6
CONTINUOUS
 62
     3
 10
102.7619047619048
 20
226.0
 30
0.0
 11
96.0
 21
297.0
 31
0.0
  0
LINE
  8
OUTLINE
  6
CONTINUOUS
 62
     3
 10
-102.7619047619048
 20
226.0
 30
0.0
 11
-96.0
 21
297.0
 31
0.0
  0
LINE
  8
OUTLINE
  6
CONTINUOUS
 62
     3
 10
96.0
 20
-296.0
 30
0.0
 11
-96.0
 21
-296.0
 31
0.0
  0
LINE
  8
OUTLINE
  6
CONTINUOUS
 62
     3
 10
102.61904761904761
 20
-226.5
 30
0.0
 11
96.0
 21
-296.0
 31
0.0
  0
LINE
  8
OUTLINE
  6
CONTINUOUS
 62
     3
 10
-102.61904761904761
 20
-226.5
 30
0.0
 11
-96.0
 21
-296.0
 31
0.0
  0
ENDSEC
  0
EOF
