  0
SECTION
  2
HEADER
  9
$ACADVER
  1
AC1009
  9
$DWGCODEPAGE
  3
dos932
  9
$INSBASE
 10
0.0
 20
0.0
 30
0.0
  9
$EXTMIN
 10
-612.70750295686048
 20
-554.03136049168097
 30
-0.0030516297567118
  9
$EXTMAX
 10
931.75049973855494
 20
517.18140442061849
 30
0.0007631257219032
  9
$LIMMIN
 10
-2970.0
 20
-2100.0
  9
$LIMMAX
 10
2970.0
 20
2100.0
  9
$ORTHOMODE
 70
     1
  9
$REGENMODE
 70
     1
  9
$FILLMODE
 70
     1
  9
$QTEXTMODE
 70
     0
  9
$MIRRTEXT
 70
     0
  9
$LTSCALE
 40
20.0
  9
$ATTMODE
 70
     1
  9
$TEXTSIZE
 40
64.0
  9
$TRACEWID
 40
0.05
  9
$TEXTSTYLE
  7
STANDARD
  9
$CLAYER
  8
SIZE
  9
$CELTYPE
  6
CONTINUOUS
  9
$CECOLOR
 62
     7
  9
$DIMSCALE
 40
1.0
  9
$DIMASZ
 40
12.0
  9
$DIMEXO
 40
20.0
  9
$DIMDLI
 40
200.0
  9
$DIMRND
 40
0.0
  9
$DIMDLE
 40
0.0
  9
$DIMEXE
 40
20.0
  9
$DIMTP
 40
0.0
  9
$DIMTM
 40
0.0
  9
$DIMTXT
 40
64.0
  9
$DIMCEN
 40
0.09
  9
$DIMTSZ
 40
0.0
  9
$DIMTOL
 70
     0
  9
$DIMLIM
 70
     0
  9
$DIMTIH
 70
     0
  9
$DIMTOH
 70
     0
  9
$DIMSE1
 70
     0
  9
$DIMSE2
 70
     0
  9
$DIMTAD
 70
     1
  9
$DIMZIN
 70
     8
  9
$DIMBLK
  1

  9
$DIMASO
 70
     1
  9
$DIMSHO
 70
     0
  9
$DIMPOST
  1

  9
$DIMAPOST
  1

  9
$DIMALT
 70
     0
  9
$DIMALTD
 70
     2
  9
$DIMALTF
 40
25.399999999999999
  9
$DIMLFAC
 40
1.0
  9
$DIMTOFL
 70
     1
  9
$DIMTVP
 40
0.0
  9
$DIMTIX
 70
     1
  9
$DIMSOXD
 70
     0
  9
$DIMSAH
 70
     0
  9
$DIMBLK1
  1

  9
$DIMBLK2
  1

  9
$DIMSTYLE
  2
STANDARD
  9
$DIMCLRD
 70
     7
  9
$DIMCLRE
 70
     7
  9
$DIMCLRT
 70
     7
  9
$DIMTFAC
 40
1.0
  9
$DIMGAP
 40
25.0
  9
$LUNITS
 70
     2
  9
$LUPREC
 70
     4
  9
$SKETCHINC
 40
0.1
  9
$FILLETRAD
 40
3.0
  9
$AUNITS
 70
     1
  9
$AUPREC
 70
     3
  9
$MENU
  1
ACAD
  9
$ELEVATION
 40
0.0
  9
$PELEVATION
 40
0.0
  9
$THICKNESS
 40
0.0
  9
$LIMCHECK
 70
     0
  9
$CHAMFERA
 40
0.0
  9
$CHAMFERB
 40
0.0
  9
$SKPOLY
 70
     0
  9
$TDCREATE
 40
2453019.62301037
  9
$TDUPDATE
 40
2459268.673494248
  9
$TDINDWG
 40
1.7230831134
  9
$TDUSRTIMER
 40
1.7230831134
  9
$USRTIMER
 70
     1
  9
$ANGBASE
 50
0.0
  9
$ANGDIR
 70
     0
  9
$PDMODE
 70
     3
  9
$PDSIZE
 40
-2.0
  9
$PLINEWID
 40
0.0
  9
$SPLFRAME
 70
     0
  9
$SPLINETYPE
 70
     6
  9
$SPLINESEGS
 70
     8
  9
$SURFTAB1
 70
     6
  9
$SURFTAB2
 70
     6
  9
$SURFTYPE
 70
     6
  9
$SURFU
 70
     6
  9
$SURFV
 70
     6
  9
$UCSNAME
  2

  9
$UCSORG
 10
0.0
 20
0.0
 30
0.0
  9
$UCSXDIR
 10
1.0
 20
0.0
 30
0.0
  9
$UCSYDIR
 10
0.0
 20
1.0
 30
0.0
  9
$PUCSNAME
  2

  9
$PUCSORG
 10
0.0
 20
0.0
 30
0.0
  9
$PUCSXDIR
 10
1.0
 20
0.0
 30
0.0
  9
$PUCSYDIR
 10
0.0
 20
1.0
 30
0.0
  9
$USERI1
 70
     0
  9
$USERI2
 70
     0
  9
$USERI3
 70
     0
  9
$USERI4
 70
     0
  9
$USERI5
 70
     0
  9
$USERR1
 40
20.0
  9
$USERR2
 40
0.0
  9
$USERR3
 40
0.0
  9
$USERR4
 40
0.0
  9
$USERR5
 40
0.0
  9
$WORLDVIEW
 70
     1
  9
$SHADEDGE
 70
     3
  9
$SHADEDIF
 70
    70
  9
$TILEMODE
 70
     1
  9
$MAXACTVP
 70
    48
  9
$PINSBASE
 10
0.0
 20
0.0
 30
0.0
  9
$PLIMCHECK
 70
     0
  9
$PEXTMIN
 10
-100000000000000000000.0
 20
-100000000000000000000.0
 30
-100000000000000000000.0
  9
$PEXTMAX
 10
100000000000000000000.0
 20
100000000000000000000.0
 30
100000000000000000000.0
  9
$PLIMMIN
 10
0.0
 20
0.0
  9
$PLIMMAX
 10
12.0
 20
9.0
  9
$UNITMODE
 70
     0
  9
$VISRETAIN
 70
     0
  9
$PLINEGEN
 70
     0
  9
$PSLTSCALE
 70
     0
  9
$TREEDEPTH
 70
  3020
  9
$ATTDIA
 70
     0
  9
$ATTREQ
 70
     1
  9
$BLIPMODE
 70
     1
  9
$COORDS
 70
     1
  9
$DRAGMODE
 70
     2
  9
$OSMODE
 70
     0
  9
$HANDLING
 70
     0
  9
$HANDSEED
  5
10AC7
  0
ENDSEC
  0
SECTION
  2
TABLES
  0
TABLE
  2
LTYPE
 70
     2
  0
LTYPE
  2
CONTINUOUS
 70
     0
  3
実線
 72
    65
 73
     0
 40
0.0
  0
LTYPE
  2
DASHDOT
 70
     0
  3
____ _ ____ _ ____ _ ____ _ ____ _ ____ _ ____
 72
    65
 73
     4
 40
5.5
 49
4.0
 49
-0.6
 49
0.3
 49
-0.6
  0
ENDTAB
  0
TABLE
  2
LAYER
 70
    12
  0
LAYER
  2
0
 70
     0
 62
     7
  6
CONTINUOUS
  0
LAYER
  2
BASIS
 70
     0
 62
     6
  6
DASHDOT
  0
LAYER
  2
OUTLINE
 70
     0
 62
     3
  6
CONTINUOUS
  0
LAYER
  2
DETAIL
 70
     0
 62
     5
  6
CONTINUOUS
  0
LAYER
  2
SIZE
 70
     0
 62
    30
  6
CONTINUOUS
  0
LAYER
  2
ARRANGE
 70
     0
 62
     1
  6
CONTINUOUS
  0
LAYER
  2
DEFPOINTS
 70
     0
 62
     7
  6
CONTINUOUS
  0
LAYER
  2
ETC
 70
     0
 62
    61
  6
CONTINUOUS
  0
LAYER
  2
FIX
 70
     0
 62
    11
  6
CONTINUOUS
  0
LAYER
  2
NOTE
 70
     0
 62
     4
  6
CONTINUOUS
  0
LAYER
  2
SERVICESPACE
 70
    64
 62
     2
  6
DASHDOT
  0
LAYER
  2
SYMBOLLINE
 70
    64
 62
    15
  6
CONTINUOUS
  0
ENDTAB
  0
TABLE
  2
STYLE
 70
     1
  0
STYLE
  2
STANDARD
 70
     0
 40
64.0
 41
0.9
 50
0.0
 71
     0
 42
64.0
  3
SIMPLEX.shx
  4
BIGFONT.shx
  0
ENDTAB
  0
TABLE
  2
APPID
 70
    19
  0
APPID
  2
ACAD
 70
     0
  0
APPID
  2
AUTOCAD_POSTSCRIPT_FIGURE
 70
     0
  0
APPID
  2
ACAD_EXEMPT_FROM_CAD_STANDARDS
 70
     0
  0
APPID
  2
ACAD_PSEXT
 70
     0
  0
APPID
  2
ACAUTHENVIRON
 70
     0
  0
APPID
  2
GENIUS_GENOENT_13
 70
     0
  0
APPID
  2
GENIUS_GENCFG_13
 70
     0
  0
APPID
  2
GENIUS_GENCFG0_13
 70
     0
  0
APPID
  2
GENIUS_GENCFG1_13
 70
     0
  0
APPID
  2
GENIUS_GENCFG2_13
 70
     0
  0
APPID
  2
GENIUS_GENCFG3_13
 70
     0
  0
APPID
  2
GENIUS_GENCFG4_13
 70
     0
  0
APPID
  2
GENIUS_GEVCFG0_13
 70
     0
  0
APPID
  2
CONTENTBLOCKICON
 70
     0
  0
APPID
  2
CONTENTBLOCKDESCRIPTION
 70
     0
  0
APPID
  2
ACAD_NAV_VCDISPLAY
 70
     0
  0
APPID
  2
ACAD_MLEADERVER
 70
     0
  0
APPID
  2
ACDBDYNAMICBLOCKTRUENAME
 70
     0
  0
APPID
  2
ACDBDYNAMICBLOCKGUID
 70
     0
  0
ENDTAB
  0
TABLE
  2
DIMSTYLE
 70
     1
  0
DIMSTYLE
  2
STANDARD
 70
     0
  3

  4

  5
_ORIGIN
  6

  7

 40
1.0
 41
12.0
 42
20.0
 43
200.0
 44
20.0
 45
0.0
 46
0.0
 47
0.0
 48
0.0
140
64.0
141
0.09
142
0.0
143
25.399999999999999
144
1.0
145
0.0
146
1.0
147
25.0
 71
     0
 72
     0
 73
     0
 74
     0
 75
     0
 76
     0
 77
     1
 78
     8
170
     0
171
     2
172
     1
173
     0
174
     1
175
     0
176
     7
177
     7
178
     7
  0
ENDTAB
  0
TABLE
  2
VIEW
 70
     1
  0
VIEW
  2
ALL
 70
     0
 40
4282.6198079999986
 10
0.0
 20
41.309904000000003
 41
5940.0
 11
0.0
 21
0.0
 31
1.0
 12
0.0
 22
0.0
 32
0.0
 42
50.0
 43
0.0
 44
0.0
 50
0.0
 71
     0
  0
ENDTAB
  0
TABLE
  2
UCS
 70
     0
  0
ENDTAB
  0
TABLE
  2
VPORT
 70
     1
  0
VPORT
  2
*ACTIVE
 70
     0
 10
0.0
 20
0.0
 11
1.0
 21
1.0
 12
159.5214983908472
 22
-18.42497803553124
 13
0.0
 23
0.0
 14
1.0
 24
1.0
 15
0.0
 25
0.0
 16
0.0
 26
0.0
 36
1.0
 17
0.0
 27
0.0
 37
0.0
 40
935.00983879444698
 41
1.9148387096774191
 42
50.0
 43
0.0
 44
0.0
 50
0.0
 51
0.0
 71
     0
 72
  1000
 73
     1
 74
     3
 75
     0
 76
     0
 77
     0
 78
     0
  0
ENDTAB
  0
ENDSEC
  0
SECTION
  2
BLOCKS
  0
BLOCK
  8
0
  2
_ORIGIN
 70
     0
 10
0.0
 20
0.0
 30
0.0
  3
_ORIGIN
  1
_ORIGIN
  0
CIRCLE
  8
SIZE
  6
CONTINUOUS
 62
    30
 10
0.0
 20
0.0
 30
0.0
 40
0.5
  0
LINE
  8
SIZE
  6
CONTINUOUS
 62
    30
 10
0.0
 20
0.0
 30
0.0
 11
-1.0
 21
0.0
 31
0.0
  0
ENDBLK
  8
0
  0
ENDSEC
  0
SECTION
  2
ENTITIES
  0
CIRCLE
  8
ARRANGE
  6
CONTINUOUS
 62
     1
 10
0.0
 20
0.0
 30
0.0
 40
40.0
  0
POINT
  8
ARRANGE
  6
CONTINUOUS
 62
     1
 10
0.0
 20
0.0
 30
0.0
  0
LINE
  8
BASIS
  6
DASHDOT
 62
     6
 10
0.0
 20
-335.6406434936867
 30
0.0
 11
0.0
 21
62.041784856934562
 31
0.0
  0
LINE
  8
BASIS
  6
DASHDOT
 62
     6
 10
-354.04789824326758
 20
-153.62370904310069
 30
0.0
 11
354.04789824326758
 21
-153.62370904310069
 31
0.0
  0
TEXT
  8
NOTE
  6
CONTINUOUS
 62
     4
 10
361.0603261317093
 20
-184.54424609781671
 30
0.0
 40
63.968000000000053
  1
RA
 41
0.9
 72
     1
 11
411.77781184599507
 21
-184.54424609781671
 31
0.0
  0
TEXT
  8
NOTE
  6
CONTINUOUS
 62
     4
 10
-473.71204172634992
 20
-186.27255336879
 30
0.0
 40
63.968000000000053
  1
EA
 41
0.9
 72
     1
 11
-425.73604172634992
 21
-186.27255336879
 31
0.0
  0
CIRCLE
  8
FIX
  6
CONTINUOUS
 62
    11
 10
226.0
 20
-143.16293380226671
 30
0.0
 40
4.9974999999999996
  0
LINE
  8
NOTE
  6
CONTINUOUS
 62
     4
 10
226.0
 20
-166.47465377795049
 30
0.0
 11
226.0
 21
-119.85121382658281
 31
0.0
  0
LINE
  8
NOTE
  6
CONTINUOUS
 62
     4
 10
197.14116370032181
 20
-143.16293380226671
 30
0.0
 11
253.4588362996783
 21
-143.16293380226671
 31
0.0
  0
CIRCLE
  8
FIX
  6
CONTINUOUS
 62
    11
 10
-226.0
 20
-143.16293380226671
 30
0.0
 40
4.9974999999999996
  0
LINE
  8
NOTE
  6
CONTINUOUS
 62
     4
 10
-226.0
 20
-166.47465377795049
 30
0.0
 11
-226.0
 21
-119.85121382658281
 31
0.0
  0
LINE
  8
NOTE
  6
CONTINUOUS
 62
     4
 10
-253.4588362996783
 20
-143.16293380226671
 30
0.0
 11
-198.84081370032169
 21
-143.16293380226671
 31
0.0
  0
LINE
  8
SIZE
  6
CONTINUOUS
 62
    30
 10
-246.6575062290265
 20
-127.1314702488738
 30
0.0
 11
-246.6575062290265
 21
285.82627709302159
 31
0.0
  0
LINE
  8
SIZE
  6
CONTINUOUS
 62
    30
 10
246.71072130110949
 20
-127.1314702488738
 30
0.0
 11
246.71072130110949
 21
285.82627709302159
 31
0.0
  0
LINE
  8
SIZE
  6
CONTINUOUS
 62
    30
 10
-234.6575062290265
 20
265.82627709302159
 30
0.0
 11
234.71072130110949
 21
265.82627709302159
 31
0.0
  0
CIRCLE
  8
SIZE
  6
CONTINUOUS
 62
    30
 10
-246.6575062290265
 20
265.82627709302159
 30
0.0
 40
6.0
  0
LINE
  8
SIZE
  6
CONTINUOUS
 62
    30
 10
-246.6575062290265
 20
265.82627709302159
 30
0.0
 11
-234.6575062290265
 21
265.82627709302159
 31
0.0
  0
CIRCLE
  8
SIZE
  6
CONTINUOUS
 62
    30
 10
246.71072130110949
 20
265.82627709302159
 30
0.0
 40
6.0
  0
LINE
  8
SIZE
  6
CONTINUOUS
 62
    30
 10
246.71072130110949
 20
265.82627709302159
 30
0.0
 11
234.71072130110949
 21
265.82627709302159
 31
0.0
  0
TEXT
  8
SIZE
  6
CONTINUOUS
 62
    30
 10
-74.05714285714285
 20
290.82627709302159
 30
0.0
 40
64.0
  1
493
 41
0.9
 72
     1
 11
0.0
 21
290.82627709302159
 31
0.0
  0
POINT
  8
DEFPOINTS
  6
CONTINUOUS
 62
    30
 10
-246.6575062290265
 20
-147.1314702488738
 30
0.0
  0
POINT
  8
DEFPOINTS
  6
CONTINUOUS
 62
    30
 10
246.71072130110949
 20
-147.1314702488738
 30
0.0
  0
POINT
  8
DEFPOINTS
  6
CONTINUOUS
 62
    30
 10
246.71072130110949
 20
265.82627709302159
 30
0.0
  0
LINE
  8
SIZE
  6
CONTINUOUS
 62
    30
 10
226.0
 20
-99.851213826582807
 30
0.0
 11
226.0
 21
120.83537604548449
 31
0.0
  0
LINE
  8
SIZE
  6
CONTINUOUS
 62
    30
 10
-226.0
 20
-99.851213826582807
 30
0.0
 11
-226.0
 21
120.83537604548449
 31
0.0
  0
LINE
  8
SIZE
  6
CONTINUOUS
 62
    30
 10
214.0
 20
100.83537604548449
 30
0.0
 11
-214.0
 21
100.83537604548449
 31
0.0
  0
CIRCLE
  8
SIZE
  6
CONTINUOUS
 62
    30
 10
226.0
 20
100.83537604548449
 30
0.0
 40
6.0
  0
LINE
  8
SIZE
  6
CONTINUOUS
 62
    30
 10
226.0
 20
100.83537604548449
 30
0.0
 11
214.0
 21
100.83537604548449
 31
0.0
  0
CIRCLE
  8
SIZE
  6
CONTINUOUS
 62
    30
 10
-226.0
 20
100.83537604548449
 30
0.0
 40
6.0
  0
LINE
  8
SIZE
  6
CONTINUOUS
 62
    30
 10
-226.0
 20
100.83537604548449
 30
0.0
 11
-214.0
 21
100.83537604548449
 31
0.0
  0
TEXT
  8
SIZE
  6
CONTINUOUS
 62
    30
 10
-74.057142857142836
 20
125.83537604548449
 30
0.0
 40
64.0
  1
452
 41
0.9
 72
     1
 11
0.0
 21
125.83537604548449
 31
0.0
  0
POINT
  8
DEFPOINTS
  6
CONTINUOUS
 62
    30
 10
226.0
 20
-119.85121382658281
 30
0.0
  0
POINT
  8
DEFPOINTS
  6
CONTINUOUS
 62
    30
 10
-226.0
 20
-119.85121382658281
 30
0.0
  0
POINT
  8
DEFPOINTS
  6
CONTINUOUS
 62
    30
 10
-226.0
 20
100.83537604548449
 30
0.0
  0
LINE
  8
SIZE
  6
CONTINUOUS
 62
    30
 10
244.36925812942141
 20
-323.30950275199842
 30
0.0
 11
244.36925812942141
 21
-549.01721411046515
 31
0.0
  0
LINE
  8
SIZE
  6
CONTINUOUS
 62
    30
 10
-244.36925812942181
 20
-323.30950275199842
 30
0.0
 11
-244.36925812942201
 21
-549.01721411046515
 31
0.0
  0
LINE
  8
SIZE
  6
CONTINUOUS
 62
    30
 10
232.36925812942141
 20
-529.01721411046515
 30
0.0
 11
-232.36925812942181
 21
-529.01721411046515
 31
0.0
  0
CIRCLE
  8
SIZE
  6
CONTINUOUS
 62
    30
 10
244.36925812942141
 20
-529.01721411046515
 30
0.0
 40
6.0
  0
LINE
  8
SIZE
  6
CONTINUOUS
 62
    30
 10
244.36925812942141
 20
-529.01721411046515
 30
0.0
 11
232.36925812942141
 21
-529.01721411046515
 31
0.0
  0
CIRCLE
  8
SIZE
  6
CONTINUOUS
 62
    30
 10
-244.36925812942181
 20
-529.01721411046515
 30
0.0
 40
6.0
  0
LINE
  8
SIZE
  6
CONTINUOUS
 62
    30
 10
-244.36925812942181
 20
-529.01721411046515
 30
0.0
 11
-232.36925812942181
 21
-529.01721411046515
 31
0.0
  0
TEXT
  8
SIZE
  6
CONTINUOUS
 62
    30
 10
-73.976545171354203
 20
-504.01721411046509
 30
0.0
 40
64.0
  1
489
 41
0.9
 72
     1
 11
-1.290830885639934
 21
-504.01721411046509
 31
0.0
  0
POINT
  8
DEFPOINTS
  6
CONTINUOUS
 62
    30
 10
244.36925812942141
 20
-303.30950275199842
 30
0.0
  0
POINT
  8
DEFPOINTS
  6
CONTINUOUS
 62
    30
 10
-244.36925812942181
 20
-303.30950275199842
 30
0.0
  0
POINT
  8
DEFPOINTS
  6
CONTINUOUS
 62
    30
 10
-244.36925812942181
 20
-529.01721411046515
 30
0.0
  0
LINE
  8
SIZE
  6
CONTINUOUS
 62
    30
 10
329.1087172381209
 20
-267.12259069438647
 30
0.0
 11
329.1087172381209
 21
-549.01721411046515
 31
0.0
  0
LINE
  8
SIZE
  6
CONTINUOUS
 62
    30
 10
244.36925812942141
 20
-323.30950275199842
 30
0.0
 11
244.36925812942141
 21
-549.01721411046515
 31
0.0
  0
LINE
  8
SIZE
  6
CONTINUOUS
 62
    30
 10
256.36925812942138
 20
-529.01721411046515
 30
0.0
 11
317.1087172381209
 21
-529.01721411046515
 31
0.0
  0
LINE
  8
SIZE
  6
CONTINUOUS
 62
    30
 10
329.1087172381209
 20
-529.01721411046515
 30
0.0
 11
501.69443152383519
 21
-529.01721411046515
 31
0.0
  0
CIRCLE
  8
SIZE
  6
CONTINUOUS
 62
    30
 10
244.36925812942141
 20
-529.01721411046515
 30
0.0
 40
6.0
  0
LINE
  8
SIZE
  6
CONTINUOUS
 62
    30
 10
244.36925812942141
 20
-529.01721411046515
 30
0.0
 11
256.36925812942138
 21
-529.01721411046515
 31
0.0
  0
CIRCLE
  8
SIZE
  6
CONTINUOUS
 62
    30
 10
329.1087172381209
 20
-529.01721411046515
 30
0.0
 40
6.0
  0
LINE
  8
SIZE
  6
CONTINUOUS
 62
    30
 10
329.1087172381209
 20
-529.01721411046515
 30
0.0
 11
317.1087172381209
 21
-529.01721411046515
 31
0.0
  0
TEXT
  8
SIZE
  6
CONTINUOUS
 62
    30
 10
383.43728866669238
 20
-504.01721411046509
 30
0.0
 40
64.0
  1
85
 41
0.9
 72
     1
 11
430.06586009526382
 21
-504.01721411046509
 31
0.0
  0
POINT
  8
DEFPOINTS
  6
CONTINUOUS
 62
    30
 10
329.1087172381209
 20
-247.1225906943865
 30
0.0
  0
POINT
  8
DEFPOINTS
  6
CONTINUOUS
 62
    30
 10
244.36925812942141
 20
-303.30950275199842
 30
0.0
  0
POINT
  8
DEFPOINTS
  6
CONTINUOUS
 62
    30
 10
244.36925812942141
 20
-529.01721411046515
 30
0.0
  0
LINE
  8
SIZE
  6
CONTINUOUS
 62
    30
 10
-244.36925812942181
 20
-323.30950275199842
 30
0.0
 11
-244.36925812942201
 21
-549.01721411046515
 31
0.0
  0
LINE
  8
SIZE
  6
CONTINUOUS
 62
    30
 10
-329.1619323102052
 20
-267.12259069438647
 30
0.0
 11
-329.1619323102052
 21
-549.01721411046515
 31
0.0
  0
LINE
  8
SIZE
  6
CONTINUOUS
 62
    30
 10
-256.36925812942172
 20
-529.01721411046515
 30
0.0
 11
-317.1619323102052
 21
-529.01721411046515
 31
0.0
  0
LINE
  8
SIZE
  6
CONTINUOUS
 62
    30
 10
-329.1619323102052
 20
-529.01721411046515
 30
0.0
 11
-484.41907516734818
 21
-529.01721411046515
 31
0.0
  0
CIRCLE
  8
SIZE
  6
CONTINUOUS
 62
    30
 10
-244.36925812942181
 20
-529.01721411046515
 30
0.0
 40
6.0
  0
LINE
  8
SIZE
  6
CONTINUOUS
 62
    30
 10
-244.36925812942181
 20
-529.01721411046515
 30
0.0
 11
-256.36925812942178
 21
-529.01721411046515
 31
0.0
  0
CIRCLE
  8
SIZE
  6
CONTINUOUS
 62
    30
 10
-329.1619323102052
 20
-529.01721411046515
 30
0.0
 40
6.0
  0
LINE
  8
SIZE
  6
CONTINUOUS
 62
    30
 10
-329.1619323102052
 20
-529.01721411046515
 30
0.0
 11
-317.1619323102052
 21
-529.01721411046515
 31
0.0
  0
TEXT
  8
SIZE
  6
CONTINUOUS
 62
    30
 10
-459.41907516734818
 20
-504.01721411046509
 30
0.0
 40
64.0
  1
85
 41
0.9
 72
     1
 11
-412.79050373877681
 21
-504.01721411046509
 31
0.0
  0
POINT
  8
DEFPOINTS
  6
CONTINUOUS
 62
    30
 10
-244.36925812942181
 20
-303.30950275199842
 30
0.0
  0
POINT
  8
DEFPOINTS
  6
CONTINUOUS
 62
    30
 10
-329.1619323102052
 20
-247.1225906943865
 30
0.0
  0
POINT
  8
DEFPOINTS
  6
CONTINUOUS
 62
    30
 10
-329.1619323102052
 20
-529.01721411046515
 30
0.0
  0
LINE
  8
SIZE
  6
CONTINUOUS
 62
    30
 10
347.40583493143799
 20
-57.517288859707428
 30
0.0
 11
697.45480863793364
 21
-57.517288859707548
 31
0.0
  0
LINE
  8
SIZE
  6
CONTINUOUS
 62
    30
 10
346.39474856184557
 20
-249.62369908232591
 30
0.0
 11
697.45480863793364
 21
-249.623699082326
 31
0.0
  0
LINE
  8
SIZE
  6
CONTINUOUS
 62
    30
 10
677.45480863793364
 20
-69.517288859707548
 30
0.0
 11
677.45480863793364
 21
-237.623699082326
 31
0.0
  0
LINE
  8
SIZE
  6
CONTINUOUS
 62
    30
 10
677.45480863793364
 20
-249.623699082326
 30
0.0
 11
677.45480863793352
 21
-515.45622001873949
 31
0.0
  0
CIRCLE
  8
SIZE
  6
CONTINUOUS
 62
    30
 10
677.45480863793364
 20
-57.517288859707492
 30
0.0
 40
6.0
  0
LINE
  8
SIZE
  6
CONTINUOUS
 62
    30
 10
677.45480863793364
 20
-57.517288859707492
 30
0.0
 11
677.45480863793364
 21
-69.517288859707548
 31
0.0
  0
CIRCLE
  8
SIZE
  6
CONTINUOUS
 62
    30
 10
677.45480863793364
 20
-249.623699082326
 30
0.0
 40
6.0
  0
LINE
  8
SIZE
  6
CONTINUOUS
 62
    30
 10
677.45480863793364
 20
-249.623699082326
 30
0.0
 11
677.45480863793364
 21
-237.623699082326
 31
0.0
  0
TEXT
  8
SIZE
  6
CONTINUOUS
 62
    30
 10
641.78814197126701
 20
-500.6047914473109
 30
0.0
 40
64.0
  1
φ192
 50
90.0
 41
0.9
 72
     1
 11
641.78814197126701
 21
-391.71336287588241
 31
0.0
  0
POINT
  8
DEFPOINTS
  6
CONTINUOUS
 62
    30
 10
327.40583493143799
 20
-57.517288859707428
 30
0.0
  0
POINT
  8
DEFPOINTS
  6
CONTINUOUS
 62
    30
 10
326.39474856184557
 20
-249.62369908232591
 30
0.0
  0
POINT
  8
DEFPOINTS
  6
CONTINUOUS
 62
    30
 10
677.45480863793364
 20
-249.623699082326
 30
0.0
  0
LINE
  8
SIZE
  6
CONTINUOUS
 62
    30
 10
271.39364764448652
 20
-49.588243119217452
 30
0.0
 11
858.53401073774694
 21
-49.588243119217623
 31
0.0
  0
LINE
  8
SIZE
  6
CONTINUOUS
 62
    30
 10
271.39364764448652
 20
-257.60595989490048
 30
0.0
 11
858.53401073774694
 21
-257.60595989490071
 31
0.0
  0
LINE
  8
SIZE
  6
CONTINUOUS
 62
    30
 10
838.53401073774694
 20
-61.588243119217623
 30
0.0
 11
838.53401073774694
 21
-245.60595989490071
 31
0.0
  0
LINE
  8
SIZE
  6
CONTINUOUS
 62
    30
 10
838.53401073774694
 20
-257.60595989490071
 30
0.0
 11
838.53401073774694
 21
-553.71965870512463
 31
0.0
  0
CIRCLE
  8
SIZE
  6
CONTINUOUS
 62
    30
 10
838.53401073774694
 20
-49.588243119217623
 30
0.0
 40
6.0
  0
LINE
  8
SIZE
  6
CONTINUOUS
 62
    30
 10
838.53401073774694
 20
-49.588243119217623
 30
0.0
 11
838.53401073774694
 21
-61.588243119217623
 31
0.0
  0
CIRCLE
  8
SIZE
  6
CONTINUOUS
 62
    30
 10
838.53401073774694
 20
-257.60595989490071
 30
0.0
 40
6.0
  0
LINE
  8
SIZE
  6
CONTINUOUS
 62
    30
 10
838.53401073774694
 20
-257.60595989490071
 30
0.0
 11
838.53401073774694
 21
-245.60595989490071
 31
0.0
  0
TEXT
  8
SIZE
  6
CONTINUOUS
 62
    30
 10
802.86734407108031
 20
-538.86823013369576
 30
0.0
 40
64.0
  1
φ208
 50
90.0
 41
0.9
 72
     1
 11
802.86734407108031
 21
-424.49108727655278
 31
0.0
  0
POINT
  8
DEFPOINTS
  6
CONTINUOUS
 62
    30
 10
251.39364764448649
 20
-49.588243119217452
 30
0.0
  0
POINT
  8
DEFPOINTS
  6
CONTINUOUS
 62
    30
 10
251.39364764448649
 20
-257.60595989490048
 30
0.0
  0
POINT
  8
DEFPOINTS
  6
CONTINUOUS
 62
    30
 10
838.53401073774694
 20
-257.60595989490071
 30
0.0
  0
LINE
  8
SIZE
  6
CONTINUOUS
 62
    30
 10
-261.65528945314668
 20
-1.0110863695929311
 30
0.0
 11
-543.55865633719168
 21
-1.0110863695928169
 31
0.0
  0
LINE
  8
SIZE
  6
CONTINUOUS
 62
    30
 10
-261.65528945314668
 20
-306.12990157244121
 30
0.0
 11
-543.55865633719179
 21
-306.12990157244087
 31
0.0
  0
LINE
  8
SIZE
  6
CONTINUOUS
 62
    30
 10
-523.55865633719168
 20
-13.011086369592819
 30
0.0
 11
-523.55865633719179
 21
-294.12990157244087
 31
0.0
  0
CIRCLE
  8
SIZE
  6
CONTINUOUS
 62
    30
 10
-523.55865633719168
 20
-1.0110863695928169
 30
0.0
 40
6.0
  0
LINE
  8
SIZE
  6
CONTINUOUS
 62
    30
 10
-523.55865633719168
 20
-1.0110863695928169
 30
0.0
 11
-523.55865633719168
 21
-13.011086369592819
 31
0.0
  0
CIRCLE
  8
SIZE
  6
CONTINUOUS
 62
    30
 10
-523.55865633719179
 20
-306.12990157244087
 30
0.0
 40
6.0
  0
LINE
  8
SIZE
  6
CONTINUOUS
 62
    30
 10
-523.55865633719179
 20
-306.12990157244087
 30
0.0
 11
-523.55865633719179
 21
-294.12990157244087
 31
0.0
  0
TEXT
  8
SIZE
  6
CONTINUOUS
 62
    30
 10
-548.55865633719168
 20
-221.45032609206271
 30
0.0
 40
64.0
  1
305
 50
90.0
 41
0.9
 72
     1
 11
-548.55865633719168
 21
-147.39318323491989
 31
0.0
  0
POINT
  8
DEFPOINTS
  6
CONTINUOUS
 62
    30
 10
-241.65528945314671
 20
-1.0110863695929311
 30
0.0
  0
POINT
  8
DEFPOINTS
  6
CONTINUOUS
 62
    30
 10
-241.65528945314671
 20
-306.12990157244121
 30
0.0
  0
POINT
  8
DEFPOINTS
  6
CONTINUOUS
 62
    30
 10
-523.55865633719179
 20
-306.12990157244087
 30
0.0
  0
TEXT
  8
NOTE
  6
CONTINUOUS
 62
     4
 10
304.24270495070567
 20
-3.072995944687023
 30
0.0
 40
63.968000000000053
  1
AH
 41
0.9
  0
LINE
  8
NOTE
  6
CONTINUOUS
 62
     4
 10
230.40821096710849
 20
-138.79100055639611
 30
0.0
 11
226.0
 21
-143.16293380226671
 31
0.0
  0
LINE
  8
NOTE
  6
CONTINUOUS
 62
     4
 10
226.0
 20
-143.16293380226671
 30
0.0
 11
227.63164703275871
 21
-137.17262060533159
 31
0.0
  0
LINE
  8
NOTE
  6
CONTINUOUS
 62
     4
 10
226.0
 20
-143.16293380226671
 30
0.0
 11
232.03985799986719
 21
-132.80068735946091
 31
0.0
  0
LINE
  8
NOTE
  6
CONTINUOUS
 62
     4
 10
232.03985799986711
 20
-132.80068735946091
 30
0.0
 11
298.96383718351069
 21
-17.982960643142061
 31
0.0
  0
LINE
  8
NOTE
  6
CONTINUOUS
 62
     4
 10
298.96383718351069
 20
-17.982960643142061
 30
0.0
 11
434.63882289779639
 21
-17.982960643142061
 31
0.0
  0
TEXT
  8
ETC
  6
CONTINUOUS
 62
    61
 10
308.74532180849661
 20
452.93488185395518
 30
0.0
 40
64.0
  1
BFS-65SKA2_4
 41
0.9
  0
TEXT
  8
ETC
  6
CONTINUOUS
 62
    61
 10
304.55932780849622
 20
334.97957183912388
 30
0.0
 40
64.0
  1
産業扇
 41
0.9
  0
TEXT
  8
ETC
  6
CONTINUOUS
 62
    61
 10
355.26072605705212
 20
226.83079895289859
 30
0.0
 40
40.0
  1
BFS-65SKA2
 41
0.9
  0
TEXT
  8
ETC
  6
CONTINUOUS
 62
    61
 10
355.26072605705212
 20
160.83079895289859
 30
0.0
 40
40.0
  1
BFS-80SKA2
 41
0.9
  0
LINE
  8
DETAIL
  6
CONTINUOUS
 62
     5
 10
329.16193231020532
 20
-247.1225906943865
 30
0.0
 11
328.84264187770248
 21
-247.81438663147591
 31
0.0
  0
LINE
  8
DETAIL
  6
CONTINUOUS
 62
     5
 10
328.84264187770248
 20
-247.81438663147591
 30
0.0
 11
328.68299666145077
 21
-248.50618256856569
 31
0.0
  0
LINE
  8
DETAIL
  6
CONTINUOUS
 62
     5
 10
328.68299666145077
 20
-248.50618256856569
 30
0.0
 11
327.8847705801935
 21
-249.03833328940411
 31
0.0
  0
LINE
  8
DETAIL
  6
CONTINUOUS
 62
     5
 10
327.8847705801935
 20
-249.03833328940411
 30
0.0
 11
327.35261985935477
 21
-249.62369908232591
 31
0.0
  0
LINE
  8
DETAIL
  6
CONTINUOUS
 62
     5
 10
327.35261985935477
 20
-249.62369908232591
 30
0.0
 11
326.34153348976201
 21
-249.62369908232591
 31
0.0
  0
LINE
  8
DETAIL
  6
CONTINUOUS
 62
     5
 10
246.17857058027209
 20
-49.588243119217452
 30
0.0
 11
245.64641985943359
 21
-49.588243119217452
 31
0.0
  0
LINE
  8
DETAIL
  6
CONTINUOUS
 62
     5
 10
245.64641985943359
 20
-49.588243119217452
 30
0.0
 11
245.16748421067919
 21
-49.322167758798336
 31
0.0
  0
LINE
  8
DETAIL
  6
CONTINUOUS
 62
     5
 10
245.16748421067919
 20
-49.322167758798336
 30
0.0
 11
244.6353334898408
 21
-48.790017037959672
 31
0.0
  0
LINE
  8
DETAIL
  6
CONTINUOUS
 62
     5
 10
244.6353334898408
 20
-48.790017037959672
 30
0.0
 11
244.36925812942181
 21
-48.630371821708252
 31
0.0
  0
LINE
  8
DETAIL
  6
CONTINUOUS
 62
     5
 10
244.36925812942181
 20
-258.82990655282862
 30
0.0
 11
244.6353334898408
 21
-258.29775583198978
 31
0.0
  0
LINE
  8
DETAIL
  6
CONTINUOUS
 62
     5
 10
244.6353334898408
 20
-258.29775583198978
 30
0.0
 11
245.16748421067919
 21
-257.81882018323557
 31
0.0
  0
LINE
  8
DETAIL
  6
CONTINUOUS
 62
     5
 10
245.16748421067919
 20
-257.81882018323557
 30
0.0
 11
245.64641985943359
 21
-257.60595989490048
 31
0.0
  0
LINE
  8
DETAIL
  6
CONTINUOUS
 62
     5
 10
245.64641985943359
 20
-257.60595989490048
 30
0.0
 11
246.17857058027209
 21
-257.60595989490048
 31
0.0
  0
LINE
  8
DETAIL
  6
CONTINUOUS
 62
     5
 10
251.44686271657091
 20
-257.60595989490048
 30
0.0
 11
246.17857058027209
 21
-257.60595989490048
 31
0.0
  0
LINE
  8
DETAIL
  6
CONTINUOUS
 62
     5
 10
251.44686271657091
 20
-49.588243119217452
 30
0.0
 11
246.17857058027209
 21
-49.588243119217452
 31
0.0
  0
LINE
  8
DETAIL
  6
CONTINUOUS
 62
     5
 10
251.44686271657091
 20
-49.588243119217452
 30
0.0
 11
251.44686271657091
 21
-257.60595989490048
 31
0.0
  0
LINE
  8
DETAIL
  6
CONTINUOUS
 62
     5
 10
329.16193231020532
 20
-247.1225906943865
 30
0.0
 11
329.16193231020532
 21
-59.007310878054852
 31
0.0
  0
LINE
  8
DETAIL
  6
CONTINUOUS
 62
     5
 10
327.35261985935477
 20
-57.517288859707428
 30
0.0
 11
327.8847705801935
 21
-57.517288859707428
 31
0.0
  0
LINE
  8
DETAIL
  6
CONTINUOUS
 62
     5
 10
327.8847705801935
 20
-57.517288859707428
 30
0.0
 11
328.47013637311522
 21
-57.783364220126771
 31
0.0
  0
LINE
  8
DETAIL
  6
CONTINUOUS
 62
     5
 10
328.47013637311522
 20
-57.783364220126771
 30
0.0
 11
328.84264187770248
 21
-58.315514940965222
 31
0.0
  0
LINE
  8
DETAIL
  6
CONTINUOUS
 62
     5
 10
328.84264187770248
 20
-58.315514940965222
 30
0.0
 11
328.84264187770248
 21
-58.581590301384097
 31
0.0
  0
LINE
  8
DETAIL
  6
CONTINUOUS
 62
     5
 10
328.84264187770248
 20
-58.581590301384097
 30
0.0
 11
329.16193231020532
 21
-59.007310878054852
 31
0.0
  0
LINE
  8
DETAIL
  6
CONTINUOUS
 62
     5
 10
321.17967149763132
 20
-57.517288859707428
 30
0.0
 11
251.44686271657091
 21
-49.588243119217452
 31
0.0
  0
LINE
  8
DETAIL
  6
CONTINUOUS
 62
     5
 10
327.35261985935477
 20
-57.517288859707428
 30
0.0
 11
321.17967149763132
 21
-57.517288859707428
 31
0.0
  0
LINE
  8
DETAIL
  6
CONTINUOUS
 62
     5
 10
251.44686271657091
 20
-257.60595989490048
 30
0.0
 11
321.17967149763132
 21
-249.62369908232591
 31
0.0
  0
LINE
  8
DETAIL
  6
CONTINUOUS
 62
     5
 10
326.34153348976201
 20
-249.62369908232591
 30
0.0
 11
321.17967149763132
 21
-249.62369908232591
 31
0.0
  0
LINE
  8
DETAIL
  6
CONTINUOUS
 62
     5
 10
321.17967149763132
 20
-249.62369908232591
 30
0.0
 11
321.17967149763132
 21
-57.517288859707428
 31
0.0
  0
LINE
  8
DETAIL
  6
CONTINUOUS
 62
     5
 10
-326.39474856184557
 20
-249.62369908232591
 30
0.0
 11
-327.19297464310313
 21
-249.62369908232591
 31
0.0
  0
LINE
  8
DETAIL
  6
CONTINUOUS
 62
     5
 10
-327.19297464310313
 20
-249.62369908232591
 30
0.0
 11
-327.88477058019288
 21
-249.03833328940411
 31
0.0
  0
LINE
  8
DETAIL
  6
CONTINUOUS
 62
     5
 10
-327.88477058019288
 20
-249.03833328940411
 30
0.0
 11
-328.68299666144992
 21
-248.50618256856569
 31
0.0
  0
LINE
  8
DETAIL
  6
CONTINUOUS
 62
     5
 10
-328.68299666144992
 20
-248.50618256856569
 30
0.0
 11
-328.8958569497853
 21
-247.81438663147591
 31
0.0
  0
LINE
  8
DETAIL
  6
CONTINUOUS
 62
     5
 10
-328.8958569497853
 20
-247.81438663147591
 30
0.0
 11
-329.1087172381209
 21
-247.1225906943865
 31
0.0
  0
LINE
  8
DETAIL
  6
CONTINUOUS
 62
     5
 10
-244.36925812942141
 20
-48.630371821708252
 30
0.0
 11
-244.68854856192411
 21
-48.790017037959672
 31
0.0
  0
LINE
  8
DETAIL
  6
CONTINUOUS
 62
     5
 10
-244.68854856192411
 20
-48.790017037959672
 30
0.0
 11
-245.06105406651079
 21
-49.322167758798336
 31
0.0
  0
LINE
  8
DETAIL
  6
CONTINUOUS
 62
     5
 10
-245.06105406651079
 20
-49.322167758798336
 30
0.0
 11
-245.6996349315167
 21
-49.588243119217452
 31
0.0
  0
LINE
  8
DETAIL
  6
CONTINUOUS
 62
     5
 10
-245.6996349315167
 20
-49.588243119217452
 30
0.0
 11
-246.07214043610361
 21
-49.588243119217452
 31
0.0
  0
LINE
  8
DETAIL
  6
CONTINUOUS
 62
     5
 10
-246.07214043610361
 20
-257.60595989490048
 30
0.0
 11
-245.6996349315167
 21
-257.60595989490048
 31
0.0
  0
LINE
  8
DETAIL
  6
CONTINUOUS
 62
     5
 10
-245.6996349315167
 20
-257.60595989490048
 30
0.0
 11
-245.06105406651079
 21
-257.81882018323557
 31
0.0
  0
LINE
  8
DETAIL
  6
CONTINUOUS
 62
     5
 10
-245.06105406651079
 20
-257.81882018323557
 30
0.0
 11
-244.68854856192411
 21
-258.29775583198978
 31
0.0
  0
LINE
  8
DETAIL
  6
CONTINUOUS
 62
     5
 10
-244.68854856192411
 20
-258.29775583198978
 30
0.0
 11
-244.36925812942141
 21
-258.82990655282862
 31
0.0
  0
LINE
  8
DETAIL
  6
CONTINUOUS
 62
     5
 10
-251.39364764448649
 20
-257.60595989490048
 30
0.0
 11
-246.07214043610361
 21
-257.60595989490048
 31
0.0
  0
LINE
  8
DETAIL
  6
CONTINUOUS
 62
     5
 10
-251.39364764448649
 20
-49.588243119217452
 30
0.0
 11
-246.07214043610361
 21
-49.588243119217452
 31
0.0
  0
LINE
  8
DETAIL
  6
CONTINUOUS
 62
     5
 10
-251.39364764448649
 20
-49.588243119217452
 30
0.0
 11
-251.39364764448649
 21
-257.60595989490048
 31
0.0
  0
LINE
  8
DETAIL
  6
CONTINUOUS
 62
     5
 10
-329.1087172381209
 20
-247.1225906943865
 30
0.0
 11
-329.1087172381209
 21
-59.007310878054852
 31
0.0
  0
LINE
  8
DETAIL
  6
CONTINUOUS
 62
     5
 10
-329.1087172381209
 20
-59.007310878054852
 30
0.0
 11
-328.8958569497853
 21
-58.581590301384097
 31
0.0
  0
LINE
  8
DETAIL
  6
CONTINUOUS
 62
     5
 10
-328.8958569497853
 20
-58.581590301384097
 30
0.0
 11
-328.68299666144992
 21
-58.315514940965222
 31
0.0
  0
LINE
  8
DETAIL
  6
CONTINUOUS
 62
     5
 10
-328.68299666144992
 20
-58.315514940965222
 30
0.0
 11
-328.41692130103081
 21
-57.783364220126771
 31
0.0
  0
LINE
  8
DETAIL
  6
CONTINUOUS
 62
     5
 10
-328.41692130103081
 20
-57.783364220126771
 30
0.0
 11
-327.88477058019288
 21
-57.517288859707428
 31
0.0
  0
LINE
  8
DETAIL
  6
CONTINUOUS
 62
     5
 10
-327.88477058019288
 20
-57.517288859707428
 30
0.0
 11
-327.40583493143799
 21
-57.517288859707428
 31
0.0
  0
LINE
  8
DETAIL
  6
CONTINUOUS
 62
     5
 10
-321.17967149763012
 20
-57.517288859707428
 30
0.0
 11
-251.39364764448649
 21
-49.588243119217452
 31
0.0
  0
LINE
  8
DETAIL
  6
CONTINUOUS
 62
     5
 10
-327.40583493143799
 20
-57.517288859707428
 30
0.0
 11
-321.17967149763012
 21
-57.517288859707428
 31
0.0
  0
LINE
  8
DETAIL
  6
CONTINUOUS
 62
     5
 10
-251.39364764448649
 20
-257.60595989490048
 30
0.0
 11
-321.17967149763012
 21
-249.62369908232591
 31
0.0
  0
LINE
  8
DETAIL
  6
CONTINUOUS
 62
     5
 10
-326.39474856184557
 20
-249.62369908232591
 30
0.0
 11
-321.17967149763012
 21
-249.62369908232591
 31
0.0
  0
LINE
  8
DETAIL
  6
CONTINUOUS
 62
     5
 10
-321.17967149763012
 20
-249.62369908232591
 30
0.0
 11
-321.17967149763012
 21
-57.517288859707428
 31
0.0
  0
LINE
  8
DETAIL
  6
CONTINUOUS
 62
     5
 10
103.8493171072782
 20
-1.8093124508502569
 30
0.0
 11
107.36151186481069
 21
-1.8093124508502569
 31
0.0
  0
LINE
  8
DETAIL
  6
CONTINUOUS
 62
     5
 10
103.8493171072782
 20
-2.5011083879398939
 30
0.0
 11
107.36151186481069
 21
-2.5011083879398939
 31
0.0
  0
LINE
  8
DETAIL
  6
CONTINUOUS
 62
     5
 10
242.98566625524259
 20
-304.90595491451307
 30
0.0
 11
242.34708539023649
 21
-305.33167549118372
 31
0.0
  0
LINE
  8
DETAIL
  6
CONTINUOUS
 62
     5
 10
243.67746219233189
 20
-304.90595491451307
 30
0.0
 11
243.67746219233189
 21
-305.33167549118372
 31
0.0
  0
LINE
  8
DETAIL
  6
CONTINUOUS
 62
     5
 10
243.67746219233189
 20
-305.33167549118372
 30
0.0
 11
243.35817175982899
 21
-305.65096592368678
 31
0.0
  0
LINE
  8
DETAIL
  6
CONTINUOUS
 62
     5
 10
243.35817175982899
 20
-305.65096592368678
 30
0.0
 11
243.14531147149401
 21
-305.81061113993832
 31
0.0
  0
LINE
  8
DETAIL
  6
CONTINUOUS
 62
     5
 10
243.14531147149401
 20
-305.81061113993832
 30
0.0
 11
242.6663758227395
 21
-306.12990157244121
 31
0.0
  0
LINE
  8
DETAIL
  6
CONTINUOUS
 62
     5
 10
242.6663758227395
 20
-306.12990157244121
 30
0.0
 11
242.34708539023649
 21
-306.12990157244121
 31
0.0
  0
LINE
  8
DETAIL
  6
CONTINUOUS
 62
     5
 10
242.98566625524259
 20
-304.90595491451307
 30
0.0
 11
242.98566625524259
 21
-303.30950275199842
 31
0.0
  0
LINE
  8
DETAIL
  6
CONTINUOUS
 62
     5
 10
243.67746219233189
 20
-304.90595491451307
 30
0.0
 11
243.67746219233189
 21
-303.30950275199842
 31
0.0
  0
LINE
  8
DETAIL
  6
CONTINUOUS
 62
     5
 10
242.34708539023649
 20
-1.8093124508502569
 30
0.0
 11
242.6663758227395
 21
-1.8093124508502569
 31
0.0
  0
LINE
  8
DETAIL
  6
CONTINUOUS
 62
     5
 10
242.6663758227395
 20
-1.8093124508502569
 30
0.0
 11
243.14531147149401
 21
-2.022172739185407
 31
0.0
  0
LINE
  8
DETAIL
  6
CONTINUOUS
 62
     5
 10
243.14531147149401
 20
-2.022172739185407
 30
0.0
 11
243.35817175982899
 21
-2.1818179554368271
 31
0.0
  0
LINE
  8
DETAIL
  6
CONTINUOUS
 62
     5
 10
243.35817175982899
 20
-2.1818179554368271
 30
0.0
 11
243.67746219233189
 21
-2.5011083879398939
 31
0.0
  0
LINE
  8
DETAIL
  6
CONTINUOUS
 62
     5
 10
243.67746219233189
 20
-2.5011083879398939
 30
0.0
 11
243.67746219233189
 21
-2.9800440366943799
 31
0.0
  0
LINE
  8
DETAIL
  6
CONTINUOUS
 62
     5
 10
242.34708539023649
 20
-2.5011083879398939
 30
0.0
 11
242.98566625524259
 21
-2.9800440366943799
 31
0.0
  0
LINE
  8
DETAIL
  6
CONTINUOUS
 62
     5
 10
-241.86814974148101
 20
-1.8093124508502569
 30
0.0
 11
-241.70850452522961
 21
-1.8093124508502569
 31
0.0
  0
LINE
  8
DETAIL
  6
CONTINUOUS
 62
     5
 10
-241.86814974148101
 20
-2.5011083879398939
 30
0.0
 11
-241.70850452522961
 21
-2.5011083879398939
 31
0.0
  0
LINE
  8
DETAIL
  6
CONTINUOUS
 62
     5
 10
-241.86814974148101
 20
-2.5011083879398939
 30
0.0
 11
-241.86814974148101
 21
-1.8093124508502569
 31
0.0
  0
LINE
  8
DETAIL
  6
CONTINUOUS
 62
     5
 10
241.65528945314671
 20
-305.33167549118372
 30
0.0
 11
242.34708539023649
 21
-305.33167549118372
 31
0.0
  0
LINE
  8
DETAIL
  6
CONTINUOUS
 62
     5
 10
241.65528945314671
 20
-306.12990157244121
 30
0.0
 11
242.34708539023649
 21
-306.12990157244121
 31
0.0
  0
LINE
  8
DETAIL
  6
CONTINUOUS
 62
     5
 10
241.65528945314671
 20
-1.8093124508502569
 30
0.0
 11
242.34708539023649
 21
-1.8093124508502569
 31
0.0
  0
LINE
  8
DETAIL
  6
CONTINUOUS
 62
     5
 10
241.65528945314671
 20
-2.5011083879398939
 30
0.0
 11
242.34708539023649
 21
-2.5011083879398939
 31
0.0
  0
LINE
  8
DETAIL
  6
CONTINUOUS
 62
     5
 10
242.98566625524259
 20
-3.7782701179517062
 30
0.0
 11
242.98566625524259
 21
-2.9800440366943799
 31
0.0
  0
LINE
  8
DETAIL
  6
CONTINUOUS
 62
     5
 10
243.67746219233189
 20
-3.7782701179517062
 30
0.0
 11
243.67746219233189
 21
-2.9800440366943799
 31
0.0
  0
LINE
  8
DETAIL
  6
CONTINUOUS
 62
     5
 10
-174.35907974697409
 20
-1.8093124508502569
 30
0.0
 11
-172.65619744029129
 21
-1.8093124508502569
 31
0.0
  0
LINE
  8
DETAIL
  6
CONTINUOUS
 62
     5
 10
-174.35907974697409
 20
-2.5011083879398939
 30
0.0
 11
-172.65619744029129
 21
-2.5011083879398939
 31
0.0
  0
LINE
  8
DETAIL
  6
CONTINUOUS
 62
     5
 10
103.8493171072782
 20
-304.63987955409391
 30
0.0
 11
107.36151186481069
 21
-304.63987955409391
 31
0.0
  0
LINE
  8
DETAIL
  6
CONTINUOUS
 62
     5
 10
103.8493171072782
 20
-305.33167549118372
 30
0.0
 11
107.36151186481069
 21
-305.33167549118372
 31
0.0
  0
LINE
  8
DETAIL
  6
CONTINUOUS
 62
     5
 10
-242.6131607506552
 20
-304.10772883325569
 30
0.0
 11
-242.6131607506552
 21
-303.30950275199842
 31
0.0
  0
LINE
  8
DETAIL
  6
CONTINUOUS
 62
     5
 10
-243.5710320481638
 20
-304.10772883325569
 30
0.0
 11
-243.5710320481638
 21
-303.30950275199842
 31
0.0
  0
LINE
  8
DETAIL
  6
CONTINUOUS
 62
     5
 10
-242.40030046231959
 20
-305.33167549118372
 30
0.0
 11
-242.6131607506552
 21
-305.33167549118372
 31
0.0
  0
LINE
  8
DETAIL
  6
CONTINUOUS
 62
     5
 10
-242.6131607506552
 20
-305.33167549118372
 30
0.0
 11
-243.198526543577
 21
-305.11881520284828
 31
0.0
  0
LINE
  8
DETAIL
  6
CONTINUOUS
 62
     5
 10
-243.198526543577
 20
-305.11881520284828
 30
0.0
 11
-243.41138683191241
 21
-304.90595491451307
 31
0.0
  0
LINE
  8
DETAIL
  6
CONTINUOUS
 62
     5
 10
-243.41138683191241
 20
-304.90595491451307
 30
0.0
 11
-243.41138683191241
 21
-304.63987955409391
 31
0.0
  0
LINE
  8
DETAIL
  6
CONTINUOUS
 62
     5
 10
-243.41138683191241
 20
-304.63987955409391
 30
0.0
 11
-243.5710320481638
 21
-304.10772883325569
 31
0.0
  0
LINE
  8
DETAIL
  6
CONTINUOUS
 62
     5
 10
-242.40030046231959
 20
-304.63987955409391
 30
0.0
 11
-242.6131607506552
 21
-304.10772883325569
 31
0.0
  0
LINE
  8
DETAIL
  6
CONTINUOUS
 62
     5
 10
-242.6131607506552
 20
-2.1818179554368271
 30
0.0
 11
-242.40030046231959
 21
-1.8093124508502569
 31
0.0
  0
LINE
  8
DETAIL
  6
CONTINUOUS
 62
     5
 10
-243.5710320481638
 20
-2.1818179554368271
 30
0.0
 11
-243.41138683191241
 21
-1.8093124508502569
 31
0.0
  0
LINE
  8
DETAIL
  6
CONTINUOUS
 62
     5
 10
-243.41138683191241
 20
-1.8093124508502569
 30
0.0
 11
-243.41138683191241
 21
-1.490022018347418
 31
0.0
  0
LINE
  8
DETAIL
  6
CONTINUOUS
 62
     5
 10
-243.41138683191241
 20
-1.490022018347418
 30
0.0
 11
-243.198526543577
 21
-1.2771617300118121
 31
0.0
  0
LINE
  8
DETAIL
  6
CONTINUOUS
 62
     5
 10
-243.198526543577
 20
-1.2771617300118121
 30
0.0
 11
-242.6131607506552
 21
-1.0110863695929311
 31
0.0
  0
LINE
  8
DETAIL
  6
CONTINUOUS
 62
     5
 10
-242.6131607506552
 20
-1.0110863695929311
 30
0.0
 11
-242.40030046231959
 21
-1.0110863695929311
 31
0.0
  0
LINE
  8
DETAIL
  6
CONTINUOUS
 62
     5
 10
-242.40030046231959
 20
-304.63987955409391
 30
0.0
 11
-241.70850452522961
 21
-304.63987955409391
 31
0.0
  0
LINE
  8
DETAIL
  6
CONTINUOUS
 62
     5
 10
241.8681497414822
 20
-305.33167549118372
 30
0.0
 11
241.8681497414822
 21
-304.63987955409391
 31
0.0
  0
LINE
  8
DETAIL
  6
CONTINUOUS
 62
     5
 10
-242.40030046231959
 20
-305.33167549118372
 30
0.0
 11
-241.70850452522961
 21
-305.33167549118372
 31
0.0
  0
LINE
  8
DETAIL
  6
CONTINUOUS
 62
     5
 10
-241.70850452522961
 20
-1.0110863695929311
 30
0.0
 11
-242.40030046231959
 21
-1.0110863695929311
 31
0.0
  0
LINE
  8
DETAIL
  6
CONTINUOUS
 62
     5
 10
-241.70850452522961
 20
-1.8093124508502569
 30
0.0
 11
-242.40030046231959
 21
-1.8093124508502569
 31
0.0
  0
LINE
  8
DETAIL
  6
CONTINUOUS
 62
     5
 10
-242.6131607506552
 20
-3.7782701179517062
 30
0.0
 11
-242.6131607506552
 21
-2.1818179554368271
 31
0.0
  0
LINE
  8
DETAIL
  6
CONTINUOUS
 62
     5
 10
-243.5710320481638
 20
-3.7782701179517062
 30
0.0
 11
-243.5710320481638
 21
-2.1818179554368271
 31
0.0
  0
LINE
  8
DETAIL
  6
CONTINUOUS
 62
     5
 10
241.65528945314671
 20
-304.63987955409391
 30
0.0
 11
241.8681497414822
 21
-304.63987955409391
 31
0.0
  0
LINE
  8
DETAIL
  6
CONTINUOUS
 62
     5
 10
-174.35907974697409
 20
-305.33167549118372
 30
0.0
 11
-172.65619744029129
 21
-305.33167549118372
 31
0.0
  0
LINE
  8
DETAIL
  6
CONTINUOUS
 62
     5
 10
-174.35907974697409
 20
-304.63987955409391
 30
0.0
 11
-172.65619744029129
 21
-304.63987955409391
 31
0.0
  0
LINE
  8
DETAIL
  6
CONTINUOUS
 62
     5
 10
-241.86814974148101
 20
-143.0871247705027
 30
0.0
 11
-241.86814974148101
 21
-3.7782701179517062
 31
0.0
  0
LINE
  8
DETAIL
  6
CONTINUOUS
 62
     5
 10
-244.36925812942141
 20
-143.6192754913414
 30
0.0
 11
-244.36925812942141
 21
-3.7782701179517062
 31
0.0
  0
LINE
  8
DETAIL
  6
CONTINUOUS
 62
     5
 10
-174.35907974697409
 20
-306.12990157244121
 30
0.0
 11
-174.35907974697409
 21
-302.6177068149085
 31
0.0
  0
LINE
  8
DETAIL
  6
CONTINUOUS
 62
     5
 10
-174.35907974697409
 20
-1.0110863695929311
 30
0.0
 11
-174.35907974697409
 21
-4.5232811271255287
 31
0.0
  0
LINE
  8
DETAIL
  6
CONTINUOUS
 62
     5
 10
-241.70850452522961
 20
-3.7782701179517062
 30
0.0
 11
-241.70850452522961
 21
-1.0110863695929311
 31
0.0
  0
LINE
  8
DETAIL
  6
CONTINUOUS
 62
     5
 10
-244.36925812942141
 20
-303.30950275199842
 30
0.0
 11
-241.70850452522961
 21
-303.30950275199842
 31
0.0
  0
LINE
  8
DETAIL
  6
CONTINUOUS
 62
     5
 10
-244.36925812942141
 20
-3.7782701179517062
 30
0.0
 11
-241.70850452522961
 21
-3.7782701179517062
 31
0.0
  0
LINE
  8
DETAIL
  6
CONTINUOUS
 62
     5
 10
-174.35907974697409
 20
-303.94808361700422
 30
0.0
 11
-241.70850452522961
 21
-303.94808361700422
 31
0.0
  0
LINE
  8
DETAIL
  6
CONTINUOUS
 62
     5
 10
-241.70850452522961
 20
-306.12990157244121
 30
0.0
 11
-241.70850452522961
 21
-303.30950275199842
 31
0.0
  0
LINE
  8
DETAIL
  6
CONTINUOUS
 62
     5
 10
-241.86814974148101
 20
-303.30950275199842
 30
0.0
 11
-241.86814974148101
 21
-145.00286736552039
 31
0.0
  0
LINE
  8
DETAIL
  6
CONTINUOUS
 62
     5
 10
-174.35907974697409
 20
-1.0110863695929311
 30
0.0
 11
-241.70850452522961
 21
-1.0110863695929311
 31
0.0
  0
LINE
  8
DETAIL
  6
CONTINUOUS
 62
     5
 10
-244.36925812942141
 20
-303.30950275199842
 30
0.0
 11
-244.36925812942141
 21
-146.33324416761641
 31
0.0
  0
LINE
  8
DETAIL
  6
CONTINUOUS
 62
     5
 10
-174.35907974697409
 20
-306.12990157244121
 30
0.0
 11
-241.70850452522961
 21
-306.12990157244121
 31
0.0
  0
LINE
  8
DETAIL
  6
CONTINUOUS
 62
     5
 10
244.36925812942181
 20
-143.6192754913414
 30
0.0
 11
244.36925812942181
 21
-3.7782701179517062
 31
0.0
  0
LINE
  8
DETAIL
  6
CONTINUOUS
 62
     5
 10
241.8681497414822
 20
-143.0871247705027
 30
0.0
 11
241.8681497414822
 21
-3.7782701179517062
 31
0.0
  0
LINE
  8
DETAIL
  6
CONTINUOUS
 62
     5
 10
241.8681497414822
 20
-303.30950275199842
 30
0.0
 11
241.8681497414822
 21
-145.00286736552039
 31
0.0
  0
LINE
  8
DETAIL
  6
CONTINUOUS
 62
     5
 10
241.65528945314671
 20
-1.0110863695929311
 30
0.0
 11
241.65528945314671
 21
-3.7782701179517062
 31
0.0
  0
LINE
  8
DETAIL
  6
CONTINUOUS
 62
     5
 10
107.36151186481069
 20
-3.1929043250295308
 30
0.0
 11
241.65528945314671
 21
-3.1929043250295308
 31
0.0
  0
LINE
  8
DETAIL
  6
CONTINUOUS
 62
     5
 10
241.65528945314671
 20
-3.7782701179517062
 30
0.0
 11
244.36925812942181
 21
-3.7782701179517062
 31
0.0
  0
LINE
  8
DETAIL
  6
CONTINUOUS
 62
     5
 10
241.65528945314671
 20
-306.12990157244121
 30
0.0
 11
241.65528945314671
 21
-303.30950275199842
 31
0.0
  0
LINE
  8
DETAIL
  6
CONTINUOUS
 62
     5
 10
107.36151186481069
 20
-303.94808361700422
 30
0.0
 11
241.65528945314671
 21
-303.94808361700422
 31
0.0
  0
LINE
  8
DETAIL
  6
CONTINUOUS
 62
     5
 10
241.65528945314671
 20
-303.30950275199842
 30
0.0
 11
244.36925812942181
 21
-303.30950275199842
 31
0.0
  0
LINE
  8
DETAIL
  6
CONTINUOUS
 62
     5
 10
107.36151186481069
 20
-306.12990157244121
 30
0.0
 11
107.36151186481069
 21
-303.30950275199842
 31
0.0
  0
LINE
  8
DETAIL
  6
CONTINUOUS
 62
     5
 10
107.36151186481069
 20
-1.0110863695929311
 30
0.0
 11
107.36151186481069
 21
-3.7782701179517062
 31
0.0
  0
LINE
  8
DETAIL
  6
CONTINUOUS
 62
     5
 10
107.36151186481069
 20
-1.0110863695929311
 30
0.0
 11
241.65528945314671
 21
-1.0110863695929311
 31
0.0
  0
LINE
  8
DETAIL
  6
CONTINUOUS
 62
     5
 10
244.36925812942181
 20
-303.30950275199842
 30
0.0
 11
244.36925812942181
 21
-146.33324416761641
 31
0.0
  0
LINE
  8
DETAIL
  6
CONTINUOUS
 62
     5
 10
107.36151186481069
 20
-306.12990157244121
 30
0.0
 11
241.65528945314671
 21
-306.12990157244121
 31
0.0
  0
LINE
  8
DETAIL
  6
CONTINUOUS
 62
     5
 10
103.8493171072782
 20
-307.1409879420338
 30
0.0
 11
-172.65619744029129
 21
-307.1409879420338
 31
0.0
  0
LINE
  8
DETAIL
  6
CONTINUOUS
 62
     5
 10
103.8493171072782
 20
0.0
 30
0.0
 11
-172.65619744029129
 21
0.0
 31
0.0
  0
LINE
  8
DETAIL
  6
CONTINUOUS
 62
     5
 10
-172.65619744029129
 20
-3.1929043250295308
 30
0.0
 11
103.8493171072782
 21
-3.1929043250295308
 31
0.0
  0
LINE
  8
DETAIL
  6
CONTINUOUS
 62
     5
 10
103.8493171072782
 20
-302.6177068149085
 30
0.0
 11
103.8493171072782
 21
-307.1409879420338
 31
0.0
  0
LINE
  8
DETAIL
  6
CONTINUOUS
 62
     5
 10
-172.65619744029129
 20
-303.94808361700422
 30
0.0
 11
103.8493171072782
 21
-303.94808361700422
 31
0.0
  0
LINE
  8
DETAIL
  6
CONTINUOUS
 62
     5
 10
103.8493171072782
 20
-4.5232811271255287
 30
0.0
 11
103.8493171072782
 21
0.0
 31
0.0
  0
LINE
  8
DETAIL
  6
CONTINUOUS
 62
     5
 10
-172.65619744029129
 20
0.0
 30
0.0
 11
-172.65619744029129
 21
-4.5232811271255287
 31
0.0
  0
LINE
  8
DETAIL
  6
CONTINUOUS
 62
     5
 10
-172.65619744029129
 20
-302.6177068149085
 30
0.0
 11
-172.65619744029129
 21
-307.1409879420338
 31
0.0
  0
LINE
  8
DETAIL
  6
CONTINUOUS
 62
     5
 10
212.3548490862033
 20
-160.59488348608221
 30
0.0
 11
211.66305314911341
 21
-160.59488348608221
 31
0.0
  0
LINE
  8
DETAIL
  6
CONTINUOUS
 62
     5
 10
211.66305314911341
 20
-160.59488348608221
 30
0.0
 11
211.13090242827479
 21
-160.3288081256631
 31
0.0
  0
LINE
  8
DETAIL
  6
CONTINUOUS
 62
     5
 10
211.13090242827479
 20
-160.3288081256631
 30
0.0
 11
210.65196677952031
 21
-159.79665740482491
 31
0.0
  0
LINE
  8
DETAIL
  6
CONTINUOUS
 62
     5
 10
210.65196677952031
 20
-159.79665740482491
 30
0.0
 11
210.3326763470175
 21
-159.3177217560704
 31
0.0
  0
LINE
  8
DETAIL
  6
CONTINUOUS
 62
     5
 10
210.3326763470175
 20
-159.3177217560704
 30
0.0
 11
210.3326763470175
 21
-158.62592581898051
 31
0.0
  0
LINE
  8
DETAIL
  6
CONTINUOUS
 62
     5
 10
241.17635380439219
 20
-158.62592581898051
 30
0.0
 11
240.85706337188921
 21
-159.3177217560704
 31
0.0
  0
LINE
  8
DETAIL
  6
CONTINUOUS
 62
     5
 10
240.85706337188921
 20
-159.3177217560704
 30
0.0
 11
240.64420308355369
 21
-159.79665740482491
 31
0.0
  0
LINE
  8
DETAIL
  6
CONTINUOUS
 62
     5
 10
240.64420308355369
 20
-159.79665740482491
 30
0.0
 11
240.1652674347994
 21
-160.3288081256631
 31
0.0
  0
LINE
  8
DETAIL
  6
CONTINUOUS
 62
     5
 10
240.1652674347994
 20
-160.3288081256631
 30
0.0
 11
239.63311671396141
 21
-160.59488348608221
 31
0.0
  0
LINE
  8
DETAIL
  6
CONTINUOUS
 62
     5
 10
239.63311671396141
 20
-160.59488348608221
 30
0.0
 11
239.1541810652069
 21
-160.59488348608221
 31
0.0
  0
LINE
  8
DETAIL
  6
CONTINUOUS
 62
     5
 10
210.17303113076599
 20
-145.00286736552039
 30
0.0
 11
210.3326763470175
 21
-145.00286736552039
 31
0.0
  0
LINE
  8
DETAIL
  6
CONTINUOUS
 62
     5
 10
248.6796789682117
 20
-173.6325761466201
 30
0.0
 11
248.36038853570889
 21
-174.32437208370979
 31
0.0
  0
LINE
  8
DETAIL
  6
CONTINUOUS
 62
     5
 10
248.36038853570889
 20
-174.32437208370979
 30
0.0
 11
248.1475282473738
 21
-174.80330773246419
 31
0.0
  0
LINE
  8
DETAIL
  6
CONTINUOUS
 62
     5
 10
248.1475282473738
 20
-174.80330773246419
 30
0.0
 11
247.6685925986194
 21
-175.33545845330249
 31
0.0
  0
LINE
  8
DETAIL
  6
CONTINUOUS
 62
     5
 10
247.6685925986194
 20
-175.33545845330249
 30
0.0
 11
247.13644187778101
 21
-175.6015338137216
 31
0.0
  0
LINE
  8
DETAIL
  6
CONTINUOUS
 62
     5
 10
247.13644187778101
 20
-175.6015338137216
 30
0.0
 11
246.6575062290265
 21
-175.6015338137216
 31
0.0
  0
LINE
  8
DETAIL
  6
CONTINUOUS
 62
     5
 10
246.6575062290265
 20
-165.597100261962
 30
0.0
 11
247.13644187778101
 21
-165.8099605502974
 31
0.0
  0
LINE
  8
DETAIL
  6
CONTINUOUS
 62
     5
 10
247.13644187778101
 20
-165.8099605502974
 30
0.0
 11
247.6685925986194
 21
-166.12925098280019
 31
0.0
  0
LINE
  8
DETAIL
  6
CONTINUOUS
 62
     5
 10
247.6685925986194
 20
-166.12925098280019
 30
0.0
 11
248.1475282473738
 21
-166.50175648738681
 31
0.0
  0
LINE
  8
DETAIL
  6
CONTINUOUS
 62
     5
 10
248.1475282473738
 20
-166.50175648738681
 30
0.0
 11
248.36038853570889
 21
-167.14033735239289
 31
0.0
  0
LINE
  8
DETAIL
  6
CONTINUOUS
 62
     5
 10
248.36038853570889
 20
-167.14033735239289
 30
0.0
 11
248.6796789682117
 21
-167.51284285697989
 31
0.0
  0
LINE
  8
DETAIL
  6
CONTINUOUS
 62
     5
 10
212.3548490862033
 20
-160.59488348608221
 30
0.0
 11
239.1541810652069
 21
-160.59488348608221
 31
0.0
  0
LINE
  8
DETAIL
  6
CONTINUOUS
 62
     5
 10
246.6575062290265
 20
-177.83656684124239
 30
0.0
 11
246.6575062290265
 21
-178.1026422016615
 31
0.0
  0
LINE
  8
DETAIL
  6
CONTINUOUS
 62
     5
 10
246.6575062290265
 20
-178.1026422016615
 30
0.0
 11
246.444645940691
 21
-178.31550248999679
 31
0.0
  0
LINE
  8
DETAIL
  6
CONTINUOUS
 62
     5
 10
246.444645940691
 20
-178.31550248999679
 30
0.0
 11
246.17857058027209
 21
-178.63479292249971
 31
0.0
  0
LINE
  8
DETAIL
  6
CONTINUOUS
 62
     5
 10
246.17857058027209
 20
-178.63479292249971
 30
0.0
 11
245.85928014776911
 21
-178.7944381387513
 31
0.0
  0
LINE
  8
DETAIL
  6
CONTINUOUS
 62
     5
 10
245.85928014776911
 20
-178.7944381387513
 30
0.0
 11
245.64641985943359
 21
-178.7944381387513
 31
0.0
  0
LINE
  8
DETAIL
  6
CONTINUOUS
 62
     5
 10
245.64641985943359
 20
-178.7944381387513
 30
0.0
 11
245.64641985943359
 21
-192.09820615970841
 31
0.0
  0
LINE
  8
DETAIL
  6
CONTINUOUS
 62
     5
 10
206.18190072447911
 20
-150.00508414140049
 30
0.0
 11
208.1508583915809
 21
-150.00508414140049
 31
0.0
  0
LINE
  8
DETAIL
  6
CONTINUOUS
 62
     5
 10
206.18190072447911
 20
-147.1314702488738
 30
0.0
 11
206.18190072447911
 21
-150.00508414140049
 31
0.0
  0
LINE
  8
DETAIL
  6
CONTINUOUS
 62
     5
 10
248.6796789682117
 20
-167.51284285697989
 30
0.0
 11
248.6796789682117
 21
-173.6325761466201
 31
0.0
  0
LINE
  8
DETAIL
  6
CONTINUOUS
 62
     5
 10
244.6353334898408
 20
-147.1314702488738
 30
0.0
 11
244.6353334898408
 21
-176.82548047164971
 31
0.0
  0
LINE
  8
DETAIL
  6
CONTINUOUS
 62
     5
 10
246.6575062290265
 20
-147.1314702488738
 30
0.0
 11
246.6575062290265
 21
-192.09820615970841
 31
0.0
  0
LINE
  8
DETAIL
  6
CONTINUOUS
 62
     5
 10
208.1508583915809
 20
-147.1314702488738
 30
0.0
 11
208.1508583915809
 21
-150.00508414140049
 31
0.0
  0
LINE
  8
DETAIL
  6
CONTINUOUS
 62
     5
 10
242.6663758227395
 20
-145.00286736552039
 30
0.0
 11
243.14531147149401
 21
-145.32215779802351
 31
0.0
  0
LINE
  8
DETAIL
  6
CONTINUOUS
 62
     5
 10
243.14531147149401
 20
-145.32215779802351
 30
0.0
 11
243.67746219233189
 21
-145.58823315844259
 31
0.0
  0
LINE
  8
DETAIL
  6
CONTINUOUS
 62
     5
 10
243.67746219233189
 20
-145.58823315844259
 30
0.0
 11
244.1563978410868
 21
-146.12038387928109
 31
0.0
  0
LINE
  8
DETAIL
  6
CONTINUOUS
 62
     5
 10
244.1563978410868
 20
-146.12038387928109
 30
0.0
 11
244.36925812942181
 21
-146.49288938386789
 31
0.0
  0
LINE
  8
DETAIL
  6
CONTINUOUS
 62
     5
 10
244.36925812942181
 20
-146.49288938386789
 30
0.0
 11
244.6353334898408
 21
-147.1314702488738
 31
0.0
  0
LINE
  8
DETAIL
  6
CONTINUOUS
 62
     5
 10
242.6663758227395
 20
-143.0871247705027
 30
0.0
 11
243.94353755275131
 21
-143.2999850588381
 31
0.0
  0
LINE
  8
DETAIL
  6
CONTINUOUS
 62
     5
 10
243.94353755275131
 20
-143.2999850588381
 30
0.0
 11
244.8481937781763
 21
-143.991780995928
 31
0.0
  0
LINE
  8
DETAIL
  6
CONTINUOUS
 62
     5
 10
244.8481937781763
 20
-143.991780995928
 30
0.0
 11
245.85928014776911
 21
-144.79000707718529
 31
0.0
  0
LINE
  8
DETAIL
  6
CONTINUOUS
 62
     5
 10
245.85928014776911
 20
-144.79000707718529
 30
0.0
 11
246.444645940691
 21
-146.12038387928109
 31
0.0
  0
LINE
  8
DETAIL
  6
CONTINUOUS
 62
     5
 10
246.444645940691
 20
-146.12038387928109
 30
0.0
 11
246.6575062290265
 21
-147.1314702488738
 31
0.0
  0
LINE
  8
DETAIL
  6
CONTINUOUS
 62
     5
 10
241.17635380439219
 20
-145.00286736552039
 30
0.0
 11
241.17635380439219
 21
-158.62592581898051
 31
0.0
  0
LINE
  8
DETAIL
  6
CONTINUOUS
 62
     5
 10
210.3326763470175
 20
-145.00286736552039
 30
0.0
 11
210.3326763470175
 21
-158.62592581898051
 31
0.0
  0
LINE
  8
DETAIL
  6
CONTINUOUS
 62
     5
 10
210.17303113076599
 20
-145.00286736552039
 30
0.0
 11
242.6663758227395
 21
-145.00286736552039
 31
0.0
  0
LINE
  8
DETAIL
  6
CONTINUOUS
 62
     5
 10
208.1508583915809
 20
-147.1314702488738
 30
0.0
 11
208.1508583915809
 21
-146.49288938386789
 31
0.0
  0
LINE
  8
DETAIL
  6
CONTINUOUS
 62
     5
 10
208.1508583915809
 20
-146.49288938386789
 30
0.0
 11
208.47014882408371
 21
-146.12038387928109
 31
0.0
  0
LINE
  8
DETAIL
  6
CONTINUOUS
 62
     5
 10
208.47014882408371
 20
-146.12038387928109
 30
0.0
 11
208.84265432867059
 21
-145.58823315844259
 31
0.0
  0
LINE
  8
DETAIL
  6
CONTINUOUS
 62
     5
 10
208.84265432867059
 20
-145.58823315844259
 30
0.0
 11
209.48123519367661
 21
-145.32215779802351
 31
0.0
  0
LINE
  8
DETAIL
  6
CONTINUOUS
 62
     5
 10
209.48123519367661
 20
-145.32215779802351
 30
0.0
 11
210.17303113076599
 21
-145.00286736552039
 31
0.0
  0
LINE
  8
DETAIL
  6
CONTINUOUS
 62
     5
 10
206.18190072447911
 20
-147.1314702488738
 30
0.0
 11
206.34154594073041
 21
-146.12038387928109
 31
0.0
  0
LINE
  8
DETAIL
  6
CONTINUOUS
 62
     5
 10
206.34154594073041
 20
-146.12038387928109
 30
0.0
 11
206.9801268057364
 21
-144.79000707718529
 31
0.0
  0
LINE
  8
DETAIL
  6
CONTINUOUS
 62
     5
 10
206.9801268057364
 20
-144.79000707718529
 30
0.0
 11
207.67192274282641
 21
-143.991780995928
 31
0.0
  0
LINE
  8
DETAIL
  6
CONTINUOUS
 62
     5
 10
207.67192274282641
 20
-143.991780995928
 30
0.0
 11
208.84265432867059
 21
-143.2999850588381
 31
0.0
  0
LINE
  8
DETAIL
  6
CONTINUOUS
 62
     5
 10
208.84265432867059
 20
-143.2999850588381
 30
0.0
 11
210.17303113076599
 21
-143.0871247705027
 31
0.0
  0
LINE
  8
DETAIL
  6
CONTINUOUS
 62
     5
 10
210.17303113076599
 20
-143.0871247705027
 30
0.0
 11
242.6663758227395
 21
-143.0871247705027
 31
0.0
  0
LINE
  8
DETAIL
  6
CONTINUOUS
 62
     5
 10
244.36925812942181
 20
-192.09820615970841
 30
0.0
 11
246.6575062290265
 21
-192.09820615970841
 31
0.0
  0
LINE
  8
DETAIL
  6
CONTINUOUS
 62
     5
 10
244.36925812942181
 20
-176.82548047164971
 30
0.0
 11
244.6353334898408
 21
-176.82548047164971
 31
0.0
  0
LINE
  8
DETAIL
  6
CONTINUOUS
 62
     5
 10
-210.38568354772531
 20
-158.62592581898051
 30
0.0
 11
-210.38568354772531
 21
-159.3177217560704
 31
0.0
  0
LINE
  8
DETAIL
  6
CONTINUOUS
 62
     5
 10
-210.38568354772531
 20
-159.3177217560704
 30
0.0
 11
-210.5985438360608
 21
-159.79665740482491
 31
0.0
  0
LINE
  8
DETAIL
  6
CONTINUOUS
 62
     5
 10
-210.5985438360608
 20
-159.79665740482491
 30
0.0
 11
-211.18390962898289
 21
-160.3288081256631
 31
0.0
  0
LINE
  8
DETAIL
  6
CONTINUOUS
 62
     5
 10
-211.18390962898289
 20
-160.3288081256631
 30
0.0
 11
-211.6096302056537
 21
-160.59488348608221
 31
0.0
  0
LINE
  8
DETAIL
  6
CONTINUOUS
 62
     5
 10
-211.6096302056537
 20
-160.59488348608221
 30
0.0
 11
-212.40785628691049
 21
-160.59488348608221
 31
0.0
  0
LINE
  8
DETAIL
  6
CONTINUOUS
 62
     5
 10
-239.20739613728981
 20
-160.59488348608221
 30
0.0
 11
-239.68633178604429
 21
-160.59488348608221
 31
0.0
  0
LINE
  8
DETAIL
  6
CONTINUOUS
 62
     5
 10
-239.68633178604429
 20
-160.59488348608221
 30
0.0
 11
-240.11205236271471
 21
-160.3288081256631
 31
0.0
  0
LINE
  8
DETAIL
  6
CONTINUOUS
 62
     5
 10
-240.11205236271471
 20
-160.3288081256631
 30
0.0
 11
-240.69741815563731
 21
-159.79665740482491
 31
0.0
  0
LINE
  8
DETAIL
  6
CONTINUOUS
 62
     5
 10
-240.69741815563731
 20
-159.79665740482491
 30
0.0
 11
-240.9102784439722
 21
-159.3177217560704
 31
0.0
  0
LINE
  8
DETAIL
  6
CONTINUOUS
 62
     5
 10
-240.9102784439722
 20
-159.3177217560704
 30
0.0
 11
-241.06992366022371
 21
-158.62592581898051
 31
0.0
  0
LINE
  8
DETAIL
  6
CONTINUOUS
 62
     5
 10
-210.17282325938979
 20
-145.00286736552039
 30
0.0
 11
-242.6131607506552
 21
-145.00286736552039
 31
0.0
  0
LINE
  8
DETAIL
  6
CONTINUOUS
 62
     5
 10
-210.17282325938979
 20
-145.00286736552039
 30
0.0
 11
-210.38568354772531
 21
-145.00286736552039
 31
0.0
  0
LINE
  8
DETAIL
  6
CONTINUOUS
 62
     5
 10
-246.71072130110949
 20
-175.6015338137216
 30
0.0
 11
-247.189656949864
 21
-175.6015338137216
 31
0.0
  0
LINE
  8
DETAIL
  6
CONTINUOUS
 62
     5
 10
-247.189656949864
 20
-175.6015338137216
 30
0.0
 11
-247.56216245445091
 21
-175.33545845330249
 31
0.0
  0
LINE
  8
DETAIL
  6
CONTINUOUS
 62
     5
 10
-247.56216245445091
 20
-175.33545845330249
 30
0.0
 11
-248.20074331945679
 21
-174.80330773246419
 31
0.0
  0
LINE
  8
DETAIL
  6
CONTINUOUS
 62
     5
 10
-248.20074331945679
 20
-174.80330773246419
 30
0.0
 11
-248.41360360779231
 21
-174.32437208370979
 31
0.0
  0
LINE
  8
DETAIL
  6
CONTINUOUS
 62
     5
 10
-248.41360360779231
 20
-174.32437208370979
 30
0.0
 11
-248.57324882404339
 21
-173.6325761466201
 31
0.0
  0
LINE
  8
DETAIL
  6
CONTINUOUS
 62
     5
 10
-248.57324882404339
 20
-167.51284285697989
 30
0.0
 11
-248.41360360779231
 21
-167.14033735239289
 31
0.0
  0
LINE
  8
DETAIL
  6
CONTINUOUS
 62
     5
 10
-248.41360360779231
 20
-167.14033735239289
 30
0.0
 11
-248.20074331945679
 21
-166.50175648738681
 31
0.0
  0
LINE
  8
DETAIL
  6
CONTINUOUS
 62
     5
 10
-248.20074331945679
 20
-166.50175648738681
 30
0.0
 11
-247.56216245445091
 21
-166.12925098280019
 31
0.0
  0
LINE
  8
DETAIL
  6
CONTINUOUS
 62
     5
 10
-247.56216245445091
 20
-166.12925098280019
 30
0.0
 11
-247.189656949864
 21
-165.8099605502974
 31
0.0
  0
LINE
  8
DETAIL
  6
CONTINUOUS
 62
     5
 10
-247.189656949864
 20
-165.8099605502974
 30
0.0
 11
-246.71072130110949
 21
-165.597100261962
 31
0.0
  0
LINE
  8
DETAIL
  6
CONTINUOUS
 62
     5
 10
-210.38568354772531
 20
-145.00286736552039
 30
0.0
 11
-210.38568354772531
 21
-158.62592581898051
 31
0.0
  0
LINE
  8
DETAIL
  6
CONTINUOUS
 62
     5
 10
-241.06992366022371
 20
-145.00286736552039
 30
0.0
 11
-241.06992366022371
 21
-158.62592581898051
 31
0.0
  0
LINE
  8
DETAIL
  6
CONTINUOUS
 62
     5
 10
-212.40785628691049
 20
-160.59488348608221
 30
0.0
 11
-239.20739613728981
 21
-160.59488348608221
 31
0.0
  0
LINE
  8
DETAIL
  6
CONTINUOUS
 62
     5
 10
-244.68854856192411
 20
-176.82548047164971
 30
0.0
 11
-244.36925812942141
 21
-176.82548047164971
 31
0.0
  0
LINE
  8
DETAIL
  6
CONTINUOUS
 62
     5
 10
-245.6996349315167
 20
-178.7944381387513
 30
0.0
 11
-245.9124952198521
 21
-178.7944381387513
 31
0.0
  0
LINE
  8
DETAIL
  6
CONTINUOUS
 62
     5
 10
-245.9124952198521
 20
-178.7944381387513
 30
0.0
 11
-246.07214043610361
 21
-178.63479292249971
 31
0.0
  0
LINE
  8
DETAIL
  6
CONTINUOUS
 62
     5
 10
-246.07214043610361
 20
-178.63479292249971
 30
0.0
 11
-246.39143086860659
 21
-178.31550248999679
 31
0.0
  0
LINE
  8
DETAIL
  6
CONTINUOUS
 62
     5
 10
-246.39143086860659
 20
-178.31550248999679
 30
0.0
 11
-246.39143086860659
 21
-178.1026422016615
 31
0.0
  0
LINE
  8
DETAIL
  6
CONTINUOUS
 62
     5
 10
-246.39143086860659
 20
-178.1026422016615
 30
0.0
 11
-246.71072130110949
 21
-177.83656684124239
 31
0.0
  0
LINE
  8
DETAIL
  6
CONTINUOUS
 62
     5
 10
-245.6996349315167
 20
-178.7944381387513
 30
0.0
 11
-245.6996349315167
 21
-192.09820615970841
 31
0.0
  0
LINE
  8
DETAIL
  6
CONTINUOUS
 62
     5
 10
-206.18169285310279
 20
-150.00508414140049
 30
0.0
 11
-208.0974354481209
 21
-150.00508414140049
 31
0.0
  0
LINE
  8
DETAIL
  6
CONTINUOUS
 62
     5
 10
-206.18169285310279
 20
-147.1314702488738
 30
0.0
 11
-206.18169285310279
 21
-150.00508414140049
 31
0.0
  0
LINE
  8
DETAIL
  6
CONTINUOUS
 62
     5
 10
-244.36925812942141
 20
-192.09820615970841
 30
0.0
 11
-246.71072130110949
 21
-192.09820615970841
 31
0.0
  0
LINE
  8
DETAIL
  6
CONTINUOUS
 62
     5
 10
-248.57324882404339
 20
-167.51284285697989
 30
0.0
 11
-248.57324882404339
 21
-173.6325761466201
 31
0.0
  0
LINE
  8
DETAIL
  6
CONTINUOUS
 62
     5
 10
-244.68854856192411
 20
-147.1314702488738
 30
0.0
 11
-244.68854856192411
 21
-176.82548047164971
 31
0.0
  0
LINE
  8
DETAIL
  6
CONTINUOUS
 62
     5
 10
-246.71072130110949
 20
-147.1314702488738
 30
0.0
 11
-246.71072130110949
 21
-192.09820615970841
 31
0.0
  0
LINE
  8
DETAIL
  6
CONTINUOUS
 62
     5
 10
-210.17282325938979
 20
-143.0871247705027
 30
0.0
 11
-242.6131607506552
 21
-143.0871247705027
 31
0.0
  0
LINE
  8
DETAIL
  6
CONTINUOUS
 62
     5
 10
-208.0974354481209
 20
-147.1314702488738
 30
0.0
 11
-208.0974354481209
 21
-150.00508414140049
 31
0.0
  0
LINE
  8
DETAIL
  6
CONTINUOUS
 62
     5
 10
-210.17282325938979
 20
-145.00286736552039
 30
0.0
 11
-209.37459717813309
 21
-145.32215779802351
 31
0.0
  0
LINE
  8
DETAIL
  6
CONTINUOUS
 62
     5
 10
-209.37459717813309
 20
-145.32215779802351
 30
0.0
 11
-208.895661529378
 21
-145.58823315844259
 31
0.0
  0
LINE
  8
DETAIL
  6
CONTINUOUS
 62
     5
 10
-208.895661529378
 20
-145.58823315844259
 30
0.0
 11
-208.36351080854001
 21
-146.12038387928109
 31
0.0
  0
LINE
  8
DETAIL
  6
CONTINUOUS
 62
     5
 10
-208.36351080854001
 20
-146.12038387928109
 30
0.0
 11
-208.0974354481209
 21
-146.49288938386789
 31
0.0
  0
LINE
  8
DETAIL
  6
CONTINUOUS
 62
     5
 10
-208.0974354481209
 20
-146.49288938386789
 30
0.0
 11
-208.0974354481209
 21
-147.1314702488738
 31
0.0
  0
LINE
  8
DETAIL
  6
CONTINUOUS
 62
     5
 10
-210.17282325938979
 20
-143.0871247705027
 30
0.0
 11
-208.895661529378
 21
-143.2999850588381
 31
0.0
  0
LINE
  8
DETAIL
  6
CONTINUOUS
 62
     5
 10
-208.895661529378
 20
-143.2999850588381
 30
0.0
 11
-207.67171487145001
 21
-143.991780995928
 31
0.0
  0
LINE
  8
DETAIL
  6
CONTINUOUS
 62
     5
 10
-207.67171487145001
 20
-143.991780995928
 30
0.0
 11
-206.87348879019271
 21
-144.79000707718529
 31
0.0
  0
LINE
  8
DETAIL
  6
CONTINUOUS
 62
     5
 10
-206.87348879019271
 20
-144.79000707718529
 30
0.0
 11
-206.18169285310279
 21
-146.12038387928109
 31
0.0
  0
LINE
  8
DETAIL
  6
CONTINUOUS
 62
     5
 10
-206.18169285310279
 20
-146.12038387928109
 30
0.0
 11
-206.18169285310279
 21
-147.1314702488738
 31
0.0
  0
LINE
  8
DETAIL
  6
CONTINUOUS
 62
     5
 10
-244.68854856192411
 20
-147.1314702488738
 30
0.0
 11
-244.36925812942141
 21
-146.49288938386789
 31
0.0
  0
LINE
  8
DETAIL
  6
CONTINUOUS
 62
     5
 10
-244.36925812942141
 20
-146.49288938386789
 30
0.0
 11
-244.20961291316959
 21
-146.12038387928109
 31
0.0
  0
LINE
  8
DETAIL
  6
CONTINUOUS
 62
     5
 10
-244.20961291316959
 20
-146.12038387928109
 30
0.0
 11
-243.5710320481638
 21
-145.58823315844259
 31
0.0
  0
LINE
  8
DETAIL
  6
CONTINUOUS
 62
     5
 10
-243.5710320481638
 20
-145.58823315844259
 30
0.0
 11
-243.198526543577
 21
-145.32215779802351
 31
0.0
  0
LINE
  8
DETAIL
  6
CONTINUOUS
 62
     5
 10
-243.198526543577
 20
-145.32215779802351
 30
0.0
 11
-242.6131607506552
 21
-145.00286736552039
 31
0.0
  0
LINE
  8
DETAIL
  6
CONTINUOUS
 62
     5
 10
-246.71072130110949
 20
-147.1314702488738
 30
0.0
 11
-246.39143086860659
 21
-146.12038387928109
 31
0.0
  0
LINE
  8
DETAIL
  6
CONTINUOUS
 62
     5
 10
-246.39143086860659
 20
-146.12038387928109
 30
0.0
 11
-245.9124952198521
 21
-144.79000707718529
 31
0.0
  0
LINE
  8
DETAIL
  6
CONTINUOUS
 62
     5
 10
-245.9124952198521
 20
-144.79000707718529
 30
0.0
 11
-244.9014088502598
 21
-143.991780995928
 31
0.0
  0
LINE
  8
DETAIL
  6
CONTINUOUS
 62
     5
 10
-244.9014088502598
 20
-143.991780995928
 30
0.0
 11
-243.8903224806669
 21
-143.2999850588381
 31
0.0
  0
LINE
  8
DETAIL
  6
CONTINUOUS
 62
     5
 10
-243.8903224806669
 20
-143.2999850588381
 30
0.0
 11
-242.6131607506552
 21
-143.0871247705027
 31
0.0
  0
LINE
  8
DETAIL
  6
CONTINUOUS
 62
     5
 10
230.66083388304
 20
-153.62370904310069
 30
0.0
 11
230.98012431554301
 21
-152.13368702475381
 31
0.0
  0
LINE
  8
DETAIL
  6
CONTINUOUS
 62
     5
 10
230.98012431554301
 20
-152.13368702475381
 30
0.0
 11
231.67192025263239
 21
-150.80331022265781
 31
0.0
  0
LINE
  8
DETAIL
  6
CONTINUOUS
 62
     5
 10
231.67192025263239
 20
-150.80331022265781
 30
0.0
 11
232.68300662222529
 21
-149.63257863681369
 31
0.0
  0
LINE
  8
DETAIL
  6
CONTINUOUS
 62
     5
 10
232.68300662222529
 20
-149.63257863681369
 30
0.0
 11
234.1730286405726
 21
-148.9939977718075
 31
0.0
  0
LINE
  8
DETAIL
  6
CONTINUOUS
 62
     5
 10
234.1730286405726
 20
-148.9939977718075
 30
0.0
 11
235.1630506589199
 21
-148.83435255555591
 31
0.0
  0
LINE
  8
DETAIL
  6
CONTINUOUS
 62
     5
 10
235.1630506589199
 20
-148.83435255555591
 30
0.0
 11
236.65307267726681
 21
-149.3132882043104
 31
0.0
  0
LINE
  8
DETAIL
  6
CONTINUOUS
 62
     5
 10
236.65307267726681
 20
-149.3132882043104
 30
0.0
 11
237.98344947936249
 21
-150.00508414140049
 31
0.0
  0
LINE
  8
DETAIL
  6
CONTINUOUS
 62
     5
 10
237.98344947936249
 20
-150.00508414140049
 30
0.0
 11
238.94132077687141
 21
-151.33546094349651
 31
0.0
  0
LINE
  8
DETAIL
  6
CONTINUOUS
 62
     5
 10
238.94132077687141
 20
-151.33546094349651
 30
0.0
 11
239.36704135354191
 21
-152.82548296184339
 31
0.0
  0
LINE
  8
DETAIL
  6
CONTINUOUS
 62
     5
 10
239.36704135354191
 20
-152.82548296184339
 30
0.0
 11
239.36704135354191
 21
-154.31550498019061
 31
0.0
  0
LINE
  8
DETAIL
  6
CONTINUOUS
 62
     5
 10
239.36704135354191
 20
-154.31550498019061
 30
0.0
 11
238.94132077687141
 21
-155.8055269985378
 31
0.0
  0
LINE
  8
DETAIL
  6
CONTINUOUS
 62
     5
 10
238.94132077687141
 20
-155.8055269985378
 30
0.0
 11
237.98344947936249
 21
-157.13590380063329
 31
0.0
  0
LINE
  8
DETAIL
  6
CONTINUOUS
 62
     5
 10
237.98344947936249
 20
-157.13590380063329
 30
0.0
 11
236.65307267726681
 21
-157.82769973772321
 31
0.0
  0
LINE
  8
DETAIL
  6
CONTINUOUS
 62
     5
 10
236.65307267726681
 20
-157.82769973772321
 30
0.0
 11
235.1630506589199
 21
-158.30663538647721
 31
0.0
  0
LINE
  8
DETAIL
  6
CONTINUOUS
 62
     5
 10
235.1630506589199
 20
-158.30663538647721
 30
0.0
 11
234.1730286405726
 21
-158.09377509814229
 31
0.0
  0
LINE
  8
DETAIL
  6
CONTINUOUS
 62
     5
 10
234.1730286405726
 20
-158.09377509814229
 30
0.0
 11
232.68300662222529
 21
-157.50840930521991
 31
0.0
  0
LINE
  8
DETAIL
  6
CONTINUOUS
 62
     5
 10
232.68300662222529
 20
-157.50840930521991
 30
0.0
 11
231.67192025263239
 21
-156.49732293562741
 31
0.0
  0
LINE
  8
DETAIL
  6
CONTINUOUS
 62
     5
 10
231.67192025263239
 20
-156.49732293562741
 30
0.0
 11
230.98012431554301
 21
-155.00730091728019
 31
0.0
  0
LINE
  8
DETAIL
  6
CONTINUOUS
 62
     5
 10
230.98012431554301
 20
-155.00730091728019
 30
0.0
 11
230.66083388304
 21
-153.62370904310069
 31
0.0
  0
LINE
  8
DETAIL
  6
CONTINUOUS
 62
     5
 10
233.8537382080697
 20
-152.13368702475381
 30
0.0
 11
236.17413702851229
 21
-155.00730091728019
 31
0.0
  0
LINE
  8
DETAIL
  6
CONTINUOUS
 62
     5
 10
236.17413702851229
 20
-152.13368702475381
 30
0.0
 11
233.8537382080697
 21
-155.00730091728019
 31
0.0
  0
LINE
  8
DETAIL
  6
CONTINUOUS
 62
     5
 10
212.67413951870631
 20
-153.62370904310069
 30
0.0
 11
212.83378473495759
 21
-152.13368702475381
 31
0.0
  0
LINE
  8
DETAIL
  6
CONTINUOUS
 62
     5
 10
212.83378473495759
 20
-152.13368702475381
 30
0.0
 11
213.63201081621509
 21
-150.80331022265781
 31
0.0
  0
LINE
  8
DETAIL
  6
CONTINUOUS
 62
     5
 10
213.63201081621509
 20
-150.80331022265781
 30
0.0
 11
214.64309718580739
 21
-149.63257863681369
 31
0.0
  0
LINE
  8
DETAIL
  6
CONTINUOUS
 62
     5
 10
214.64309718580739
 20
-149.63257863681369
 30
0.0
 11
216.13311920415489
 21
-148.9939977718075
 31
0.0
  0
LINE
  8
DETAIL
  6
CONTINUOUS
 62
     5
 10
216.13311920415489
 20
-148.9939977718075
 30
0.0
 11
217.6763562945861
 21
-148.83435255555591
 31
0.0
  0
LINE
  8
DETAIL
  6
CONTINUOUS
 62
     5
 10
217.6763562945861
 20
-148.83435255555591
 30
0.0
 11
219.16637831293301
 21
-149.3132882043104
 31
0.0
  0
LINE
  8
DETAIL
  6
CONTINUOUS
 62
     5
 10
219.16637831293301
 20
-149.3132882043104
 30
0.0
 11
220.33710989877719
 21
-150.00508414140049
 31
0.0
  0
LINE
  8
DETAIL
  6
CONTINUOUS
 62
     5
 10
220.33710989877719
 20
-150.00508414140049
 30
0.0
 11
221.3481962683702
 21
-151.33546094349651
 31
0.0
  0
LINE
  8
DETAIL
  6
CONTINUOUS
 62
     5
 10
221.3481962683702
 20
-151.33546094349651
 30
0.0
 11
221.93356206129221
 21
-152.82548296184339
 31
0.0
  0
LINE
  8
DETAIL
  6
CONTINUOUS
 62
     5
 10
221.93356206129221
 20
-152.82548296184339
 30
0.0
 11
221.93356206129221
 21
-154.31550498019061
 31
0.0
  0
LINE
  8
DETAIL
  6
CONTINUOUS
 62
     5
 10
221.93356206129221
 20
-154.31550498019061
 30
0.0
 11
221.3481962683702
 21
-155.8055269985378
 31
0.0
  0
LINE
  8
DETAIL
  6
CONTINUOUS
 62
     5
 10
221.3481962683702
 20
-155.8055269985378
 30
0.0
 11
220.33710989877719
 21
-157.13590380063329
 31
0.0
  0
LINE
  8
DETAIL
  6
CONTINUOUS
 62
     5
 10
220.33710989877719
 20
-157.13590380063329
 30
0.0
 11
219.16637831293301
 21
-157.82769973772321
 31
0.0
  0
LINE
  8
DETAIL
  6
CONTINUOUS
 62
     5
 10
219.16637831293301
 20
-157.82769973772321
 30
0.0
 11
217.6763562945861
 21
-158.30663538647721
 31
0.0
  0
LINE
  8
DETAIL
  6
CONTINUOUS
 62
     5
 10
217.6763562945861
 20
-158.30663538647721
 30
0.0
 11
216.13311920415489
 21
-158.09377509814229
 31
0.0
  0
LINE
  8
DETAIL
  6
CONTINUOUS
 62
     5
 10
216.13311920415489
 20
-158.09377509814229
 30
0.0
 11
214.64309718580739
 21
-157.50840930521991
 31
0.0
  0
LINE
  8
DETAIL
  6
CONTINUOUS
 62
     5
 10
214.64309718580739
 20
-157.50840930521991
 30
0.0
 11
213.63201081621509
 21
-156.49732293562741
 31
0.0
  0
LINE
  8
DETAIL
  6
CONTINUOUS
 62
     5
 10
213.63201081621509
 20
-156.49732293562741
 30
0.0
 11
212.83378473495759
 21
-155.00730091728019
 31
0.0
  0
LINE
  8
DETAIL
  6
CONTINUOUS
 62
     5
 10
212.83378473495759
 20
-155.00730091728019
 30
0.0
 11
212.67413951870631
 21
-153.62370904310069
 31
0.0
  0
LINE
  8
DETAIL
  6
CONTINUOUS
 62
     5
 10
215.9734739879033
 20
-152.13368702475381
 30
0.0
 11
218.63422759209499
 21
-155.00730091728019
 31
0.0
  0
LINE
  8
DETAIL
  6
CONTINUOUS
 62
     5
 10
218.63422759209499
 20
-152.13368702475381
 30
0.0
 11
215.9734739879033
 21
-155.00730091728019
 31
0.0
  0
LINE
  8
DETAIL
  6
CONTINUOUS
 62
     5
 10
-221.8801391178325
 20
-153.62370904310069
 30
0.0
 11
-221.5608486853296
 21
-152.13368702475381
 31
0.0
  0
LINE
  8
DETAIL
  6
CONTINUOUS
 62
     5
 10
-221.5608486853296
 20
-152.13368702475381
 30
0.0
 11
-220.8690527482396
 21
-150.80331022265781
 31
0.0
  0
LINE
  8
DETAIL
  6
CONTINUOUS
 62
     5
 10
-220.8690527482396
 20
-150.80331022265781
 30
0.0
 11
-219.91118145073071
 21
-149.63257863681369
 31
0.0
  0
LINE
  8
DETAIL
  6
CONTINUOUS
 62
     5
 10
-219.91118145073071
 20
-149.63257863681369
 30
0.0
 11
-218.3679443602999
 21
-148.9939977718075
 31
0.0
  0
LINE
  8
DETAIL
  6
CONTINUOUS
 62
     5
 10
-218.3679443602999
 20
-148.9939977718075
 30
0.0
 11
-216.8779223419526
 21
-148.83435255555591
 31
0.0
  0
LINE
  8
DETAIL
  6
CONTINUOUS
 62
     5
 10
-216.8779223419526
 20
-148.83435255555591
 30
0.0
 11
-215.38790032360521
 21
-149.3132882043104
 31
0.0
  0
LINE
  8
DETAIL
  6
CONTINUOUS
 62
     5
 10
-215.38790032360521
 20
-149.3132882043104
 30
0.0
 11
-214.11073859359331
 21
-150.00508414140049
 31
0.0
  0
LINE
  8
DETAIL
  6
CONTINUOUS
 62
     5
 10
-214.11073859359331
 20
-150.00508414140049
 30
0.0
 11
-213.09965222400061
 21
-151.33546094349651
 31
0.0
  0
LINE
  8
DETAIL
  6
CONTINUOUS
 62
     5
 10
-213.09965222400061
 20
-151.33546094349651
 30
0.0
 11
-212.67393164733019
 21
-152.82548296184339
 31
0.0
  0
LINE
  8
DETAIL
  6
CONTINUOUS
 62
     5
 10
-212.67393164733019
 20
-152.82548296184339
 30
0.0
 11
-212.67393164733019
 21
-154.31550498019061
 31
0.0
  0
LINE
  8
DETAIL
  6
CONTINUOUS
 62
     5
 10
-212.67393164733019
 20
-154.31550498019061
 30
0.0
 11
-213.09965222400061
 21
-155.8055269985378
 31
0.0
  0
LINE
  8
DETAIL
  6
CONTINUOUS
 62
     5
 10
-213.09965222400061
 20
-155.8055269985378
 30
0.0
 11
-214.11073859359331
 21
-157.13590380063329
 31
0.0
  0
LINE
  8
DETAIL
  6
CONTINUOUS
 62
     5
 10
-214.11073859359331
 20
-157.13590380063329
 30
0.0
 11
-215.38790032360521
 21
-157.82769973772321
 31
0.0
  0
LINE
  8
DETAIL
  6
CONTINUOUS
 62
     5
 10
-215.38790032360521
 20
-157.82769973772321
 30
0.0
 11
-216.8779223419526
 21
-158.30663538647721
 31
0.0
  0
LINE
  8
DETAIL
  6
CONTINUOUS
 62
     5
 10
-216.8779223419526
 20
-158.30663538647721
 30
0.0
 11
-218.3679443602999
 21
-158.09377509814229
 31
0.0
  0
LINE
  8
DETAIL
  6
CONTINUOUS
 62
     5
 10
-218.3679443602999
 20
-158.09377509814229
 30
0.0
 11
-219.91118145073071
 21
-157.50840930521991
 31
0.0
  0
LINE
  8
DETAIL
  6
CONTINUOUS
 62
     5
 10
-219.91118145073071
 20
-157.50840930521991
 30
0.0
 11
-220.8690527482396
 21
-156.49732293562741
 31
0.0
  0
LINE
  8
DETAIL
  6
CONTINUOUS
 62
     5
 10
-220.8690527482396
 20
-156.49732293562741
 30
0.0
 11
-221.5608486853296
 21
-155.00730091728019
 31
0.0
  0
LINE
  8
DETAIL
  6
CONTINUOUS
 62
     5
 10
-221.5608486853296
 20
-155.00730091728019
 30
0.0
 11
-221.8801391178325
 21
-153.62370904310069
 31
0.0
  0
LINE
  8
DETAIL
  6
CONTINUOUS
 62
     5
 10
-218.687234792803
 20
-152.13368702475381
 30
0.0
 11
-215.86683597235961
 21
-155.00730091728019
 31
0.0
  0
LINE
  8
DETAIL
  6
CONTINUOUS
 62
     5
 10
-215.86683597235961
 20
-152.13368702475381
 30
0.0
 11
-218.687234792803
 21
-155.00730091728019
 31
0.0
  0
LINE
  8
DETAIL
  6
CONTINUOUS
 62
     5
 10
-239.36704135354151
 20
-153.62370904310069
 30
0.0
 11
-239.20739613728981
 21
-152.13368702475381
 31
0.0
  0
LINE
  8
DETAIL
  6
CONTINUOUS
 62
     5
 10
-239.20739613728981
 20
-152.13368702475381
 30
0.0
 11
-238.40917005603251
 21
-150.80331022265781
 31
0.0
  0
LINE
  8
DETAIL
  6
CONTINUOUS
 62
     5
 10
-238.40917005603251
 20
-150.80331022265781
 30
0.0
 11
-237.39808368643969
 21
-149.63257863681369
 31
0.0
  0
LINE
  8
DETAIL
  6
CONTINUOUS
 62
     5
 10
-237.39808368643969
 20
-149.63257863681369
 30
0.0
 11
-235.90806166809281
 21
-148.9939977718075
 31
0.0
  0
LINE
  8
DETAIL
  6
CONTINUOUS
 62
     5
 10
-235.90806166809281
 20
-148.9939977718075
 30
0.0
 11
-234.86482457766161
 21
-148.83435255555591
 31
0.0
  0
LINE
  8
DETAIL
  6
CONTINUOUS
 62
     5
 10
-234.86482457766161
 20
-148.83435255555591
 30
0.0
 11
-233.37480255931419
 21
-149.3132882043104
 31
0.0
  0
LINE
  8
DETAIL
  6
CONTINUOUS
 62
     5
 10
-233.37480255931419
 20
-149.3132882043104
 30
0.0
 11
-232.20407097347041
 21
-150.00508414140049
 31
0.0
  0
LINE
  8
DETAIL
  6
CONTINUOUS
 62
     5
 10
-232.20407097347041
 20
-150.00508414140049
 30
0.0
 11
-231.19298460387759
 21
-151.33546094349651
 31
0.0
  0
LINE
  8
DETAIL
  6
CONTINUOUS
 62
     5
 10
-231.19298460387759
 20
-151.33546094349651
 30
0.0
 11
-230.6076188109555
 21
-152.82548296184339
 31
0.0
  0
LINE
  8
DETAIL
  6
CONTINUOUS
 62
     5
 10
-230.6076188109555
 20
-152.82548296184339
 30
0.0
 11
-230.6076188109555
 21
-154.31550498019061
 31
0.0
  0
LINE
  8
DETAIL
  6
CONTINUOUS
 62
     5
 10
-230.6076188109555
 20
-154.31550498019061
 30
0.0
 11
-231.19298460387759
 21
-155.8055269985378
 31
0.0
  0
LINE
  8
DETAIL
  6
CONTINUOUS
 62
     5
 10
-231.19298460387759
 20
-155.8055269985378
 30
0.0
 11
-232.20407097347041
 21
-157.13590380063329
 31
0.0
  0
LINE
  8
DETAIL
  6
CONTINUOUS
 62
     5
 10
-232.20407097347041
 20
-157.13590380063329
 30
0.0
 11
-233.37480255931419
 21
-157.82769973772321
 31
0.0
  0
LINE
  8
DETAIL
  6
CONTINUOUS
 62
     5
 10
-233.37480255931419
 20
-157.82769973772321
 30
0.0
 11
-234.86482457766161
 21
-158.30663538647721
 31
0.0
  0
LINE
  8
DETAIL
  6
CONTINUOUS
 62
     5
 10
-234.86482457766161
 20
-158.30663538647721
 30
0.0
 11
-235.90806166809281
 21
-158.09377509814229
 31
0.0
  0
LINE
  8
DETAIL
  6
CONTINUOUS
 62
     5
 10
-235.90806166809281
 20
-158.09377509814229
 30
0.0
 11
-237.39808368643969
 21
-157.50840930521991
 31
0.0
  0
LINE
  8
DETAIL
  6
CONTINUOUS
 62
     5
 10
-237.39808368643969
 20
-157.50840930521991
 30
0.0
 11
-238.40917005603251
 21
-156.49732293562741
 31
0.0
  0
LINE
  8
DETAIL
  6
CONTINUOUS
 62
     5
 10
-238.40917005603251
 20
-156.49732293562741
 30
0.0
 11
-239.20739613728981
 21
-155.00730091728019
 31
0.0
  0
LINE
  8
DETAIL
  6
CONTINUOUS
 62
     5
 10
-239.20739613728981
 20
-155.00730091728019
 30
0.0
 11
-239.36704135354151
 21
-153.62370904310069
 31
0.0
  0
LINE
  8
DETAIL
  6
CONTINUOUS
 62
     5
 10
-236.06770688434369
 20
-152.13368702475381
 30
0.0
 11
-233.90695328015261
 21
-155.00730091728019
 31
0.0
  0
LINE
  8
DETAIL
  6
CONTINUOUS
 62
     5
 10
-233.90695328015261
 20
-152.13368702475381
 30
0.0
 11
-236.06770688434369
 21
-155.00730091728019
 31
0.0
  0
LINE
  8
DETAIL
  6
CONTINUOUS
 62
     5
 10
-244.36925812942141
 20
-244.62148230644641
 30
0.0
 11
-245.3803444990136
 21
-243.13146028809939
 31
0.0
  0
LINE
  8
DETAIL
  6
CONTINUOUS
 62
     5
 10
-245.3803444990136
 20
-243.13146028809939
 30
0.0
 11
-245.9124952198521
 21
-241.32214783724891
 31
0.0
  0
LINE
  8
DETAIL
  6
CONTINUOUS
 62
     5
 10
-245.9124952198521
 20
-241.32214783724891
 30
0.0
 11
-245.9124952198521
 21
-239.2999750980635
 31
0.0
  0
LINE
  8
DETAIL
  6
CONTINUOUS
 62
     5
 10
-245.9124952198521
 20
-239.2999750980635
 30
0.0
 11
-245.3803444990136
 21
-237.5970927913809
 31
0.0
  0
LINE
  8
DETAIL
  6
CONTINUOUS
 62
     5
 10
-245.3803444990136
 20
-237.5970927913809
 30
0.0
 11
-244.36925812942141
 21
-236.00064062886631
 31
0.0
  0
LINE
  8
DETAIL
  6
CONTINUOUS
 62
     5
 10
108.851533883158
 20
-1.0110863695929311
 30
0.0
 11
110.3415559015049
 21
0.0
 31
0.0
  0
LINE
  8
DETAIL
  6
CONTINUOUS
 62
     5
 10
110.3415559015049
 20
0.0
 30
0.0
 11
112.1508683523552
 21
0.6917959370896369
 31
0.0
  0
LINE
  8
DETAIL
  6
CONTINUOUS
 62
     5
 10
112.1508683523552
 20
0.6917959370896369
 30
0.0
 11
114.1730410915404
 21
0.6917959370896369
 31
0.0
  0
LINE
  8
DETAIL
  6
CONTINUOUS
 62
     5
 10
114.1730410915404
 20
0.6917959370896369
 30
0.0
 11
115.92913847030719
 21
0.0
 31
0.0
  0
LINE
  8
DETAIL
  6
CONTINUOUS
 62
     5
 10
115.92913847030719
 20
0.0
 30
0.0
 11
117.3659454165706
 21
-1.0110863695929311
 31
0.0
  0
LINE
  8
DETAIL
  6
CONTINUOUS
 62
     5
 10
117.3659454165706
 20
-306.12990157244121
 30
0.0
 11
115.92913847030719
 21
-307.40706330245308
 31
0.0
  0
LINE
  8
DETAIL
  6
CONTINUOUS
 62
     5
 10
115.92913847030719
 20
-307.40706330245308
 30
0.0
 11
114.1730410915404
 21
-307.83278387912338
 31
0.0
  0
LINE
  8
DETAIL
  6
CONTINUOUS
 62
     5
 10
114.1730410915404
 20
-307.83278387912338
 30
0.0
 11
112.1508683523552
 21
-307.83278387912338
 31
0.0
  0
LINE
  8
DETAIL
  6
CONTINUOUS
 62
     5
 10
112.1508683523552
 20
-307.83278387912338
 30
0.0
 11
110.3415559015049
 21
-307.40706330245308
 31
0.0
  0
LINE
  8
DETAIL
  6
CONTINUOUS
 62
     5
 10
110.3415559015049
 20
-307.40706330245308
 30
0.0
 11
108.851533883158
 21
-306.12990157244121
 31
0.0
  0
LINE
  8
DETAIL
  6
CONTINUOUS
 62
     5
 10
239.36704135354191
 20
-306.12990157244121
 30
0.0
 11
239.36704135354191
 21
-306.44919200494428
 31
0.0
  0
LINE
  8
DETAIL
  6
CONTINUOUS
 62
     5
 10
239.36704135354191
 20
-306.44919200494428
 30
0.0
 11
230.34154345053719
 21
-306.44919200494428
 31
0.0
  0
LINE
  8
DETAIL
  6
CONTINUOUS
 62
     5
 10
239.36704135354191
 20
-306.44919200494428
 30
0.0
 11
237.98344947936249
 21
-307.61992359078829
 31
0.0
  0
LINE
  8
DETAIL
  6
CONTINUOUS
 62
     5
 10
237.98344947936249
 20
-307.61992359078829
 30
0.0
 11
236.44021238893171
 21
-308.31171952787793
 31
0.0
  0
LINE
  8
DETAIL
  6
CONTINUOUS
 62
     5
 10
236.44021238893171
 20
-308.31171952787793
 30
0.0
 11
234.68411501016499
 21
-308.63100996038082
 31
0.0
  0
LINE
  8
DETAIL
  6
CONTINUOUS
 62
     5
 10
234.68411501016499
 20
-308.63100996038082
 30
0.0
 11
233.48123270348259
 21
-308.31171952787793
 31
0.0
  0
LINE
  8
DETAIL
  6
CONTINUOUS
 62
     5
 10
233.48123270348259
 20
-308.31171952787793
 30
0.0
 11
231.67192025263239
 21
-307.61992359078829
 31
0.0
  0
LINE
  8
DETAIL
  6
CONTINUOUS
 62
     5
 10
231.67192025263239
 20
-307.61992359078829
 30
0.0
 11
230.34154345053719
 21
-306.44919200494428
 31
0.0
  0
LINE
  8
DETAIL
  6
CONTINUOUS
 62
     5
 10
230.34154345053719
 20
-306.12990157244121
 30
0.0
 11
230.34154345053719
 21
-306.44919200494428
 31
0.0
  0
LINE
  8
DETAIL
  6
CONTINUOUS
 62
     5
 10
230.34154345053719
 20
-306.12990157244121
 30
0.0
 11
239.36704135354191
 21
-306.12990157244121
 31
0.0
  0
LINE
  8
DETAIL
  6
CONTINUOUS
 62
     5
 10
-230.39475852262001
 20
-1.0110863695929311
 30
0.0
 11
-230.39475852262001
 21
-0.6917959370898643
 31
0.0
  0
LINE
  8
DETAIL
  6
CONTINUOUS
 62
     5
 10
-239.20739613728981
 20
-1.0110863695929311
 30
0.0
 11
-230.39475852262001
 21
-1.0110863695929311
 31
0.0
  0
LINE
  8
DETAIL
  6
CONTINUOUS
 62
     5
 10
-239.20739613728981
 20
-1.0110863695929311
 30
0.0
 11
-239.20739613728981
 21
-0.6917959370898643
 31
0.0
  0
LINE
  8
DETAIL
  6
CONTINUOUS
 62
     5
 10
-230.39475852262001
 20
-0.6917959370898643
 30
0.0
 11
-239.20739613728981
 21
-0.6917959370898643
 31
0.0
  0
LINE
  8
DETAIL
  6
CONTINUOUS
 62
     5
 10
-239.20739613728981
 20
-0.6917959370898643
 30
0.0
 11
-237.87701933519409
 21
0.4789356487544865
 31
0.0
  0
LINE
  8
DETAIL
  6
CONTINUOUS
 62
     5
 10
-237.87701933519409
 20
0.4789356487544865
 30
0.0
 11
-236.3869973168469
 21
1.223946657928082
 31
0.0
  0
LINE
  8
DETAIL
  6
CONTINUOUS
 62
     5
 10
-236.3869973168469
 20
1.223946657928082
 30
0.0
 11
-235.18411501016439
 21
1.4900220183471899
 31
0.0
  0
LINE
  8
DETAIL
  6
CONTINUOUS
 62
     5
 10
-235.18411501016439
 20
1.4900220183471899
 30
0.0
 11
-233.37480255931419
 21
1.223946657928082
 31
0.0
  0
LINE
  8
DETAIL
  6
CONTINUOUS
 62
     5
 10
-233.37480255931419
 20
1.223946657928082
 30
0.0
 11
-231.56549010846439
 21
0.4789356487544865
 31
0.0
  0
LINE
  8
DETAIL
  6
CONTINUOUS
 62
     5
 10
-231.56549010846439
 20
0.4789356487544865
 30
0.0
 11
-230.39475852262001
 21
-0.6917959370898643
 31
0.0
  0
LINE
  8
OUTLINE
  6
CONTINUOUS
 62
     3
 10
329.16193231020532
 20
-247.1225906943865
 30
0.0
 11
328.84264187770248
 21
-247.81438663147591
 31
0.0
  0
LINE
  8
OUTLINE
  6
CONTINUOUS
 62
     3
 10
328.84264187770248
 20
-247.81438663147591
 30
0.0
 11
328.68299666145077
 21
-248.50618256856569
 31
0.0
  0
LINE
  8
OUTLINE
  6
CONTINUOUS
 62
     3
 10
328.68299666145077
 20
-248.50618256856569
 30
0.0
 11
327.8847705801935
 21
-249.03833328940411
 31
0.0
  0
LINE
  8
OUTLINE
  6
CONTINUOUS
 62
     3
 10
327.8847705801935
 20
-249.03833328940411
 30
0.0
 11
327.35261985935477
 21
-249.62369908232591
 31
0.0
  0
LINE
  8
OUTLINE
  6
CONTINUOUS
 62
     3
 10
327.35261985935477
 20
-249.62369908232591
 30
0.0
 11
326.34153348976201
 21
-249.62369908232591
 31
0.0
  0
LINE
  8
OUTLINE
  6
CONTINUOUS
 62
     3
 10
246.17857058027209
 20
-49.588243119217452
 30
0.0
 11
245.64641985943359
 21
-49.588243119217452
 31
0.0
  0
LINE
  8
OUTLINE
  6
CONTINUOUS
 62
     3
 10
245.64641985943359
 20
-49.588243119217452
 30
0.0
 11
245.16748421067919
 21
-49.322167758798336
 31
0.0
  0
LINE
  8
OUTLINE
  6
CONTINUOUS
 62
     3
 10
245.16748421067919
 20
-49.322167758798336
 30
0.0
 11
244.6353334898408
 21
-48.790017037959672
 31
0.0
  0
LINE
  8
OUTLINE
  6
CONTINUOUS
 62
     3
 10
244.6353334898408
 20
-48.790017037959672
 30
0.0
 11
244.36925812942181
 21
-48.630371821708252
 31
0.0
  0
LINE
  8
OUTLINE
  6
CONTINUOUS
 62
     3
 10
244.36925812942181
 20
-258.82990655282862
 30
0.0
 11
244.6353334898408
 21
-258.29775583198978
 31
0.0
  0
LINE
  8
OUTLINE
  6
CONTINUOUS
 62
     3
 10
244.6353334898408
 20
-258.29775583198978
 30
0.0
 11
245.16748421067919
 21
-257.81882018323557
 31
0.0
  0
LINE
  8
OUTLINE
  6
CONTINUOUS
 62
     3
 10
245.16748421067919
 20
-257.81882018323557
 30
0.0
 11
245.64641985943359
 21
-257.60595989490048
 31
0.0
  0
LINE
  8
OUTLINE
  6
CONTINUOUS
 62
     3
 10
245.64641985943359
 20
-257.60595989490048
 30
0.0
 11
246.17857058027209
 21
-257.60595989490048
 31
0.0
  0
LINE
  8
OUTLINE
  6
CONTINUOUS
 62
     3
 10
251.44686271657091
 20
-257.60595989490048
 30
0.0
 11
246.17857058027209
 21
-257.60595989490048
 31
0.0
  0
LINE
  8
OUTLINE
  6
CONTINUOUS
 62
     3
 10
251.44686271657091
 20
-49.588243119217452
 30
0.0
 11
246.17857058027209
 21
-49.588243119217452
 31
0.0
  0
LINE
  8
OUTLINE
  6
CONTINUOUS
 62
     3
 10
329.16193231020532
 20
-247.1225906943865
 30
0.0
 11
329.16193231020532
 21
-59.007310878054852
 31
0.0
  0
LINE
  8
OUTLINE
  6
CONTINUOUS
 62
     3
 10
327.35261985935477
 20
-57.517288859707428
 30
0.0
 11
327.8847705801935
 21
-57.517288859707428
 31
0.0
  0
LINE
  8
OUTLINE
  6
CONTINUOUS
 62
     3
 10
327.8847705801935
 20
-57.517288859707428
 30
0.0
 11
328.47013637311522
 21
-57.783364220126771
 31
0.0
  0
LINE
  8
OUTLINE
  6
CONTINUOUS
 62
     3
 10
328.47013637311522
 20
-57.783364220126771
 30
0.0
 11
328.84264187770248
 21
-58.315514940965222
 31
0.0
  0
LINE
  8
OUTLINE
  6
CONTINUOUS
 62
     3
 10
328.84264187770248
 20
-58.315514940965222
 30
0.0
 11
328.84264187770248
 21
-58.581590301384097
 31
0.0
  0
LINE
  8
OUTLINE
  6
CONTINUOUS
 62
     3
 10
328.84264187770248
 20
-58.581590301384097
 30
0.0
 11
329.16193231020532
 21
-59.007310878054852
 31
0.0
  0
LINE
  8
OUTLINE
  6
CONTINUOUS
 62
     3
 10
321.17967149763132
 20
-57.517288859707428
 30
0.0
 11
251.44686271657091
 21
-49.588243119217452
 31
0.0
  0
LINE
  8
OUTLINE
  6
CONTINUOUS
 62
     3
 10
327.35261985935477
 20
-57.517288859707428
 30
0.0
 11
321.17967149763132
 21
-57.517288859707428
 31
0.0
  0
LINE
  8
OUTLINE
  6
CONTINUOUS
 62
     3
 10
251.44686271657091
 20
-257.60595989490048
 30
0.0
 11
321.17967149763132
 21
-249.62369908232591
 31
0.0
  0
LINE
  8
OUTLINE
  6
CONTINUOUS
 62
     3
 10
326.34153348976201
 20
-249.62369908232591
 30
0.0
 11
321.17967149763132
 21
-249.62369908232591
 31
0.0
  0
LINE
  8
OUTLINE
  6
CONTINUOUS
 62
     3
 10
-326.39474856184557
 20
-249.62369908232591
 30
0.0
 11
-327.19297464310313
 21
-249.62369908232591
 31
0.0
  0
LINE
  8
OUTLINE
  6
CONTINUOUS
 62
     3
 10
-327.19297464310313
 20
-249.62369908232591
 30
0.0
 11
-327.88477058019288
 21
-249.03833328940411
 31
0.0
  0
LINE
  8
OUTLINE
  6
CONTINUOUS
 62
     3
 10
-327.88477058019288
 20
-249.03833328940411
 30
0.0
 11
-328.68299666144992
 21
-248.50618256856569
 31
0.0
  0
LINE
  8
OUTLINE
  6
CONTINUOUS
 62
     3
 10
-328.68299666144992
 20
-248.50618256856569
 30
0.0
 11
-328.8958569497853
 21
-247.81438663147591
 31
0.0
  0
LINE
  8
OUTLINE
  6
CONTINUOUS
 62
     3
 10
-328.8958569497853
 20
-247.81438663147591
 30
0.0
 11
-329.1087172381209
 21
-247.1225906943865
 31
0.0
  0
LINE
  8
OUTLINE
  6
CONTINUOUS
 62
     3
 10
-244.36925812942141
 20
-48.630371821708252
 30
0.0
 11
-244.68854856192411
 21
-48.790017037959672
 31
0.0
  0
LINE
  8
OUTLINE
  6
CONTINUOUS
 62
     3
 10
-244.68854856192411
 20
-48.790017037959672
 30
0.0
 11
-245.06105406651079
 21
-49.322167758798336
 31
0.0
  0
LINE
  8
OUTLINE
  6
CONTINUOUS
 62
     3
 10
-245.06105406651079
 20
-49.322167758798336
 30
0.0
 11
-245.6996349315167
 21
-49.588243119217452
 31
0.0
  0
LINE
  8
OUTLINE
  6
CONTINUOUS
 62
     3
 10
-245.6996349315167
 20
-49.588243119217452
 30
0.0
 11
-246.07214043610361
 21
-49.588243119217452
 31
0.0
  0
LINE
  8
OUTLINE
  6
CONTINUOUS
 62
     3
 10
-246.07214043610361
 20
-257.60595989490048
 30
0.0
 11
-245.6996349315167
 21
-257.60595989490048
 31
0.0
  0
LINE
  8
OUTLINE
  6
CONTINUOUS
 62
     3
 10
-245.6996349315167
 20
-257.60595989490048
 30
0.0
 11
-245.06105406651079
 21
-257.81882018323557
 31
0.0
  0
LINE
  8
OUTLINE
  6
CONTINUOUS
 62
     3
 10
-245.06105406651079
 20
-257.81882018323557
 30
0.0
 11
-244.68854856192411
 21
-258.29775583198978
 31
0.0
  0
LINE
  8
OUTLINE
  6
CONTINUOUS
 62
     3
 10
-244.68854856192411
 20
-258.29775583198978
 30
0.0
 11
-244.36925812942141
 21
-258.82990655282862
 31
0.0
  0
LINE
  8
OUTLINE
  6
CONTINUOUS
 62
     3
 10
-251.39364764448649
 20
-257.60595989490048
 30
0.0
 11
-246.07214043610361
 21
-257.60595989490048
 31
0.0
  0
LINE
  8
OUTLINE
  6
CONTINUOUS
 62
     3
 10
-251.39364764448649
 20
-49.588243119217452
 30
0.0
 11
-246.07214043610361
 21
-49.588243119217452
 31
0.0
  0
LINE
  8
OUTLINE
  6
CONTINUOUS
 62
     3
 10
-329.1087172381209
 20
-247.1225906943865
 30
0.0
 11
-329.1087172381209
 21
-59.007310878054852
 31
0.0
  0
LINE
  8
OUTLINE
  6
CONTINUOUS
 62
     3
 10
-329.1087172381209
 20
-59.007310878054852
 30
0.0
 11
-328.8958569497853
 21
-58.581590301384097
 31
0.0
  0
LINE
  8
OUTLINE
  6
CONTINUOUS
 62
     3
 10
-328.8958569497853
 20
-58.581590301384097
 30
0.0
 11
-328.68299666144992
 21
-58.315514940965222
 31
0.0
  0
LINE
  8
OUTLINE
  6
CONTINUOUS
 62
     3
 10
-328.68299666144992
 20
-58.315514940965222
 30
0.0
 11
-328.41692130103081
 21
-57.783364220126771
 31
0.0
  0
LINE
  8
OUTLINE
  6
CONTINUOUS
 62
     3
 10
-328.41692130103081
 20
-57.783364220126771
 30
0.0
 11
-327.88477058019288
 21
-57.517288859707428
 31
0.0
  0
LINE
  8
OUTLINE
  6
CONTINUOUS
 62
     3
 10
-327.88477058019288
 20
-57.517288859707428
 30
0.0
 11
-327.40583493143799
 21
-57.517288859707428
 31
0.0
  0
LINE
  8
OUTLINE
  6
CONTINUOUS
 62
     3
 10
-321.17967149763012
 20
-57.517288859707428
 30
0.0
 11
-251.39364764448649
 21
-49.588243119217452
 31
0.0
  0
LINE
  8
OUTLINE
  6
CONTINUOUS
 62
     3
 10
-327.40583493143799
 20
-57.517288859707428
 30
0.0
 11
-321.17967149763012
 21
-57.517288859707428
 31
0.0
  0
LINE
  8
OUTLINE
  6
CONTINUOUS
 62
     3
 10
-251.39364764448649
 20
-257.60595989490048
 30
0.0
 11
-321.17967149763012
 21
-249.62369908232591
 31
0.0
  0
LINE
  8
OUTLINE
  6
CONTINUOUS
 62
     3
 10
-326.39474856184557
 20
-249.62369908232591
 30
0.0
 11
-321.17967149763012
 21
-249.62369908232591
 31
0.0
  0
LINE
  8
OUTLINE
  6
CONTINUOUS
 62
     3
 10
103.8493171072782
 20
-1.8093124508502569
 30
0.0
 11
107.36151186481069
 21
-1.8093124508502569
 31
0.0
  0
LINE
  8
OUTLINE
  6
CONTINUOUS
 62
     3
 10
-174.35907974697409
 20
-1.8093124508502569
 30
0.0
 11
-172.65619744029129
 21
-1.8093124508502569
 31
0.0
  0
LINE
  8
OUTLINE
  6
CONTINUOUS
 62
     3
 10
103.8493171072782
 20
-305.33167549118372
 30
0.0
 11
107.36151186481069
 21
-305.33167549118372
 31
0.0
  0
LINE
  8
OUTLINE
  6
CONTINUOUS
 62
     3
 10
-174.35907974697409
 20
-305.33167549118372
 30
0.0
 11
-172.65619744029129
 21
-305.33167549118372
 31
0.0
  0
LINE
  8
OUTLINE
  6
CONTINUOUS
 62
     3
 10
-244.36925812942141
 20
-143.6192754913414
 30
0.0
 11
-244.36925812942141
 21
-3.7782701179517062
 31
0.0
  0
LINE
  8
OUTLINE
  6
CONTINUOUS
 62
     3
 10
-174.35907974697409
 20
-306.12990157244121
 30
0.0
 11
-174.35907974697409
 21
-302.6177068149085
 31
0.0
  0
LINE
  8
OUTLINE
  6
CONTINUOUS
 62
     3
 10
-174.35907974697409
 20
-1.0110863695929311
 30
0.0
 11
-174.35907974697409
 21
-4.5232811271255287
 31
0.0
  0
LINE
  8
OUTLINE
  6
CONTINUOUS
 62
     3
 10
-241.70850452522961
 20
-3.7782701179517062
 30
0.0
 11
-241.70850452522961
 21
-1.0110863695929311
 31
0.0
  0
LINE
  8
OUTLINE
  6
CONTINUOUS
 62
     3
 10
-244.36925812942141
 20
-303.30950275199842
 30
0.0
 11
-241.70850452522961
 21
-303.30950275199842
 31
0.0
  0
LINE
  8
OUTLINE
  6
CONTINUOUS
 62
     3
 10
-244.36925812942141
 20
-3.7782701179517062
 30
0.0
 11
-241.70850452522961
 21
-3.7782701179517062
 31
0.0
  0
LINE
  8
OUTLINE
  6
CONTINUOUS
 62
     3
 10
-241.70850452522961
 20
-306.12990157244121
 30
0.0
 11
-241.70850452522961
 21
-303.30950275199842
 31
0.0
  0
LINE
  8
OUTLINE
  6
CONTINUOUS
 62
     3
 10
-174.35907974697409
 20
-1.0110863695929311
 30
0.0
 11
-241.70850452522961
 21
-1.0110863695929311
 31
0.0
  0
LINE
  8
OUTLINE
  6
CONTINUOUS
 62
     3
 10
-244.36925812942141
 20
-303.30950275199842
 30
0.0
 11
-244.36925812942141
 21
-146.33324416761641
 31
0.0
  0
LINE
  8
OUTLINE
  6
CONTINUOUS
 62
     3
 10
-174.35907974697409
 20
-306.12990157244121
 30
0.0
 11
-241.70850452522961
 21
-306.12990157244121
 31
0.0
  0
LINE
  8
OUTLINE
  6
CONTINUOUS
 62
     3
 10
244.36925812942181
 20
-143.6192754913414
 30
0.0
 11
244.36925812942181
 21
-3.7782701179517062
 31
0.0
  0
LINE
  8
OUTLINE
  6
CONTINUOUS
 62
     3
 10
241.65528945314671
 20
-1.0110863695929311
 30
0.0
 11
241.65528945314671
 21
-3.7782701179517062
 31
0.0
  0
LINE
  8
OUTLINE
  6
CONTINUOUS
 62
     3
 10
241.65528945314671
 20
-3.7782701179517062
 30
0.0
 11
244.36925812942181
 21
-3.7782701179517062
 31
0.0
  0
LINE
  8
OUTLINE
  6
CONTINUOUS
 62
     3
 10
241.65528945314671
 20
-306.12990157244121
 30
0.0
 11
241.65528945314671
 21
-303.30950275199842
 31
0.0
  0
LINE
  8
OUTLINE
  6
CONTINUOUS
 62
     3
 10
241.65528945314671
 20
-303.30950275199842
 30
0.0
 11
244.36925812942181
 21
-303.30950275199842
 31
0.0
  0
LINE
  8
OUTLINE
  6
CONTINUOUS
 62
     3
 10
107.36151186481069
 20
-306.12990157244121
 30
0.0
 11
107.36151186481069
 21
-303.30950275199842
 31
0.0
  0
LINE
  8
OUTLINE
  6
CONTINUOUS
 62
     3
 10
107.36151186481069
 20
-1.0110863695929311
 30
0.0
 11
107.36151186481069
 21
-3.7782701179517062
 31
0.0
  0
LINE
  8
OUTLINE
  6
CONTINUOUS
 62
     3
 10
107.36151186481069
 20
-1.0110863695929311
 30
0.0
 11
241.65528945314671
 21
-1.0110863695929311
 31
0.0
  0
LINE
  8
OUTLINE
  6
CONTINUOUS
 62
     3
 10
244.36925812942181
 20
-303.30950275199842
 30
0.0
 11
244.36925812942181
 21
-146.33324416761641
 31
0.0
  0
LINE
  8
OUTLINE
  6
CONTINUOUS
 62
     3
 10
107.36151186481069
 20
-306.12990157244121
 30
0.0
 11
241.65528945314671
 21
-306.12990157244121
 31
0.0
  0
LINE
  8
OUTLINE
  6
CONTINUOUS
 62
     3
 10
103.8493171072782
 20
-307.1409879420338
 30
0.0
 11
-172.65619744029129
 21
-307.1409879420338
 31
0.0
  0
LINE
  8
OUTLINE
  6
CONTINUOUS
 62
     3
 10
103.8493171072782
 20
0.0
 30
0.0
 11
-172.65619744029129
 21
0.0
 31
0.0
  0
LINE
  8
OUTLINE
  6
CONTINUOUS
 62
     3
 10
103.8493171072782
 20
-302.6177068149085
 30
0.0
 11
103.8493171072782
 21
-307.1409879420338
 31
0.0
  0
LINE
  8
OUTLINE
  6
CONTINUOUS
 62
     3
 10
103.8493171072782
 20
-4.5232811271255287
 30
0.0
 11
103.8493171072782
 21
0.0
 31
0.0
  0
LINE
  8
OUTLINE
  6
CONTINUOUS
 62
     3
 10
-172.65619744029129
 20
0.0
 30
0.0
 11
-172.65619744029129
 21
-4.5232811271255287
 31
0.0
  0
LINE
  8
OUTLINE
  6
CONTINUOUS
 62
     3
 10
-172.65619744029129
 20
-302.6177068149085
 30
0.0
 11
-172.65619744029129
 21
-307.1409879420338
 31
0.0
  0
ENDSEC
  0
EOF
