  0
SECTION
  2
HEADER
  9
$ACADVER
  1
AC1009
  9
$DWGCODEPAGE
  3
dos932
  9
$INSBASE
 10
0.0
 20
0.0
 30
0.0
  9
$EXTMIN
 10
-1045.0469809992339
 20
-916.12242536633676
 30
-0.0015258207003583
  9
$EXTMAX
 10
1217.710888255049
 20
857.16248391797126
 30
0.0000000349246037
  9
$LIMMIN
 10
-2970.0
 20
-2100.0
  9
$LIMMAX
 10
2970.0
 20
2100.0
  9
$ORTHOMODE
 70
     0
  9
$REGENMODE
 70
     1
  9
$FILLMODE
 70
     1
  9
$QTEXTMODE
 70
     0
  9
$MIRRTEXT
 70
     0
  9
$LTSCALE
 40
20.0
  9
$ATTMODE
 70
     1
  9
$TEXTSIZE
 40
64.0
  9
$TRACEWID
 40
0.050000000000000003
  9
$TEXTSTYLE
  7
STANDARD
  9
$CLAYER
  8
SIZE
  9
$CELTYPE
  6
CONTINUOUS
  9
$CECOLOR
 62
     7
  9
$DIMSCALE
 40
1.0
  9
$DIMASZ
 40
12.0
  9
$DIMEXO
 40
20.0
  9
$DIMDLI
 40
200.0
  9
$DIMRND
 40
0.0
  9
$DIMDLE
 40
0.0
  9
$DIMEXE
 40
20.0
  9
$DIMTP
 40
0.0
  9
$DIMTM
 40
0.0
  9
$DIMTXT
 40
64.0
  9
$DIMCEN
 40
0.089999999999999997
  9
$DIMTSZ
 40
0.0
  9
$DIMTOL
 70
     0
  9
$DIMLIM
 70
     0
  9
$DIMTIH
 70
     0
  9
$DIMTOH
 70
     0
  9
$DIMSE1
 70
     0
  9
$DIMSE2
 70
     0
  9
$DIMTAD
 70
     1
  9
$DIMZIN
 70
     8
  9
$DIMBLK
  1

  9
$DIMASO
 70
     1
  9
$DIMSHO
 70
     0
  9
$DIMPOST
  1

  9
$DIMAPOST
  1

  9
$DIMALT
 70
     0
  9
$DIMALTD
 70
     2
  9
$DIMALTF
 40
25.399999999999999
  9
$DIMLFAC
 40
1.0
  9
$DIMTOFL
 70
     1
  9
$DIMTVP
 40
0.0
  9
$DIMTIX
 70
     1
  9
$DIMSOXD
 70
     0
  9
$DIMSAH
 70
     0
  9
$DIMBLK1
  1

  9
$DIMBLK2
  1

  9
$DIMSTYLE
  2
STANDARD
  9
$DIMCLRD
 70
     7
  9
$DIMCLRE
 70
     7
  9
$DIMCLRT
 70
     7
  9
$DIMTFAC
 40
1.0
  9
$DIMGAP
 40
25.0
  9
$LUNITS
 70
     2
  9
$LUPREC
 70
     4
  9
$SKETCHINC
 40
0.10000000000000001
  9
$FILLETRAD
 40
3.0
  9
$AUNITS
 70
     1
  9
$AUPREC
 70
     3
  9
$MENU
  1
ACAD
  9
$ELEVATION
 40
0.0
  9
$PELEVATION
 40
0.0
  9
$THICKNESS
 40
50.0
  9
$LIMCHECK
 70
     0
  9
$CHAMFERA
 40
0.0
  9
$CHAMFERB
 40
0.0
  9
$SKPOLY
 70
     0
  9
$TDCREATE
 40
2453019.62301037
  9
$TDUPDATE
 40
2458659.387214826
  9
$TDINDWG
 40
1.7923076505
  9
$TDUSRTIMER
 40
1.7923076505
  9
$USRTIMER
 70
     1
  9
$ANGBASE
 50
0.0
  9
$ANGDIR
 70
     0
  9
$PDMODE
 70
     3
  9
$PDSIZE
 40
-2.0
  9
$PLINEWID
 40
0.0
  9
$SPLFRAME
 70
     0
  9
$SPLINETYPE
 70
     6
  9
$SPLINESEGS
 70
     8
  9
$SURFTAB1
 70
     6
  9
$SURFTAB2
 70
     6
  9
$SURFTYPE
 70
     6
  9
$SURFU
 70
     6
  9
$SURFV
 70
     6
  9
$UCSNAME
  2

  9
$UCSORG
 10
0.0
 20
0.0
 30
0.0
  9
$UCSXDIR
 10
1.0
 20
0.0
 30
0.0
  9
$UCSYDIR
 10
0.0
 20
1.0
 30
0.0
  9
$PUCSNAME
  2

  9
$PUCSORG
 10
0.0
 20
0.0
 30
0.0
  9
$PUCSXDIR
 10
1.0
 20
0.0
 30
0.0
  9
$PUCSYDIR
 10
0.0
 20
1.0
 30
0.0
  9
$USERI1
 70
     0
  9
$USERI2
 70
     0
  9
$USERI3
 70
     0
  9
$USERI4
 70
     0
  9
$USERI5
 70
     0
  9
$USERR1
 40
20.0
  9
$USERR2
 40
0.0
  9
$USERR3
 40
0.0
  9
$USERR4
 40
0.0
  9
$USERR5
 40
0.0
  9
$WORLDVIEW
 70
     1
  9
$SHADEDGE
 70
     3
  9
$SHADEDIF
 70
    70
  9
$TILEMODE
 70
     1
  9
$MAXACTVP
 70
    48
  9
$PINSBASE
 10
0.0
 20
0.0
 30
0.0
  9
$PLIMCHECK
 70
     0
  9
$PEXTMIN
 10
-100000000000000000000.0
 20
-100000000000000000000.0
 30
-100000000000000000000.0
  9
$PEXTMAX
 10
100000000000000000000.0
 20
100000000000000000000.0
 30
100000000000000000000.0
  9
$PLIMMIN
 10
0.0
 20
0.0
  9
$PLIMMAX
 10
12.0
 20
9.0
  9
$UNITMODE
 70
     0
  9
$VISRETAIN
 70
     0
  9
$PLINEGEN
 70
     0
  9
$PSLTSCALE
 70
     0
  9
$TREEDEPTH
 70
  3020
  9
$ATTDIA
 70
     0
  9
$ATTREQ
 70
     1
  9
$BLIPMODE
 70
     1
  9
$COORDS
 70
     1
  9
$DRAGMODE
 70
     2
  9
$OSMODE
 70
     0
  9
$HANDLING
 70
     0
  9
$HANDSEED
  5
FC4A
  0
ENDSEC
  0
SECTION
  2
TABLES
  0
TABLE
  2
LTYPE
 70
     2
  0
LTYPE
  2
CONTINUOUS
 70
     0
  3
実線
 72
    65
 73
     0
 40
0.0
  0
LTYPE
  2
DASHDOT
 70
     0
  3
____ _ ____ _ ____ _ ____ _ ____ _ ____ _ ____
 72
    65
 73
     4
 40
5.5
 49
4.0
 49
-0.59999999999999998
 49
0.29999999999999999
 49
-0.59999999999999998
  0
ENDTAB
  0
TABLE
  2
LAYER
 70
    12
  0
LAYER
  2
0
 70
     0
 62
     7
  6
CONTINUOUS
  0
LAYER
  2
BASIS
 70
     0
 62
     6
  6
DASHDOT
  0
LAYER
  2
OUTLINE
 70
     0
 62
     3
  6
CONTINUOUS
  0
LAYER
  2
DETAIL
 70
     0
 62
     5
  6
CONTINUOUS
  0
LAYER
  2
SIZE
 70
     0
 62
    30
  6
CONTINUOUS
  0
LAYER
  2
ARRANGE
 70
     0
 62
     1
  6
CONTINUOUS
  0
LAYER
  2
DEFPOINTS
 70
     0
 62
     7
  6
CONTINUOUS
  0
LAYER
  2
ETC
 70
     0
 62
    61
  6
CONTINUOUS
  0
LAYER
  2
FIX
 70
     0
 62
    11
  6
CONTINUOUS
  0
LAYER
  2
NOTE
 70
     0
 62
     4
  6
CONTINUOUS
  0
LAYER
  2
SERVICESPACE
 70
    64
 62
     2
  6
DASHDOT
  0
LAYER
  2
SYMBOLLINE
 70
    64
 62
    15
  6
CONTINUOUS
  0
ENDTAB
  0
TABLE
  2
STYLE
 70
     1
  0
STYLE
  2
STANDARD
 70
     0
 40
64.0
 41
0.90000000000000002
 50
0.0
 71
     0
 42
64.0
  3
SIMPLEX.shx
  4
BIGFONT.shx
  0
ENDTAB
  0
TABLE
  2
APPID
 70
    17
  0
APPID
  2
ACAD
 70
     0
  0
APPID
  2
AUTOCAD_POSTSCRIPT_FIGURE
 70
     0
  0
APPID
  2
ACAD_EXEMPT_FROM_CAD_STANDARDS
 70
     0
  0
APPID
  2
ACAD_PSEXT
 70
     0
  0
APPID
  2
ACAUTHENVIRON
 70
     0
  0
APPID
  2
GENIUS_GENOENT_13
 70
     0
  0
APPID
  2
GENIUS_GENCFG_13
 70
     0
  0
APPID
  2
GENIUS_GENCFG0_13
 70
     0
  0
APPID
  2
GENIUS_GENCFG1_13
 70
     0
  0
APPID
  2
GENIUS_GENCFG2_13
 70
     0
  0
APPID
  2
GENIUS_GENCFG3_13
 70
     0
  0
APPID
  2
GENIUS_GENCFG4_13
 70
     0
  0
APPID
  2
GENIUS_GEVCFG0_13
 70
     0
  0
APPID
  2
CONTENTBLOCKICON
 70
     0
  0
APPID
  2
CONTENTBLOCKDESCRIPTION
 70
     0
  0
APPID
  2
ACAD_NAV_VCDISPLAY
 70
     0
  0
APPID
  2
ACAD_MLEADERVER
 70
     0
  0
ENDTAB
  0
TABLE
  2
DIMSTYLE
 70
     1
  0
DIMSTYLE
  2
STANDARD
 70
     0
  3

  4

  5
_ORIGIN
  6

  7

 40
1.0
 41
12.0
 42
20.0
 43
200.0
 44
20.0
 45
0.0
 46
0.0
 47
0.0
 48
0.0
140
64.0
141
0.089999999999999997
142
0.0
143
25.399999999999999
144
1.0
145
0.0
146
1.0
147
25.0
 71
     0
 72
     0
 73
     0
 74
     0
 75
     0
 76
     0
 77
     1
 78
     8
170
     0
171
     2
172
     1
173
     0
174
     1
175
     0
176
     7
177
     7
178
     7
  0
ENDTAB
  0
TABLE
  2
VIEW
 70
     1
  0
VIEW
  2
ALL
 70
     0
 40
4282.6198079999986
 10
0.0
 20
41.309904000000003
 41
5940.0
 11
0.0
 21
0.0
 31
1.0
 12
0.0
 22
0.0
 32
0.0
 42
50.0
 43
0.0
 44
0.0
 50
0.0
 71
     0
  0
ENDTAB
  0
TABLE
  2
UCS
 70
     0
  0
ENDTAB
  0
TABLE
  2
VPORT
 70
     1
  0
VPORT
  2
*ACTIVE
 70
     0
 10
0.0
 20
0.0
 11
1.0
 21
1.0
 12
86.331953627907751
 22
-29.479970724182749
 13
0.0
 23
0.0
 14
1.0
 24
1.0
 15
0.0
 25
0.0
 16
0.0
 26
0.0
 36
1.0
 17
0.0
 27
0.0
 37
0.0
 40
1784.3910778184479
 41
1.996865203761756
 42
50.0
 43
0.0
 44
0.0
 50
0.0
 51
0.0
 71
     0
 72
  1000
 73
     1
 74
     3
 75
     0
 76
     0
 77
     0
 78
     0
  0
ENDTAB
  0
ENDSEC
  0
SECTION
  2
BLOCKS
  0
BLOCK
  8
0
  2
_ORIGIN
 70
     0
 10
0.0
 20
0.0
 30
0.0
  3
_ORIGIN
  1
_ORIGIN
  0
CIRCLE
  8
0
  6
CONTINUOUS
 62
     7
 10
0.0
 20
0.0
 30
0.0
 40
0.5
  0
LINE
  8
0
  6
CONTINUOUS
 62
     7
 10
0.0
 20
0.0
 30
0.0
 11
-1.0
 21
0.0
 31
0.0
  0
ENDBLK
  8
0
  0
ENDSEC
  0
SECTION
  2
ENTITIES
  0
TEXT
  8
ETC
  6
CONTINUOUS
 62
    61
 10
659.31197051919355
 20
797.04831643749844
 30
0.0
 40
60.0
  1
BFS-65SUG2_1
 41
0.90000000000000002
  0
TEXT
  8
ETC
  6
CONTINUOUS
 62
    61
 10
653.18464301919357
 20
702.92963393749824
 30
0.0
 40
60.0
  1
産業扇
 41
0.90000000000000002
  0
TEXT
  8
ETC
  6
CONTINUOUS
 62
    61
 10
707.93574465411416
 20
632.35619153803464
 30
0.0
 40
40.0
  1
BFS-65SUG2
 41
0.90000000000000002
  0
TEXT
  8
ETC
  6
CONTINUOUS
 62
    61
 10
707.93574465411416
 20
572.35619153803464
 30
0.0
 40
40.0
  1
BFS-80SUG2
 41
0.90000000000000002
  0
TEXT
  8
ETC
  6
CONTINUOUS
 62
    61
 10
707.93574465411416
 20
512.35619153803464
 30
0.0
 40
40.0
  1
BFS-80TUG2
 41
0.90000000000000002
  0
LINE
  8
BASIS
  6
DASHDOT
 62
     6
 10
-298.23421100000002
 20
0.0
 30
0.0
 11
298.23421100000002
 21
0.0
 31
0.0
  0
LINE
  8
DETAIL
  6
CONTINUOUS
 62
     5
 10
211.60880999999969
 20
-318.99998799999997
 30
0.0
 11
-211.39119000000011
 21
-318.99998799999997
 31
0.0
  0
POINT
  8
ARRANGE
  6
CONTINUOUS
 62
     1
 10
0.0
 20
0.0
 30
0.0
  0
CIRCLE
  8
ARRANGE
  6
CONTINUOUS
 62
     1
 10
0.0
 20
0.0
 30
0.0
 40
44.210526000000002
  0
LINE
  8
DETAIL
  6
CONTINUOUS
 62
     5
 10
-211.39119000000011
 20
-318.99998799999997
 30
0.0
 11
-211.41780199999991
 21
44.88915499999996
 31
0.0
  0
LINE
  8
BASIS
  6
DASHDOT
 62
     6
 10
0.0
 20
-457.48024516949408
 30
0.0
 11
0.0
 21
481.99080795213382
 31
0.0
  0
LINE
  8
DETAIL
  6
CONTINUOUS
 62
     5
 10
211.60880999999969
 20
-318.99998799999997
 30
0.0
 11
211.60880999999969
 21
61.999944000000028
 31
0.0
  0
TEXT
  8
NOTE
  6
CONTINUOUS
 62
     4
 10
-1037.3438517926641
 20
-293.99526799999973
 30
0.0
 40
70.73684200000001
  1
端子カバ－
 41
0.90000000000000002
  0
LINE
  8
NOTE
  6
CONTINUOUS
 62
     4
 10
-1044.939002792664
 20
-340.05340699999988
 30
0.0
 11
-453.278437
 21
-340.05340699999982
 31
0.0
  0
LINE
  8
NOTE
  6
CONTINUOUS
 62
     4
 10
452.70679899999999
 20
518.95078100000001
 30
0.0
 11
599.00676516455678
 21
518.95078100000001
 31
0.0
  0
LINE
  8
NOTE
  6
CONTINUOUS
 62
     4
 10
-270.67114899999979
 20
-243.97783299999989
 30
0.0
 11
-237.66262199999991
 21
-214.56682799999999
 31
0.0
  0
LINE
  8
NOTE
  6
CONTINUOUS
 62
     4
 10
-237.66262199999991
 20
-214.56682799999999
 30
0.0
 11
-280.95434800000021
 21
-223.53324199999989
 31
0.0
  0
LINE
  8
DETAIL
  6
CONTINUOUS
 62
     5
 10
-237.69091599999999
 20
-262.16269299999988
 30
0.0
 11
-237.69091599999999
 21
-141.22687999999991
 31
0.0
  0
LINE
  8
NOTE
  6
CONTINUOUS
 62
     4
 10
-237.66262199999991
 20
-214.56682799999999
 30
0.0
 11
-453.278437
 21
-340.05340699999982
 31
0.0
  0
ARC
  8
DETAIL
  6
CONTINUOUS
 62
     5
 10
-232.8534829999999
 20
-141.22687999999991
 30
0.0
 40
4.8374329999999999
 50
89.999999999999986
 51
180.0
  0
LINE
  8
DETAIL
  6
CONTINUOUS
 62
     5
 10
-211.56878000000009
 20
-136.3894479999999
 30
0.0
 11
-232.8534829999999
 21
-136.3894479999999
 31
0.0
  0
LINE
  8
NOTE
  6
CONTINUOUS
 62
     4
 10
249.5670760000003
 20
301.00011599999988
 30
0.0
 11
452.70679899999999
 21
518.95078100000001
 31
0.0
  0
ARC
  8
DETAIL
  6
CONTINUOUS
 62
     5
 10
-232.8534829999999
 20
-262.16269299999988
 30
0.0
 40
4.8374329999999999
 50
180.0
 51
270.0
  0
LINE
  8
DETAIL
  6
CONTINUOUS
 62
     5
 10
-211.56878000000009
 20
-267.00012599999991
 30
0.0
 11
-232.8534829999999
 21
-267.00012599999991
 31
0.0
  0
LINE
  8
NOTE
  6
CONTINUOUS
 62
     4
 10
286.42577900000009
 20
325.41335199999997
 30
0.0
 11
249.5670760000003
 21
301.00011599999988
 31
0.0
  0
LINE
  8
NOTE
  6
CONTINUOUS
 62
     4
 10
249.5670760000003
 20
301.00011599999988
 30
0.0
 11
269.28103099999998
 21
340.57195000000002
 31
0.0
  0
TEXT
  8
NOTE
  6
CONTINUOUS
 62
     4
 10
471.41004299999992
 20
554.57865099999981
 30
0.0
 40
70.73684200000001
  1
AH
 41
0.90000000000000002
  0
LINE
  8
DETAIL
  6
CONTINUOUS
 62
     5
 10
211.56215100000011
 20
319.00005400000009
 30
0.0
 11
-211.411237
 21
319.0007270000001
 31
0.0
  0
LINE
  8
DETAIL
  6
CONTINUOUS
 62
     5
 10
211.56215100000011
 20
319.00005400000009
 30
0.0
 11
211.60880999999969
 21
-46.999578000000042
 31
0.0
  0
LINE
  8
DETAIL
  6
CONTINUOUS
 62
     5
 10
98.302265950261557
 20
400.33668670997031
 30
0.0
 11
-94.369267826915305
 21
400.52478045321709
 31
0.0
  0
LINE
  8
DETAIL
  6
CONTINUOUS
 62
     5
 10
105.7768756726624
 20
321.23894467003453
 30
0.0
 11
-101.73502621786859
 21
320.77104446941479
 31
0.0
  0
LINE
  8
DETAIL
  6
CONTINUOUS
 62
     5
 10
-103.988769
 20
319.00039099999998
 30
0.0
 11
103.988769
 21
319.00039099999998
 31
0.0
  0
LINE
  8
DETAIL
  6
CONTINUOUS
 62
     5
 10
-101.96631585897831
 20
318.92424282010779
 30
0.0
 11
-94.052230793408782
 21
403.93010372539072
 31
0.0
  0
LINE
  8
DETAIL
  6
CONTINUOUS
 62
     5
 10
-211.411237
 20
319.00072499999987
 30
0.0
 11
-211.411237
 21
-44.888481999999946
 31
0.0
  0
LINE
  8
DETAIL
  6
CONTINUOUS
 62
     5
 10
97.947715375484208
 20
404.07387835810249
 30
0.0
 11
106.01116387326149
 21
319.07992444162801
 31
0.0
  0
LINE
  8
SIZE
  6
CONTINUOUS
 62
    30
 10
-108.5539429999999
 20
404.00035699999989
 30
0.0
 11
-501.9004789999999
 21
404.00035699999989
 31
0.0
  0
LINE
  8
SIZE
  6
CONTINUOUS
 62
    30
 10
-220.21315588466859
 20
319.00039099999998
 30
0.0
 11
-501.9004789999999
 21
319.00039099999998
 31
0.0
  0
LINE
  8
SIZE
  6
CONTINUOUS
 62
    30
 10
-471.9004789999999
 20
402.00035699999989
 30
0.0
 11
-471.9004789999999
 21
321.00039099999998
 31
0.0
  0
LINE
  8
SIZE
  6
CONTINUOUS
 62
    30
 10
-471.9004789999999
 20
601.80050000000006
 30
0.0
 11
-471.9004789999999
 21
404.00035699999989
 31
0.0
  0
TEXT
  8
SIZE
  6
CONTINUOUS
 62
    30
 10
-491.9004789999999
 20
488.54335657142849
 30
0.0
 40
64.0
  1
85
 50
90.0
 41
0.90000000000000002
 72
     1
 11
-491.9004789999999
 21
535.17192799999998
 31
0.0
  0
CIRCLE
  8
SIZE
  6
CONTINUOUS
 62
    30
 10
-471.9004789999999
 20
404.00035699999989
 30
0.0
 40
6.0
  0
CIRCLE
  8
SIZE
  6
CONTINUOUS
 62
    30
 10
-471.9004789999999
 20
319.00039099999998
 30
0.0
 40
6.0
  0
POINT
  8
DEFPOINTS
  6
CONTINUOUS
 62
    30
 10
90.512715458501845
 20
404.06831288608811
 30
0.0
 50
180.042888769526
  0
POINT
  8
DEFPOINTS
  6
CONTINUOUS
 62
    30
 10
-89.578553999999713
 20
319.00039099999998
 30
0.0
  0
POINT
  8
DEFPOINTS
  6
CONTINUOUS
 62
    30
 10
-471.9004789999999
 20
319.00039099999998
 30
0.0
  0
CIRCLE
  8
FIX
  6
CONTINUOUS
 62
    11
 10
249.49757
 20
-301.00024100000002
 30
0.0
 40
5.4469940000000001
  0
LINE
  8
NOTE
  6
CONTINUOUS
 62
     4
 10
227.39524599999999
 20
-301.00024100000002
 30
0.0
 11
271.60576600000007
 21
-301.00024100000002
 31
0.0
  0
LINE
  8
NOTE
  6
CONTINUOUS
 62
     4
 10
249.50050599999989
 20
-323.105501
 30
0.0
 11
249.50050599999989
 21
-278.89498099999997
 31
0.0
  0
LINE
  8
FIX
  6
CONTINUOUS
 62
    11
 10
249.39921200000029
 20
-301.00024100000002
 30
0.0
 11
249.39921200000029
 21
-301.00024100000002
 31
0.0
  0
CIRCLE
  8
FIX
  6
CONTINUOUS
 62
    11
 10
249.5670760000003
 20
301.00011599999988
 30
0.0
 40
5.4469940000000001
  0
LINE
  8
NOTE
  6
CONTINUOUS
 62
     4
 10
227.461816
 20
301.00011599999988
 30
0.0
 11
271.67233600000009
 21
301.00011599999988
 31
0.0
  0
LINE
  8
NOTE
  6
CONTINUOUS
 62
     4
 10
249.5670760000003
 20
323.10537599999998
 30
0.0
 11
249.5670760000003
 21
278.89485599999989
 31
0.0
  0
LINE
  8
FIX
  6
CONTINUOUS
 62
    11
 10
265.5
 20
315.99999800000001
 30
0.0
 11
265.5
 21
315.99999800000001
 31
0.0
  0
CIRCLE
  8
FIX
  6
CONTINUOUS
 62
    11
 10
-249.49949400000011
 20
-301.000991
 30
0.0
 40
5.4469940000000001
  0
LINE
  8
NOTE
  6
CONTINUOUS
 62
     4
 10
-227.3942339999999
 20
-301.000991
 30
0.0
 11
-271.60475400000001
 21
-301.000991
 31
0.0
  0
LINE
  8
NOTE
  6
CONTINUOUS
 62
     4
 10
-249.49949400000011
 20
-323.10625099999987
 30
0.0
 11
-249.49949400000011
 21
-278.89573100000013
 31
0.0
  0
LINE
  8
FIX
  6
CONTINUOUS
 62
    11
 10
-265.5
 20
-316.49999800000001
 30
0.0
 11
-265.5
 21
-316.49999800000001
 31
0.0
  0
LINE
  8
DETAIL
  6
CONTINUOUS
 62
     5
 10
-180.99217300000009
 20
-321.50115299999987
 30
0.0
 11
-180.99217300000009
 21
-319.00115299999987
 31
0.0
  0
CIRCLE
  8
FIX
  6
CONTINUOUS
 62
    11
 10
-249.41131399999989
 20
301.00079599999998
 30
0.0
 40
5.4469940000000001
  0
LINE
  8
NOTE
  6
CONTINUOUS
 62
     4
 10
-227.3060540000001
 20
301.00079599999998
 30
0.0
 11
-271.51657399999999
 21
301.00079599999998
 31
0.0
  0
LINE
  8
NOTE
  6
CONTINUOUS
 62
     4
 10
-249.41131399999989
 20
323.10605600000008
 30
0.0
 11
-249.41131399999989
 21
278.89553599999999
 31
0.0
  0
LINE
  8
FIX
  6
CONTINUOUS
 62
    11
 10
-273.5
 20
315.99999800000001
 30
0.0
 11
-273.5
 21
315.99999800000001
 31
0.0
  0
LINE
  8
DETAIL
  6
CONTINUOUS
 62
     5
 10
-180.9039130000001
 20
321.50072999999998
 30
0.0
 11
-180.9039130000001
 21
319.00079799999997
 31
0.0
  0
LINE
  8
DETAIL
  6
CONTINUOUS
 62
     5
 10
243.99757
 20
-280.99997300000001
 30
0.0
 11
211.7095989999998
 21
-280.99998799999997
 31
0.0
  0
LINE
  8
DETAIL
  6
CONTINUOUS
 62
     5
 10
269.5
 20
-280.99998799999997
 30
0.0
 11
254.99757
 21
-280.99998799999997
 31
0.0
  0
LINE
  8
DETAIL
  6
CONTINUOUS
 62
     5
 10
254.94456499999981
 20
-300.99998599999998
 30
0.0
 11
254.99757
 21
-280.99998799999997
 31
0.0
  0
LINE
  8
DETAIL
  6
CONTINUOUS
 62
     5
 10
244.05057600000009
 20
-300.99998599999998
 30
0.0
 11
243.99757
 21
-280.99997200000013
 31
0.0
  0
ARC
  8
DETAIL
  6
CONTINUOUS
 62
     5
 10
249.49757
 20
-301.00070199999999
 30
0.0
 40
5.4469940000000001
 50
179.99515199999749
 51
0.0075330000021003
  0
LINE
  8
DETAIL
  6
CONTINUOUS
 62
     5
 10
235.20227799999981
 20
-321.99998799999997
 30
0.0
 11
205.20227799999981
 21
-321.99998799999997
 31
0.0
  0
LINE
  8
DETAIL
  6
CONTINUOUS
 62
     5
 10
180.9902499999998
 20
-321.49998799999997
 30
0.0
 11
269.5
 21
-321.49998799999997
 31
0.0
  0
LINE
  8
DETAIL
  6
CONTINUOUS
 62
     5
 10
235.20227799999981
 20
-321.99998799999997
 30
0.0
 11
235.20227799999981
 21
-321.49998799999997
 31
0.0
  0
LINE
  8
DETAIL
  6
CONTINUOUS
 62
     5
 10
180.9902499999998
 20
-321.49998799999997
 30
0.0
 11
180.9902499999998
 21
-318.99998799999997
 31
0.0
  0
LINE
  8
DETAIL
  6
CONTINUOUS
 62
     5
 10
181.059675
 20
321.50004899999999
 30
0.0
 11
181.059675
 21
319.00004899999999
 31
0.0
  0
LINE
  8
DETAIL
  6
CONTINUOUS
 62
     5
 10
269.5
 20
-280.99998799999997
 30
0.0
 11
269.5
 21
-321.49998799999997
 31
0.0
  0
LINE
  8
DETAIL
  6
CONTINUOUS
 62
     5
 10
205.20227799999981
 20
-321.99998799999997
 30
0.0
 11
205.20227799999981
 21
-321.49998799999997
 31
0.0
  0
LINE
  8
DETAIL
  6
CONTINUOUS
 62
     5
 10
-180.99217300000009
 20
-321.50115299999987
 30
0.0
 11
-180.99217300000009
 21
-319.00115299999987
 31
0.0
  0
LINE
  8
DETAIL
  6
CONTINUOUS
 62
     5
 10
-180.9039130000001
 20
321.50079799999997
 30
0.0
 11
-180.9039130000001
 21
319.00079799999997
 31
0.0
  0
LINE
  8
DETAIL
  6
CONTINUOUS
 62
     5
 10
181.059675
 20
321.50011699999999
 30
0.0
 11
181.059675
 21
319.00011699999999
 31
0.0
  0
LINE
  8
SIZE
  6
CONTINUOUS
 62
    30
 10
279.50243
 20
-300.99998599999998
 30
0.0
 11
428.32194100000021
 21
-300.99998599999998
 31
0.0
  0
LINE
  8
SIZE
  6
CONTINUOUS
 62
    30
 10
292.46445899999981
 20
-280.99998799999997
 30
0.0
 11
428.32194100000021
 21
-280.99998799999997
 31
0.0
  0
LINE
  8
SIZE
  6
CONTINUOUS
 62
    30
 10
398.32194100000021
 20
-302.99998599999998
 30
0.0
 11
398.32194100000021
 21
-304.99998599999998
 31
0.0
  0
LINE
  8
SIZE
  6
CONTINUOUS
 62
    30
 10
398.32194100000021
 20
-278.99998799999997
 30
0.0
 11
398.32194100000021
 21
-276.99998799999997
 31
0.0
  0
LINE
  8
SIZE
  6
CONTINUOUS
 62
    30
 10
398.32194100000021
 20
-440.62800600000003
 30
0.0
 11
398.32194100000021
 21
-300.99998599999998
 31
0.0
  0
TEXT
  8
SIZE
  6
CONTINUOUS
 62
    30
 10
378.32194100000021
 20
-420.6280054285715
 30
0.0
 40
64.0
  1
20
 50
90.0
 41
0.90000000000000002
 72
     1
 11
378.32194100000021
 21
-373.99943400000012
 31
0.0
  0
LINE
  8
SIZE
  6
CONTINUOUS
 62
    30
 10
398.32194100000021
 20
-300.99998599999998
 30
0.0
 11
398.32194100000021
 21
-280.99998799999997
 31
0.0
  0
LINE
  8
SIZE
  6
CONTINUOUS
 62
    30
 10
398.32194100000021
 20
-300.99998599999998
 30
0.0
 11
398.32194100000021
 21
-280.99998799999997
 31
0.0
  0
CIRCLE
  8
SIZE
  6
CONTINUOUS
 62
    30
 10
398.32194100000021
 20
-300.99998599999998
 30
0.0
 40
6.0
  0
CIRCLE
  8
SIZE
  6
CONTINUOUS
 62
    30
 10
398.32194100000021
 20
-280.99998799999997
 30
0.0
 40
6.0
  0
POINT
  8
DEFPOINTS
  6
CONTINUOUS
 62
    30
 10
259.50243
 20
-300.99998599999998
 30
0.0
  0
POINT
  8
DEFPOINTS
  6
CONTINUOUS
 62
    30
 10
272.46445899999981
 20
-280.99998799999997
 30
0.0
  0
POINT
  8
DEFPOINTS
  6
CONTINUOUS
 62
    30
 10
398.32194100000021
 20
-280.99998799999997
 30
0.0
  0
LINE
  8
SIZE
  6
CONTINUOUS
 62
    30
 10
289.5
 20
-280.99998799999997
 30
0.0
 11
535.47479900000008
 21
-280.99998799999997
 31
0.0
  0
LINE
  8
SIZE
  6
CONTINUOUS
 62
    30
 10
276.57791369996812
 20
-321.99998799999997
 30
0.0
 11
535.47479900000008
 21
-321.99998799999997
 31
0.0
  0
LINE
  8
SIZE
  6
CONTINUOUS
 62
    30
 10
505.47479900000008
 20
-278.99998799999997
 30
0.0
 11
505.47479900000008
 21
-276.99998799999997
 31
0.0
  0
LINE
  8
SIZE
  6
CONTINUOUS
 62
    30
 10
505.47479900000008
 20
-323.99998799999997
 30
0.0
 11
505.47479900000008
 21
-325.99998799999997
 31
0.0
  0
LINE
  8
SIZE
  6
CONTINUOUS
 62
    30
 10
505.47479900000008
 20
-435.70255999999989
 30
0.0
 11
505.47479900000008
 21
-321.99998799999997
 31
0.0
  0
TEXT
  8
SIZE
  6
CONTINUOUS
 62
    30
 10
485.47479900000008
 20
-415.70255928571419
 30
0.0
 40
64.0
  1
41
 50
90.0
 41
0.90000000000000002
 72
     1
 11
485.47479900000008
 21
-381.41684500000002
 31
0.0
  0
LINE
  8
SIZE
  6
CONTINUOUS
 62
    30
 10
505.47479900000008
 20
-280.99998799999997
 30
0.0
 11
505.47479900000008
 21
-321.99998799999997
 31
0.0
  0
LINE
  8
SIZE
  6
CONTINUOUS
 62
    30
 10
505.47479900000008
 20
-280.99998799999997
 30
0.0
 11
505.47479900000008
 21
-321.99998799999997
 31
0.0
  0
CIRCLE
  8
SIZE
  6
CONTINUOUS
 62
    30
 10
505.47479900000008
 20
-280.99998799999997
 30
0.0
 40
6.0
  0
CIRCLE
  8
SIZE
  6
CONTINUOUS
 62
    30
 10
505.47479900000008
 20
-321.99998799999997
 30
0.0
 40
6.0
  0
POINT
  8
DEFPOINTS
  6
CONTINUOUS
 62
    30
 10
269.5
 20
-280.99998799999997
 30
0.0
  0
POINT
  8
DEFPOINTS
  6
CONTINUOUS
 62
    30
 10
235.4373129999999
 20
-321.99998799999997
 30
0.0
  0
POINT
  8
DEFPOINTS
  6
CONTINUOUS
 62
    30
 10
505.47479900000008
 20
-321.99998799999997
 30
0.0
  0
LINE
  8
SIZE
  6
CONTINUOUS
 62
    30
 10
249.49757
 20
-273.51606299999997
 30
0.0
 11
249.49757
 21
-95.060214999999971
 31
0.0
  0
LINE
  8
SIZE
  6
CONTINUOUS
 62
    30
 10
269.49757
 20
-273.51606299999997
 30
0.0
 11
269.49757
 21
-95.060214999999971
 31
0.0
  0
LINE
  8
SIZE
  6
CONTINUOUS
 62
    30
 10
247.49757
 20
-125.060215
 30
0.0
 11
245.49757
 21
-125.060215
 31
0.0
  0
LINE
  8
SIZE
  6
CONTINUOUS
 62
    30
 10
271.49757
 20
-125.060215
 30
0.0
 11
273.49757
 21
-125.060215
 31
0.0
  0
LINE
  8
SIZE
  6
CONTINUOUS
 62
    30
 10
422.4759939999999
 20
-125.060215
 30
0.0
 11
269.49757
 21
-125.060215
 31
0.0
  0
TEXT
  8
SIZE
  6
CONTINUOUS
 62
    30
 10
309.21885057142839
 20
-105.060215
 30
0.0
 40
64.0
  1
20
 41
0.90000000000000002
 72
     1
 11
355.84742199999982
 21
-105.060215
 31
0.0
  0
LINE
  8
SIZE
  6
CONTINUOUS
 62
    30
 10
249.49757
 20
-125.060215
 30
0.0
 11
269.49757
 21
-125.060215
 31
0.0
  0
LINE
  8
SIZE
  6
CONTINUOUS
 62
    30
 10
249.49757
 20
-125.060215
 30
0.0
 11
269.49757
 21
-125.060215
 31
0.0
  0
CIRCLE
  8
SIZE
  6
CONTINUOUS
 62
    30
 10
249.49757
 20
-125.060215
 30
0.0
 40
6.0
  0
CIRCLE
  8
SIZE
  6
CONTINUOUS
 62
    30
 10
269.49757
 20
-125.060215
 30
0.0
 40
6.0
  0
POINT
  8
DEFPOINTS
  6
CONTINUOUS
 62
    30
 10
249.49757
 20
-293.51606299999997
 30
0.0
  0
POINT
  8
DEFPOINTS
  6
CONTINUOUS
 62
    30
 10
269.49757
 20
-293.51606299999997
 30
0.0
  0
POINT
  8
DEFPOINTS
  6
CONTINUOUS
 62
    30
 10
269.49757
 20
-125.060215
 30
0.0
  0
LINE
  8
SIZE
  6
CONTINUOUS
 62
    30
 10
243.99757
 20
-260.99997300000001
 30
0.0
 11
243.99757
 21
-211.35568799999999
 31
0.0
  0
LINE
  8
SIZE
  6
CONTINUOUS
 62
    30
 10
254.99757
 20
-260.99998799999997
 30
0.0
 11
254.99757
 21
-211.35568799999999
 31
0.0
  0
LINE
  8
SIZE
  6
CONTINUOUS
 62
    30
 10
241.99757
 20
-241.35568799999999
 30
0.0
 11
239.99757
 21
-241.35568799999999
 31
0.0
  0
LINE
  8
SIZE
  6
CONTINUOUS
 62
    30
 10
256.99757
 20
-241.35568799999999
 30
0.0
 11
258.99757
 21
-241.35568799999999
 31
0.0
  0
LINE
  8
SIZE
  6
CONTINUOUS
 62
    30
 10
411.5012340000003
 20
-241.35568799999999
 30
0.0
 11
254.99757
 21
-241.35568799999999
 31
0.0
  0
TEXT
  8
SIZE
  6
CONTINUOUS
 62
    30
 10
333.9012340000001
 20
-221.35568799999999
 30
0.0
 40
64.0
  1
11
 41
0.90000000000000002
 72
     1
 11
362.70123400000011
 21
-221.35568799999999
 31
0.0
  0
LINE
  8
SIZE
  6
CONTINUOUS
 62
    30
 10
243.99757
 20
-241.35568799999999
 30
0.0
 11
254.99757
 21
-241.35568799999999
 31
0.0
  0
LINE
  8
SIZE
  6
CONTINUOUS
 62
    30
 10
243.99757
 20
-241.35568799999999
 30
0.0
 11
254.99757
 21
-241.35568799999999
 31
0.0
  0
CIRCLE
  8
SIZE
  6
CONTINUOUS
 62
    30
 10
243.99757
 20
-241.35568799999999
 30
0.0
 40
6.0
  0
CIRCLE
  8
SIZE
  6
CONTINUOUS
 62
    30
 10
254.99757
 20
-241.35568799999999
 30
0.0
 40
6.0
  0
POINT
  8
DEFPOINTS
  6
CONTINUOUS
 62
    30
 10
243.99757
 20
-280.99997300000001
 30
0.0
  0
POINT
  8
DEFPOINTS
  6
CONTINUOUS
 62
    30
 10
254.99757
 20
-280.99998799999997
 30
0.0
  0
POINT
  8
DEFPOINTS
  6
CONTINUOUS
 62
    30
 10
254.99757
 20
-241.35568799999999
 30
0.0
  0
LINE
  8
DETAIL
  6
CONTINUOUS
 62
     5
 10
-243.91123399999989
 20
281.00071500000013
 30
0.0
 11
-211.41123399999989
 21
281.00072999999998
 31
0.0
  0
LINE
  8
DETAIL
  6
CONTINUOUS
 62
     5
 10
-180.9039130000001
 20
321.50072999999998
 30
0.0
 11
-269.41123399999992
 21
321.50072999999998
 31
0.0
  0
LINE
  8
DETAIL
  6
CONTINUOUS
 62
     5
 10
-234.9039130000001
 20
322.00072999999998
 30
0.0
 11
-204.9039130000001
 21
322.00072999999998
 31
0.0
  0
LINE
  8
DETAIL
  6
CONTINUOUS
 62
     5
 10
-243.96423899999991
 20
301.00072999999998
 30
0.0
 11
-243.91123399999989
 21
281.00071400000002
 31
0.0
  0
LINE
  8
DETAIL
  6
CONTINUOUS
 62
     5
 10
-254.85822800000011
 20
301.00072999999998
 30
0.0
 11
-254.91123399999989
 21
281.00072999999998
 31
0.0
  0
LINE
  8
DETAIL
  6
CONTINUOUS
 62
     5
 10
-269.41123399999992
 20
281.00072999999998
 30
0.0
 11
-254.91123399999989
 21
281.00072999999998
 31
0.0
  0
LINE
  8
DETAIL
  6
CONTINUOUS
 62
     5
 10
-269.41123399999992
 20
281.00072999999998
 30
0.0
 11
-269.41123399999992
 21
321.50072999999998
 31
0.0
  0
LINE
  8
DETAIL
  6
CONTINUOUS
 62
     5
 10
-234.9039130000001
 20
322.00072999999998
 30
0.0
 11
-234.9039130000001
 21
321.50072999999998
 31
0.0
  0
ARC
  8
DETAIL
  6
CONTINUOUS
 62
     5
 10
-249.41123399999989
 20
301.00079599999998
 30
0.0
 40
5.4469949999999994
 50
359.99900099999837
 51
180.0026830000013
  0
LINE
  8
DETAIL
  6
CONTINUOUS
 62
     5
 10
-204.9039130000001
 20
322.00072999999998
 30
0.0
 11
-204.9039130000001
 21
321.50072999999998
 31
0.0
  0
LINE
  8
DETAIL
  6
CONTINUOUS
 62
     5
 10
-180.9039130000001
 20
321.50079799999997
 30
0.0
 11
-180.9039130000001
 21
319.00079799999997
 31
0.0
  0
LINE
  8
DETAIL
  6
CONTINUOUS
 62
     5
 10
-243.999493
 20
-281.00113700000003
 30
0.0
 11
-211.49668
 21
-281.00115199999999
 31
0.0
  0
LINE
  8
DETAIL
  6
CONTINUOUS
 62
     5
 10
-180.99217300000009
 20
-321.50115299999987
 30
0.0
 11
-269.5
 21
-321.50115299999987
 31
0.0
  0
LINE
  8
DETAIL
  6
CONTINUOUS
 62
     5
 10
-234.99217300000009
 20
-322.00115299999987
 30
0.0
 11
-204.99217300000009
 21
-322.00115299999987
 31
0.0
  0
LINE
  8
DETAIL
  6
CONTINUOUS
 62
     5
 10
-244.0530060000001
 20
-301.000991
 30
0.0
 11
-243.999493
 21
-281.00113700000003
 31
0.0
  0
LINE
  8
DETAIL
  6
CONTINUOUS
 62
     5
 10
-254.9469939999999
 20
-301.000991
 30
0.0
 11
-254.999493
 21
-281.00115199999999
 31
0.0
  0
LINE
  8
DETAIL
  6
CONTINUOUS
 62
     5
 10
-269.5
 20
-281.00115299999987
 30
0.0
 11
-254.999493
 21
-281.00115199999999
 31
0.0
  0
LINE
  8
DETAIL
  6
CONTINUOUS
 62
     5
 10
-269.5
 20
-281.00115299999987
 30
0.0
 11
-269.5
 21
-321.50115299999987
 31
0.0
  0
LINE
  8
DETAIL
  6
CONTINUOUS
 62
     5
 10
-234.99217300000009
 20
-322.00115299999987
 30
0.0
 11
-234.99217300000009
 21
-321.50115299999987
 31
0.0
  0
ARC
  8
DETAIL
  6
CONTINUOUS
 62
     5
 10
-249.5
 20
-301.0021549999999
 30
0.0
 40
5.4469940000000001
 50
179.98776499999789
 51
0.0105650000027944
  0
LINE
  8
DETAIL
  6
CONTINUOUS
 62
     5
 10
-204.99217300000009
 20
-322.00115299999987
 30
0.0
 11
-204.99217300000009
 21
-321.50115299999987
 31
0.0
  0
LINE
  8
DETAIL
  6
CONTINUOUS
 62
     5
 10
-180.99217300000009
 20
-321.50115299999987
 30
0.0
 11
-180.99217300000009
 21
-319.00115299999987
 31
0.0
  0
LINE
  8
DETAIL
  6
CONTINUOUS
 62
     5
 10
244.06699500000011
 20
281.00010200000003
 30
0.0
 11
211.56699500000011
 21
281.00011699999999
 31
0.0
  0
LINE
  8
DETAIL
  6
CONTINUOUS
 62
     5
 10
181.059675
 20
321.50011699999999
 30
0.0
 11
269.56699500000008
 21
321.50011699999999
 31
0.0
  0
LINE
  8
DETAIL
  6
CONTINUOUS
 62
     5
 10
235.059675
 20
322.00011699999999
 30
0.0
 11
205.059675
 21
322.00011699999999
 31
0.0
  0
LINE
  8
DETAIL
  6
CONTINUOUS
 62
     5
 10
244.1200010000002
 20
301.00011699999999
 30
0.0
 11
244.06699500000011
 21
281.00010200000003
 31
0.0
  0
LINE
  8
DETAIL
  6
CONTINUOUS
 62
     5
 10
255.01398999999989
 20
301.00011699999999
 30
0.0
 11
255.06699500000011
 21
281.00011699999999
 31
0.0
  0
LINE
  8
DETAIL
  6
CONTINUOUS
 62
     5
 10
269.56699500000008
 20
281.00011699999999
 30
0.0
 11
255.06699500000011
 21
281.00011699999999
 31
0.0
  0
LINE
  8
DETAIL
  6
CONTINUOUS
 62
     5
 10
269.56699500000008
 20
281.00011699999999
 30
0.0
 11
269.56699500000008
 21
321.50011699999999
 31
0.0
  0
LINE
  8
DETAIL
  6
CONTINUOUS
 62
     5
 10
235.059675
 20
322.00011699999999
 30
0.0
 11
235.059675
 21
321.50011699999999
 31
0.0
  0
ARC
  8
DETAIL
  6
CONTINUOUS
 62
     5
 10
249.56699599999999
 20
301.00011599999988
 30
0.0
 40
5.4469949999999994
 50
359.99731699999859
 51
180.0009990000016
  0
LINE
  8
DETAIL
  6
CONTINUOUS
 62
     5
 10
205.059675
 20
322.00011699999999
 30
0.0
 11
205.059675
 21
321.50011699999999
 31
0.0
  0
LINE
  8
DETAIL
  6
CONTINUOUS
 62
     5
 10
181.059675
 20
321.50011699999999
 30
0.0
 11
181.059675
 21
319.00011699999999
 31
0.0
  0
LINE
  8
SIZE
  6
CONTINUOUS
 62
    30
 10
-241.49440799999999
 20
318.99998799999997
 30
0.0
 11
-501.9004789999999
 21
318.99998799999997
 31
0.0
  0
LINE
  8
SIZE
  6
CONTINUOUS
 62
    30
 10
-241.49440799999999
 20
-318.99998799999997
 30
0.0
 11
-501.9004789999999
 21
-318.99998799999997
 31
0.0
  0
LINE
  8
SIZE
  6
CONTINUOUS
 62
    30
 10
-471.9004789999999
 20
316.99998799999997
 30
0.0
 11
-471.9004789999999
 21
-316.99998799999997
 31
0.0
  0
CIRCLE
  8
SIZE
  6
CONTINUOUS
 62
    30
 10
-471.9004789999999
 20
318.99998799999997
 30
0.0
 40
6.0
  0
CIRCLE
  8
SIZE
  6
CONTINUOUS
 62
    30
 10
-471.9004789999999
 20
-318.99998799999997
 30
0.0
 40
6.0
  0
TEXT
  8
SIZE
  6
CONTINUOUS
 62
    30
 10
-491.9004789999999
 20
-74.05714285714285
 30
0.0
 40
64.0
  1
638
 50
90.0
 41
0.90000000000000002
 72
     1
 11
-491.9004789999999
 21
0.0
 31
0.0
  0
POINT
  8
DEFPOINTS
  6
CONTINUOUS
 62
    30
 10
-221.49440799999999
 20
318.99998799999997
 30
0.0
  0
POINT
  8
DEFPOINTS
  6
CONTINUOUS
 62
    30
 10
-221.49440799999999
 20
-318.99998799999997
 30
0.0
  0
POINT
  8
DEFPOINTS
  6
CONTINUOUS
 62
    30
 10
-471.9004789999999
 20
-318.99998799999997
 30
0.0
  0
LINE
  8
SIZE
  6
CONTINUOUS
 62
    30
 10
-102.205131172243
 20
339.00322751722729
 30
0.0
 11
-102.205131172243
 21
727.63834051722733
 31
0.0
  0
LINE
  8
SIZE
  6
CONTINUOUS
 62
    30
 10
105.794868827757
 20
339.00328251722732
 30
0.0
 11
105.794868827757
 21
727.63834051722733
 31
0.0
  0
LINE
  8
SIZE
  6
CONTINUOUS
 62
    30
 10
-104.205131172243
 20
697.63834051722733
 30
0.0
 11
-106.205131172243
 21
697.63834051722733
 31
0.0
  0
LINE
  8
SIZE
  6
CONTINUOUS
 62
    30
 10
107.794868827757
 20
697.63834051722733
 30
0.0
 11
109.794868827757
 21
697.63834051722733
 31
0.0
  0
LINE
  8
SIZE
  6
CONTINUOUS
 62
    30
 10
-369.11542235445222
 20
697.63834051722733
 30
0.0
 11
105.794868827757
 21
697.63834051722733
 31
0.0
  0
CIRCLE
  8
SIZE
  6
CONTINUOUS
 62
    30
 10
-102.205131172243
 20
697.63834051722733
 30
0.0
 40
6.0
  0
CIRCLE
  8
SIZE
  6
CONTINUOUS
 62
    30
 10
105.794868827757
 20
697.63834051722733
 30
0.0
 40
6.0
  0
TEXT
  8
SIZE
  6
CONTINUOUS
 62
    30
 10
-367.56766611177483
 20
717.63834051722733
 30
0.0
 40
64.0
  1
φ208
 41
0.90000000000000002
 72
     1
 11
-253.1905232546319
 21
717.63834051722733
 31
0.0
  0
POINT
  8
DEFPOINTS
  6
CONTINUOUS
 62
    30
 10
-103.9887669999998
 20
319.00002100000012
 30
0.0
  0
POINT
  8
DEFPOINTS
  6
CONTINUOUS
 62
    30
 10
104.0112330000002
 20
319.00007599999998
 30
0.0
  0
POINT
  8
DEFPOINTS
  6
CONTINUOUS
 62
    30
 10
105.794868827757
 20
697.63834051722733
 30
0.0
  0
LINE
  8
SIZE
  6
CONTINUOUS
 62
    30
 10
97.79469182775712
 20
424.00314051722722
 30
0.0
 11
97.79469182775712
 21
601.5274805172271
 31
0.0
  0
LINE
  8
SIZE
  6
CONTINUOUS
 62
    30
 10
-94.20530817224288
 20
424.00319451722731
 30
0.0
 11
-94.20530817224288
 21
601.5274805172271
 31
0.0
  0
LINE
  8
SIZE
  6
CONTINUOUS
 62
    30
 10
99.79469182775712
 20
571.5274805172271
 30
0.0
 11
101.79469182775711
 21
571.5274805172271
 31
0.0
  0
LINE
  8
SIZE
  6
CONTINUOUS
 62
    30
 10
-96.20530817224288
 20
571.5274805172271
 30
0.0
 11
-98.20530817224288
 21
571.5274805172271
 31
0.0
  0
LINE
  8
SIZE
  6
CONTINUOUS
 62
    30
 10
97.79469182775712
 20
571.5274805172271
 30
0.0
 11
-355.87599017495592
 21
571.5274805172271
 31
0.0
  0
CIRCLE
  8
SIZE
  6
CONTINUOUS
 62
    30
 10
97.79469182775712
 20
571.5274805172271
 30
0.0
 40
6.0
  0
CIRCLE
  8
SIZE
  6
CONTINUOUS
 62
    30
 10
-94.20530817224288
 20
571.5274805172271
 30
0.0
 40
6.0
  0
TEXT
  8
SIZE
  6
CONTINUOUS
 62
    30
 10
-365.25791067530281
 20
591.5274805172271
 30
0.0
 40
64.0
  1
φ192
 41
0.90000000000000002
 72
     1
 11
-256.3664821038742
 21
591.5274805172271
 31
0.0
  0
POINT
  8
DEFPOINTS
  6
CONTINUOUS
 62
    30
 10
93.511056000000281
 20
403.99993399999988
 30
0.0
  0
POINT
  8
DEFPOINTS
  6
CONTINUOUS
 62
    30
 10
97.947714651699158
 20
404.0735093574574
 30
0.0
 50
180.042888769526
  0
POINT
  8
DEFPOINTS
  6
CONTINUOUS
 62
    30
 10
-94.20530817224288
 20
571.5274805172271
 30
0.0
  0
LINE
  8
SIZE
  6
CONTINUOUS
 62
    30
 10
-273.46946284111982
 20
321.99995600000011
 30
0.0
 11
-658.73724500000003
 21
321.99995600000011
 31
0.0
  0
LINE
  8
SIZE
  6
CONTINUOUS
 62
    30
 10
-271.13002065949883
 20
-322.00002399999988
 30
0.0
 11
-658.73724500000003
 21
-322.00002399999988
 31
0.0
  0
LINE
  8
SIZE
  6
CONTINUOUS
 62
    30
 10
-628.73724500000003
 20
319.99995600000011
 30
0.0
 11
-628.73724500000003
 21
-320.00002399999988
 31
0.0
  0
CIRCLE
  8
SIZE
  6
CONTINUOUS
 62
    30
 10
-628.73724500000003
 20
321.99995600000011
 30
0.0
 40
6.0
  0
CIRCLE
  8
SIZE
  6
CONTINUOUS
 62
    30
 10
-628.73724500000003
 20
-322.00002399999988
 30
0.0
 40
6.0
  0
TEXT
  8
SIZE
  6
CONTINUOUS
 62
    30
 10
-648.73724500000003
 20
-75.428605428571444
 30
0.0
 40
64.0
  1
644
 50
90.0
 41
0.90000000000000002
 72
     1
 11
-648.73724500000003
 21
-0.0000340000000278
 31
0.0
  0
POINT
  8
DEFPOINTS
  6
CONTINUOUS
 62
    30
 10
-238.33538300000009
 20
321.99995600000011
 30
0.0
  0
POINT
  8
DEFPOINTS
  6
CONTINUOUS
 62
    30
 10
-238.33538300000009
 20
-322.00002399999988
 30
0.0
  0
POINT
  8
DEFPOINTS
  6
CONTINUOUS
 62
    30
 10
-628.73724500000003
 20
-322.00002399999988
 30
0.0
  0
LINE
  8
SIZE
  6
CONTINUOUS
 62
    30
 10
-279.5
 20
301.49999100000008
 30
0.0
 11
-373.49613700000009
 21
301.49999100000008
 31
0.0
  0
LINE
  8
SIZE
  6
CONTINUOUS
 62
    30
 10
-279.5
 20
-301.49998599999998
 30
0.0
 11
-373.49613700000009
 21
-301.49998599999998
 31
0.0
  0
LINE
  8
SIZE
  6
CONTINUOUS
 62
    30
 10
-343.49613700000009
 20
299.49999100000008
 30
0.0
 11
-343.49613700000009
 21
-299.49998599999998
 31
0.0
  0
CIRCLE
  8
SIZE
  6
CONTINUOUS
 62
    30
 10
-343.49613700000009
 20
301.49999100000008
 30
0.0
 40
6.0
  0
CIRCLE
  8
SIZE
  6
CONTINUOUS
 62
    30
 10
-343.49613700000009
 20
-301.49998599999998
 30
0.0
 40
6.0
  0
TEXT
  8
SIZE
  6
CONTINUOUS
 62
    30
 10
-363.49613700000009
 20
-74.057140857142841
 30
0.0
 40
64.0
  1
603
 50
90.0
 41
0.90000000000000002
 72
     1
 11
-363.49613700000009
 21
0.000001999999995
 31
0.0
  0
POINT
  8
DEFPOINTS
  6
CONTINUOUS
 62
    30
 10
-259.5
 20
301.49999100000008
 30
0.0
  0
POINT
  8
DEFPOINTS
  6
CONTINUOUS
 62
    30
 10
-259.5
 20
-301.49998599999998
 30
0.0
  0
POINT
  8
DEFPOINTS
  6
CONTINUOUS
 62
    30
 10
-343.49613700000009
 20
-301.49998599999998
 30
0.0
  0
LINE
  8
DETAIL
  6
CONTINUOUS
 62
     5
 10
97.947715375484208
 20
404.07387835810249
 30
0.0
 11
-94.052230833081936
 21
403.93015672537558
 31
0.0
  0
LINE
  8
SIZE
  6
CONTINUOUS
 62
    30
 10
-211.39119000000011
 20
-338.99998799999997
 30
0.0
 11
-211.39119000000011
 21
-687.059168
 31
0.0
  0
LINE
  8
SIZE
  6
CONTINUOUS
 62
    30
 10
211.60880999999969
 20
-338.99998799999997
 30
0.0
 11
211.60880999999969
 21
-687.059168
 31
0.0
  0
LINE
  8
SIZE
  6
CONTINUOUS
 62
    30
 10
-209.39119000000011
 20
-657.059168
 30
0.0
 11
209.60880999999969
 21
-657.059168
 31
0.0
  0
CIRCLE
  8
SIZE
  6
CONTINUOUS
 62
    30
 10
-211.39119000000011
 20
-657.059168
 30
0.0
 40
6.0
  0
CIRCLE
  8
SIZE
  6
CONTINUOUS
 62
    30
 10
211.60880999999969
 20
-657.059168
 30
0.0
 40
6.0
  0
TEXT
  8
SIZE
  6
CONTINUOUS
 62
    30
 10
-73.948332857143114
 20
-637.059168
 30
0.0
 40
64.0
  1
423
 41
0.90000000000000002
 72
     1
 11
0.1088099999997212
 21
-637.059168
 31
0.0
  0
POINT
  8
DEFPOINTS
  6
CONTINUOUS
 62
    30
 10
-211.39119000000011
 20
-318.99998799999997
 30
0.0
  0
POINT
  8
DEFPOINTS
  6
CONTINUOUS
 62
    30
 10
211.60880999999969
 20
-318.99998799999997
 30
0.0
  0
POINT
  8
DEFPOINTS
  6
CONTINUOUS
 62
    30
 10
211.60880999999969
 20
-657.059168
 30
0.0
  0
LINE
  8
SIZE
  6
CONTINUOUS
 62
    30
 10
-249.49949400000011
 20
-341.000991
 30
0.0
 11
-249.49949400000011
 21
-789.14224000000002
 31
0.0
  0
LINE
  8
SIZE
  6
CONTINUOUS
 62
    30
 10
249.50050599999989
 20
-335.01275983217511
 30
0.0
 11
249.50050599999989
 21
-789.14224000000002
 31
0.0
  0
LINE
  8
SIZE
  6
CONTINUOUS
 62
    30
 10
-247.49949400000011
 20
-759.14224000000002
 30
0.0
 11
247.50050599999989
 21
-759.14224000000002
 31
0.0
  0
CIRCLE
  8
SIZE
  6
CONTINUOUS
 62
    30
 10
-249.49949400000011
 20
-759.14224000000002
 30
0.0
 40
6.0
  0
CIRCLE
  8
SIZE
  6
CONTINUOUS
 62
    30
 10
249.50050599999989
 20
-759.14224000000002
 30
0.0
 40
6.0
  0
TEXT
  8
SIZE
  6
CONTINUOUS
 62
    30
 10
-72.685208285714424
 20
-739.14224000000002
 30
0.0
 40
64.0
  1
499
 41
0.90000000000000002
 72
     1
 11
0.0005059999998593
 21
-739.14224000000002
 31
0.0
  0
POINT
  8
DEFPOINTS
  6
CONTINUOUS
 62
    30
 10
-249.49949400000011
 20
-321.000991
 30
0.0
  0
POINT
  8
DEFPOINTS
  6
CONTINUOUS
 62
    30
 10
249.50050599999989
 20
-301.00024100000002
 30
0.0
  0
POINT
  8
DEFPOINTS
  6
CONTINUOUS
 62
    30
 10
249.50050599999989
 20
-759.14224000000002
 30
0.0
  0
LINE
  8
SIZE
  6
CONTINUOUS
 62
    30
 10
269.5
 20
-341.49998799999997
 30
0.0
 11
269.5
 21
-916.05843000000004
 31
0.0
  0
LINE
  8
SIZE
  6
CONTINUOUS
 62
    30
 10
-269.5
 20
-341.50115299999987
 30
0.0
 11
-269.5
 21
-916.05843000000004
 31
0.0
  0
LINE
  8
SIZE
  6
CONTINUOUS
 62
    30
 10
267.5
 20
-886.05843000000004
 30
0.0
 11
-267.5
 21
-886.05843000000004
 31
0.0
  0
CIRCLE
  8
SIZE
  6
CONTINUOUS
 62
    30
 10
269.5
 20
-886.05843000000004
 30
0.0
 40
6.0
  0
CIRCLE
  8
SIZE
  6
CONTINUOUS
 62
    30
 10
-269.5
 20
-886.05843000000004
 30
0.0
 40
6.0
  0
TEXT
  8
SIZE
  6
CONTINUOUS
 62
    30
 10
-72.685714285714283
 20
-866.05843000000004
 30
0.0
 40
64.0
  1
539
 41
0.90000000000000002
 72
     1
 11
0.0
 21
-866.05843000000004
 31
0.0
  0
POINT
  8
DEFPOINTS
  6
CONTINUOUS
 62
    30
 10
269.5
 20
-321.49998799999997
 30
0.0
  0
POINT
  8
DEFPOINTS
  6
CONTINUOUS
 62
    30
 10
-269.5
 20
-321.50115299999987
 30
0.0
  0
POINT
  8
DEFPOINTS
  6
CONTINUOUS
 62
    30
 10
-269.5
 20
-886.05843000000004
 30
0.0
  0
LINE
  8
DETAIL
  6
CONTINUOUS
 62
     5
 10
-93.77984264278075
 20
-400.33272070367599
 30
0.0
 11
98.891691133647555
 21
-400.52081344692323
 31
0.0
  0
LINE
  8
DETAIL
  6
CONTINUOUS
 62
     5
 10
-93.425292068003401
 20
-404.06991235180828
 30
0.0
 11
98.574654140562743
 21
-403.92619071908149
 31
0.0
  0
LINE
  8
DETAIL
  6
CONTINUOUS
 62
     5
 10
106.4887391657105
 20
-318.92027581381382
 30
0.0
 11
98.574654140562743
 21
-403.92619071908149
 31
0.0
  0
LINE
  8
DETAIL
  6
CONTINUOUS
 62
     5
 10
-93.425292068003401
 20
-404.06991235180828
 30
0.0
 11
-101.4887405665292
 21
-319.07595743533398
 31
0.0
  0
LINE
  8
DETAIL
  6
CONTINUOUS
 62
     5
 10
-101.25445236593011
 20
-321.23497766374061
 30
0.0
 11
106.2574495246009
 21
-320.76707746312093
 31
0.0
  0
LINE
  8
DETAIL
  6
CONTINUOUS
 62
     5
 10
103.988769
 20
-318.99998799999997
 30
0.0
 11
-103.988769
 21
-318.99998799999997
 31
0.0
  0
LINE
  8
SIZE
  6
CONTINUOUS
 62
    30
 10
-231.39119000000011
 20
-318.99998799999997
 30
0.0
 11
-501.9004789999999
 21
-318.99998799999997
 31
0.0
  0
LINE
  8
SIZE
  6
CONTINUOUS
 62
    30
 10
-105.0061620000001
 20
-403.999955
 30
0.0
 11
-501.9004789999999
 21
-403.999955
 31
0.0
  0
LINE
  8
SIZE
  6
CONTINUOUS
 62
    30
 10
-471.9004789999999
 20
-320.99998799999997
 30
0.0
 11
-471.9004789999999
 21
-401.999955
 31
0.0
  0
LINE
  8
SIZE
  6
CONTINUOUS
 62
    30
 10
-471.9004789999999
 20
-556.76402199999995
 30
0.0
 11
-471.9004789999999
 21
-403.999955
 31
0.0
  0
TEXT
  8
SIZE
  6
CONTINUOUS
 62
    30
 10
-491.9004789999999
 20
-536.76402242857137
 30
0.0
 40
64.0
  1
85
 50
90.0
 41
0.90000000000000002
 72
     1
 11
-491.9004789999999
 21
-490.13545099999999
 31
0.0
  0
CIRCLE
  8
SIZE
  6
CONTINUOUS
 62
    30
 10
-471.9004789999999
 20
-318.99998799999997
 30
0.0
 40
6.0
  0
CIRCLE
  8
SIZE
  6
CONTINUOUS
 62
    30
 10
-471.9004789999999
 20
-403.999955
 30
0.0
 40
6.0
  0
POINT
  8
DEFPOINTS
  6
CONTINUOUS
 62
    30
 10
-211.39119000000011
 20
-318.99998799999997
 30
0.0
  0
POINT
  8
DEFPOINTS
  6
CONTINUOUS
 62
    30
 10
-87.506162000000131
 20
-403.999955
 30
0.0
  0
POINT
  8
DEFPOINTS
  6
CONTINUOUS
 62
    30
 10
-471.9004789999999
 20
-403.999955
 30
0.0
  0
LINE
  8
OUTLINE
  6
CONTINUOUS
 62
     3
 10
103.988769
 20
-318.99998799999997
 30
0.0
 11
-103.988769
 21
-318.99998799999997
 31
0.0
  0
LINE
  8
OUTLINE
  6
CONTINUOUS
 62
     3
 10
-103.988769
 20
319.00039099999998
 30
0.0
 11
103.988769
 21
319.00039099999998
 31
0.0
  0
LINE
  8
OUTLINE
  6
CONTINUOUS
 62
     3
 10
211.56215100000011
 20
319.00005400000009
 30
0.0
 11
-211.411237
 21
319.0007270000001
 31
0.0
  0
LINE
  8
OUTLINE
  6
CONTINUOUS
 62
     3
 10
211.60880999999969
 20
-318.99998799999997
 30
0.0
 11
-211.39119000000011
 21
-318.99998799999997
 31
0.0
  0
LINE
  8
OUTLINE
  6
CONTINUOUS
 62
     3
 10
-211.411237
 20
319.00072499999987
 30
0.0
 11
-211.411237
 21
-44.888481999999946
 31
0.0
  0
LINE
  8
OUTLINE
  6
CONTINUOUS
 62
     3
 10
-211.39119000000011
 20
-318.99998799999997
 30
0.0
 11
-211.41780199999991
 21
44.88915499999996
 31
0.0
  0
LINE
  8
OUTLINE
  6
CONTINUOUS
 62
     3
 10
211.56215100000011
 20
319.00005400000009
 30
0.0
 11
211.60880999999969
 21
-46.999578000000042
 31
0.0
  0
LINE
  8
OUTLINE
  6
CONTINUOUS
 62
     3
 10
211.60880999999969
 20
-318.99998799999997
 30
0.0
 11
211.60880999999969
 21
61.999944000000028
 31
0.0
  0
LINE
  8
SIZE
  6
CONTINUOUS
 62
    30
 10
2.5897625254703578
 20
-438.91419476401478
 30
0.0
 11
2.6731265314169832
 21
-550.28145628061043
 31
0.0
  0
LINE
  8
SIZE
  6
CONTINUOUS
 62
    30
 10
-249.48239191314539
 20
-343.29225789280412
 30
0.0
 11
-249.32730886718409
 21
-550.47009130233084
 31
0.0
  0
LINE
  8
SIZE
  6
CONTINUOUS
 62
    30
 10
-9.3418411100274472
 20
-530.29044448593015
 30
0.0
 11
-237.3422832325578
 21
-530.46111430355973
 31
0.0
  0
CIRCLE
  8
SIZE
  6
CONTINUOUS
 62
    30
 10
2.6581555280079372
 20
-530.28146188388473
 30
0.0
 40
6.0
  0
LINE
  8
SIZE
  6
CONTINUOUS
 62
    30
 10
2.6581555280079372
 20
-530.28146188388473
 30
0.0
 11
-9.3418411100274454
 21
-530.29044448593015
 31
0.0
  0
CIRCLE
  8
SIZE
  6
CONTINUOUS
 62
    30
 10
-249.34227987059319
 20
-530.47009690560515
 30
0.0
 40
6.0
  0
LINE
  8
SIZE
  6
CONTINUOUS
 62
    30
 10
-249.34227987059319
 20
-530.47009690560515
 30
0.0
 11
-237.3422832325578
 21
-530.46111430355973
 31
0.0
  0
TEXT
  8
SIZE
  6
CONTINUOUS
 62
    30
 10
-203.71275341383884
 20
-505.43593390213414
 30
0.0
 40
64.0
  1
252
 50
0.042888769526030046
 41
0.90000000000000002
 51
0.0
  7
STANDARD
 71
     0
 72
     1
 11
-123.36077592555391
 21
-505.37578639883793
 31
0.0
210
0.0
220
0.0
230
1.0
  0
POINT
  8
DEFPOINTS
  6
CONTINUOUS
 62
    30
 10
2.5747915220613118
 20
-418.91420036728931
 30
0.0
  0
POINT
  8
DEFPOINTS
  6
CONTINUOUS
 62
    30
 10
-249.49736291655449
 20
-323.29226349607848
 30
0.0
  0
POINT
  8
DEFPOINTS
  6
CONTINUOUS
 62
    30
 10
-249.34227987059319
 20
-530.47009690560515
 30
0.0
  0
LINE
  8
NOTE
  6
DASHDOT
 62
     4
 10
2.5747915220612461
 20
-418.91420036728931
 30
0.0
 11
2.4872429991207921
 21
-301.95677804830132
 31
0.0
  0
LINE
  8
NOTE
  6
DASHDOT
 62
     4
 10
2.0316542189926521
 20
306.67130123387341
 30
0.0
 11
1.9390737514804359
 21
430.35097592901599
 31
0.0
  0
TEXT
  8
NOTE
  6
CONTINUOUS
 62
     4
 10
375.9460058030034
 20
-679.78909162798334
 30
0.0
 40
70.73684200000001
  1
ダクト中心軸
 50
0.042888769526010499
 41
0.90000000000000002
  0
LINE
  8
NOTE
  6
CONTINUOUS
 62
     4
 10
369.46404618363852
 20
-706.35471111247034
 30
0.0
 11
833.3101492307535
 21
-706.00749893569446
 31
0.0
  0
LINE
  8
NOTE
  6
CONTINUOUS
 62
     4
 10
35.660952575737909
 20
-522.61437598532302
 30
0.0
 11
2.6304192107236819
 21
-493.22808776373188
 31
0.0
  0
LINE
  8
NOTE
  6
CONTINUOUS
 62
     4
 10
2.6304192107236819
 20
-493.22808776373188
 30
0.0
 11
45.928844892681198
 21
-502.16209322279161
 31
0.0
  0
LINE
  8
NOTE
  6
CONTINUOUS
 62
     4
 10
2.6304192107236819
 20
-493.22808776373188
 30
0.0
 11
369.46404618363852
 21
-706.35471111247034
 31
0.0
  0
ENDSEC
  0
EOF
