  0
SECTION
  2
HEADER
  9
$ACADVER
  1
AC1009
  9
$DWGCODEPAGE
  3
dos932
  9
$INSBASE
 10
0.0
 20
0.0
 30
0.0
  9
$EXTMIN
 10
-549.44635500000004
 20
-415.22531937244457
 30
0.0
  9
$EXTMAX
 10
944.78171109724735
 20
576.86404763696999
 30
0.0
  9
$LIMMIN
 10
-2970.0
 20
-2100.0
  9
$LIMMAX
 10
2970.0
 20
2100.0
  9
$ORTHOMODE
 70
     1
  9
$REGENMODE
 70
     1
  9
$FILLMODE
 70
     1
  9
$QTEXTMODE
 70
     0
  9
$MIRRTEXT
 70
     0
  9
$LTSCALE
 40
20.0
  9
$ATTMODE
 70
     1
  9
$TEXTSIZE
 40
64.0
  9
$TRACEWID
 40
0.05
  9
$TEXTSTYLE
  7
STANDARD
  9
$CLAYER
  8
SIZE
  9
$CELTYPE
  6
CONTINUOUS
  9
$CECOLOR
 62
     7
  9
$DIMSCALE
 40
1.0
  9
$DIMASZ
 40
12.0
  9
$DIMEXO
 40
20.0
  9
$DIMDLI
 40
200.0
  9
$DIMRND
 40
0.0
  9
$DIMDLE
 40
0.0
  9
$DIMEXE
 40
20.0
  9
$DIMTP
 40
0.0
  9
$DIMTM
 40
0.0
  9
$DIMTXT
 40
64.0
  9
$DIMCEN
 40
0.09
  9
$DIMTSZ
 40
0.0
  9
$DIMTOL
 70
     0
  9
$DIMLIM
 70
     0
  9
$DIMTIH
 70
     0
  9
$DIMTOH
 70
     0
  9
$DIMSE1
 70
     0
  9
$DIMSE2
 70
     0
  9
$DIMTAD
 70
     1
  9
$DIMZIN
 70
     8
  9
$DIMBLK
  1

  9
$DIMASO
 70
     1
  9
$DIMSHO
 70
     0
  9
$DIMPOST
  1

  9
$DIMAPOST
  1

  9
$DIMALT
 70
     0
  9
$DIMALTD
 70
     2
  9
$DIMALTF
 40
25.399999999999999
  9
$DIMLFAC
 40
1.0
  9
$DIMTOFL
 70
     1
  9
$DIMTVP
 40
0.0
  9
$DIMTIX
 70
     1
  9
$DIMSOXD
 70
     0
  9
$DIMSAH
 70
     0
  9
$DIMBLK1
  1

  9
$DIMBLK2
  1

  9
$DIMSTYLE
  2
STANDARD
  9
$DIMCLRD
 70
     7
  9
$DIMCLRE
 70
     7
  9
$DIMCLRT
 70
     7
  9
$DIMTFAC
 40
1.0
  9
$DIMGAP
 40
25.0
  9
$LUNITS
 70
     2
  9
$LUPREC
 70
     4
  9
$SKETCHINC
 40
0.1
  9
$FILLETRAD
 40
3.0
  9
$AUNITS
 70
     1
  9
$AUPREC
 70
     3
  9
$MENU
  1
ACAD
  9
$ELEVATION
 40
0.0
  9
$PELEVATION
 40
0.0
  9
$THICKNESS
 40
50.0
  9
$LIMCHECK
 70
     0
  9
$CHAMFERA
 40
0.0
  9
$CHAMFERB
 40
0.0
  9
$SKPOLY
 70
     0
  9
$TDCREATE
 40
2453019.62301037
  9
$TDUPDATE
 40
2458659.387144688
  9
$TDINDWG
 40
1.7890437616
  9
$TDUSRTIMER
 40
1.7890437616
  9
$USRTIMER
 70
     1
  9
$ANGBASE
 50
0.0
  9
$ANGDIR
 70
     0
  9
$PDMODE
 70
     3
  9
$PDSIZE
 40
-2.0
  9
$PLINEWID
 40
0.0
  9
$SPLFRAME
 70
     0
  9
$SPLINETYPE
 70
     6
  9
$SPLINESEGS
 70
     8
  9
$SURFTAB1
 70
     6
  9
$SURFTAB2
 70
     6
  9
$SURFTYPE
 70
     6
  9
$SURFU
 70
     6
  9
$SURFV
 70
     6
  9
$UCSNAME
  2

  9
$UCSORG
 10
0.0
 20
0.0
 30
0.0
  9
$UCSXDIR
 10
1.0
 20
0.0
 30
0.0
  9
$UCSYDIR
 10
0.0
 20
1.0
 30
0.0
  9
$PUCSNAME
  2

  9
$PUCSORG
 10
0.0
 20
0.0
 30
0.0
  9
$PUCSXDIR
 10
1.0
 20
0.0
 30
0.0
  9
$PUCSYDIR
 10
0.0
 20
1.0
 30
0.0
  9
$USERI1
 70
     0
  9
$USERI2
 70
     0
  9
$USERI3
 70
     0
  9
$USERI4
 70
     0
  9
$USERI5
 70
     0
  9
$USERR1
 40
20.0
  9
$USERR2
 40
0.0
  9
$USERR3
 40
0.0
  9
$USERR4
 40
0.0
  9
$USERR5
 40
0.0
  9
$WORLDVIEW
 70
     1
  9
$SHADEDGE
 70
     3
  9
$SHADEDIF
 70
    70
  9
$TILEMODE
 70
     1
  9
$MAXACTVP
 70
    48
  9
$PINSBASE
 10
0.0
 20
0.0
 30
0.0
  9
$PLIMCHECK
 70
     0
  9
$PEXTMIN
 10
-100000000000000000000.0
 20
-100000000000000000000.0
 30
-100000000000000000000.0
  9
$PEXTMAX
 10
100000000000000000000.0
 20
100000000000000000000.0
 30
100000000000000000000.0
  9
$PLIMMIN
 10
0.0
 20
0.0
  9
$PLIMMAX
 10
12.0
 20
9.0
  9
$UNITMODE
 70
     0
  9
$VISRETAIN
 70
     0
  9
$PLINEGEN
 70
     0
  9
$PSLTSCALE
 70
     0
  9
$TREEDEPTH
 70
  3020
  9
$ATTDIA
 70
     0
  9
$ATTREQ
 70
     1
  9
$BLIPMODE
 70
     1
  9
$COORDS
 70
     1
  9
$DRAGMODE
 70
     2
  9
$OSMODE
 70
     0
  9
$HANDLING
 70
     0
  9
$HANDSEED
  5
F8E9
  0
ENDSEC
  0
SECTION
  2
TABLES
  0
TABLE
  2
LTYPE
 70
     2
  0
LTYPE
  2
CONTINUOUS
 70
     0
  3
実線
 72
    65
 73
     0
 40
0.0
  0
LTYPE
  2
DASHDOT
 70
     0
  3
____ _ ____ _ ____ _ ____ _ ____ _ ____ _ ____
 72
    65
 73
     4
 40
5.5
 49
4.0
 49
-0.6
 49
0.3
 49
-0.6
  0
ENDTAB
  0
TABLE
  2
LAYER
 70
    12
  0
LAYER
  2
0
 70
     0
 62
     7
  6
CONTINUOUS
  0
LAYER
  2
BASIS
 70
     0
 62
     6
  6
DASHDOT
  0
LAYER
  2
OUTLINE
 70
     0
 62
     3
  6
CONTINUOUS
  0
LAYER
  2
DETAIL
 70
     0
 62
     5
  6
CONTINUOUS
  0
LAYER
  2
SIZE
 70
     0
 62
    30
  6
CONTINUOUS
  0
LAYER
  2
ARRANGE
 70
     0
 62
     1
  6
CONTINUOUS
  0
LAYER
  2
DEFPOINTS
 70
     0
 62
     7
  6
CONTINUOUS
  0
LAYER
  2
ETC
 70
     0
 62
    61
  6
CONTINUOUS
  0
LAYER
  2
FIX
 70
     0
 62
    11
  6
CONTINUOUS
  0
LAYER
  2
NOTE
 70
     0
 62
     4
  6
CONTINUOUS
  0
LAYER
  2
SERVICESPACE
 70
    64
 62
     2
  6
DASHDOT
  0
LAYER
  2
SYMBOLLINE
 70
    64
 62
    15
  6
CONTINUOUS
  0
ENDTAB
  0
TABLE
  2
STYLE
 70
     1
  0
STYLE
  2
STANDARD
 70
     0
 40
64.0
 41
0.9
 50
0.0
 71
     0
 42
64.0
  3
SIMPLEX.shx
  4
BIGFONT.shx
  0
ENDTAB
  0
TABLE
  2
APPID
 70
    18
  0
APPID
  2
ACAD
 70
     0
  0
APPID
  2
AUTOCAD_POSTSCRIPT_FIGURE
 70
     0
  0
APPID
  2
ACAD_EXEMPT_FROM_CAD_STANDARDS
 70
     0
  0
APPID
  2
ACAD_PSEXT
 70
     0
  0
APPID
  2
ACAUTHENVIRON
 70
     0
  0
APPID
  2
GENIUS_GENOENT_13
 70
     0
  0
APPID
  2
GENIUS_GENCFG_13
 70
     0
  0
APPID
  2
GENIUS_GENCFG0_13
 70
     0
  0
APPID
  2
GENIUS_GENCFG1_13
 70
     0
  0
APPID
  2
GENIUS_GENCFG2_13
 70
     0
  0
APPID
  2
GENIUS_GENCFG3_13
 70
     0
  0
APPID
  2
GENIUS_GENCFG4_13
 70
     0
  0
APPID
  2
GENIUS_GEVCFG0_13
 70
     0
  0
APPID
  2
CONTENTBLOCKICON
 70
     0
  0
APPID
  2
CONTENTBLOCKDESCRIPTION
 70
     0
  0
APPID
  2
ACAD_NAV_VCDISPLAY
 70
     0
  0
APPID
  2
ACAD_MLEADERVER
 70
     0
  0
APPID
  2
ACAD_DSTYLE_DIMRADIAL_EXTENSION
 70
     0
  0
ENDTAB
  0
TABLE
  2
DIMSTYLE
 70
     1
  0
DIMSTYLE
  2
STANDARD
 70
     0
  3

  4

  5
_ORIGIN
  6

  7

 40
1.0
 41
12.0
 42
20.0
 43
200.0
 44
20.0
 45
0.0
 46
0.0
 47
0.0
 48
0.0
140
64.0
141
0.09
142
0.0
143
25.399999999999999
144
1.0
145
0.0
146
1.0
147
25.0
 71
     0
 72
     0
 73
     0
 74
     0
 75
     0
 76
     0
 77
     1
 78
     8
170
     0
171
     2
172
     1
173
     0
174
     1
175
     0
176
     7
177
     7
178
     7
  0
ENDTAB
  0
TABLE
  2
VIEW
 70
     1
  0
VIEW
  2
ALL
 70
     0
 40
4282.6198079999986
 10
0.0
 20
41.309904000000003
 41
5940.0
 11
0.0
 21
0.0
 31
1.0
 12
0.0
 22
0.0
 32
0.0
 42
50.0
 43
0.0
 44
0.0
 50
0.0
 71
     0
  0
ENDTAB
  0
TABLE
  2
UCS
 70
     0
  0
ENDTAB
  0
TABLE
  2
VPORT
 70
     1
  0
VPORT
  2
*ACTIVE
 70
     0
 10
0.0
 20
0.0
 11
1.0
 21
1.0
 12
16.877652588336559
 22
-465.40276040201297
 13
0.0
 23
0.0
 14
1.0
 24
1.0
 15
0.0
 25
0.0
 16
0.0
 26
0.0
 36
1.0
 17
0.0
 27
0.0
 37
0.0
 40
2042.9045041074171
 41
1.996865203761756
 42
50.0
 43
0.0
 44
0.0
 50
0.0
 51
0.0
 71
     0
 72
  1000
 73
     1
 74
     3
 75
     0
 76
     0
 77
     0
 78
     0
  0
ENDTAB
  0
ENDSEC
  0
SECTION
  2
BLOCKS
  0
BLOCK
  8
0
  2
_ORIGIN
 70
     0
 10
0.0
 20
0.0
 30
0.0
  3
_ORIGIN
  1
_ORIGIN
  0
CIRCLE
  8
0
  6
CONTINUOUS
 62
     7
 10
0.0
 20
0.0
 30
0.0
 40
0.5
  0
LINE
  8
0
  6
CONTINUOUS
 62
     7
 10
0.0
 20
0.0
 30
0.0
 11
-1.0
 21
0.0
 31
0.0
  0
ENDBLK
  8
0
  0
ENDSEC
  0
SECTION
  2
ENTITIES
  0
LINE
  8
NOTE
  6
CONTINUOUS
 62
     4
 10
-249.5
 20
-142.5
 30
0.0
 11
-361.83148399999982
 21
34.640345000000018
 31
0.0
  0
LINE
  8
NOTE
  6
CONTINUOUS
 62
     4
 10
-494.22682200000008
 20
34.640337999999993
 30
0.0
 11
-361.83148399999982
 21
34.640345000000018
 31
0.0
  0
TEXT
  8
NOTE
  6
CONTINUOUS
 62
     4
 10
-477.06296600000002
 20
53.667889000000002
 30
0.0
 40
70.73684200000001
  1
AH
 41
0.9
  0
LINE
  8
NOTE
  6
CONTINUOUS
 62
     4
 10
-284.00284900000003
 20
-114.85721599999999
 30
0.0
 11
-249.5
 21
-142.5
 31
0.0
  0
LINE
  8
NOTE
  6
CONTINUOUS
 62
     4
 10
-249.5
 20
-142.5
 30
0.0
 11
-265.55895099999998
 21
-101.30922200000001
 31
0.0
  0
TEXT
  8
ETC
  6
CONTINUOUS
 62
    61
 10
363.63885395439002
 20
434.05035853193948
 30
0.0
 40
60.0
  1
BFS-65SUG2_2
 41
0.9
  0
TEXT
  8
ETC
  6
CONTINUOUS
 62
    61
 10
357.51152645439021
 20
339.93167603193928
 30
0.0
 40
60.0
  1
産業扇
 41
0.9
  0
TEXT
  8
ETC
  6
CONTINUOUS
 62
    61
 10
412.26262808931068
 20
269.35823363247567
 30
0.0
 40
40.0
  1
BFS-65SUG2
 41
0.9
  0
TEXT
  8
ETC
  6
CONTINUOUS
 62
    61
 10
412.26262808931068
 20
209.3582336324757
 30
0.0
 40
40.0
  1
BFS-80SUG2
 41
0.9
  0
TEXT
  8
ETC
  6
CONTINUOUS
 62
    61
 10
412.26262808931068
 20
149.3582336324757
 30
0.0
 40
40.0
  1
BFS-80TUG2
 41
0.9
  0
POINT
  8
ARRANGE
  6
CONTINUOUS
 62
     1
 10
0.0
 20
0.0
 30
0.0
 50
180.0
  0
CIRCLE
  8
ARRANGE
  6
CONTINUOUS
 62
     1
 10
0.0
 20
0.0
 30
0.0
 40
44.210526000000002
  0
LINE
  8
BASIS
  6
DASHDOT
 62
     6
 10
-327.08452499999999
 20
-152.5
 30
0.0
 11
327.08452499999999
 21
-152.5
 31
0.0
  0
LINE
  8
BASIS
  6
DASHDOT
 62
     6
 10
0.0
 20
-386.54441600000001
 30
0.0
 11
0.0
 21
81.544416000000012
 31
0.0
  0
LINE
  8
SIZE
  6
CONTINUOUS
 62
    30
 10
540.20854999999983
 20
-34.928528000000028
 30
0.0
 11
98.23814399999992
 21
-131.566588
 31
0.0
  0
LINE
  8
SIZE
  6
CONTINUOUS
 62
    30
 10
-93.23814399999992
 20
-173.433412
 30
0.0
 11
-95.191984000000048
 21
-173.860624
 31
0.0
  0
TEXT
  8
SIZE
  6
CONTINUOUS
 62
    30
 10
317.57528778191141
 20
-63.135372197721892
 30
0.0
 40
64.0
  1
φ192
 50
12.333755999999999
 41
0.9
 72
     1
 11
423.95349099999999
 21
-39.875512000000008
 31
0.0
  0
LINE
  8
SIZE
  6
CONTINUOUS
 62
    30
 10
-91.284305000000131
 20
-173.00619900000001
 30
0.0
 11
96.284305000000131
 21
-131.99380099999999
 31
0.0
  0
CIRCLE
  8
SIZE
  6
CONTINUOUS
 62
    30
 10
-91.284305000000131
 20
-173.00619900000001
 30
0.0
 40
6.0
  0
CIRCLE
  8
SIZE
  6
CONTINUOUS
 62
    30
 10
96.284305000000131
 20
-131.99380099999999
 30
0.0
 40
6.0
  0
POINT
  8
DEFPOINTS
  6
CONTINUOUS
 62
    30
 10
96.284305000000131
 20
-131.99380099999999
 30
0.0
  0
POINT
  8
DEFPOINTS
  6
CONTINUOUS
 62
    30
 10
-91.284305000000131
 20
-173.00619900000001
 30
0.0
  0
LINE
  8
SIZE
  6
CONTINUOUS
 62
    30
 10
545.01061200000004
 20
-268.473929
 30
0.0
 11
106.1579400000001
 21
-174.659232
 31
0.0
  0
LINE
  8
SIZE
  6
CONTINUOUS
 62
    30
 10
-101.1579400000001
 20
-130.340768
 30
0.0
 11
-103.11375
 21
-129.92266900000001
 31
0.0
  0
TEXT
  8
SIZE
  6
CONTINUOUS
 62
    30
 10
319.88123983147312
 20
-199.89558384822391
 30
0.0
 40
64.0
  1
φ208
 50
347.93337100000002
 41
0.9
 72
     1
 11
431.73123799999979
 21
-223.806015
 31
0.0
  0
LINE
  8
SIZE
  6
CONTINUOUS
 62
    30
 10
-99.202129000000014
 20
-130.75886700000001
 30
0.0
 11
104.202129
 21
-174.24113299999999
 31
0.0
  0
CIRCLE
  8
SIZE
  6
CONTINUOUS
 62
    30
 10
-99.202129000000014
 20
-130.75886700000001
 30
0.0
 40
6.0
  0
CIRCLE
  8
SIZE
  6
CONTINUOUS
 62
    30
 10
104.202129
 20
-174.24113299999999
 30
0.0
 40
6.0
  0
POINT
  8
DEFPOINTS
  6
CONTINUOUS
 62
    30
 10
104.202129
 20
-174.24113299999999
 30
0.0
  0
POINT
  8
DEFPOINTS
  6
CONTINUOUS
 62
    30
 10
-99.202129000000014
 20
-130.75886700000001
 30
0.0
  0
LINE
  8
SIZE
  6
CONTINUOUS
 62
    30
 10
-241.5
 20
0.0
 30
0.0
 11
-495.44635499999998
 21
0.0
 31
0.0
  0
LINE
  8
SIZE
  6
CONTINUOUS
 62
    30
 10
-241.5
 20
-305.0
 30
0.0
 11
-495.44635499999998
 21
-305.0
 31
0.0
  0
LINE
  8
SIZE
  6
CONTINUOUS
 62
    30
 10
-465.44635499999998
 20
-2.0
 30
0.0
 11
-465.44635499999998
 21
-303.0
 31
0.0
  0
CIRCLE
  8
SIZE
  6
CONTINUOUS
 62
    30
 10
-465.44635499999998
 20
0.0
 30
0.0
 40
6.0
  0
CIRCLE
  8
SIZE
  6
CONTINUOUS
 62
    30
 10
-465.44635499999998
 20
-305.0
 30
0.0
 40
6.0
  0
TEXT
  8
SIZE
  6
CONTINUOUS
 62
    30
 10
-485.44635499999998
 20
-226.55714285714279
 30
0.0
 40
64.0
  1
305
 50
90.0
 41
0.9
 72
     1
 11
-485.44635499999998
 21
-152.5
 31
0.0
  0
POINT
  8
DEFPOINTS
  6
CONTINUOUS
 62
    30
 10
-221.5
 20
0.0
 30
0.0
  0
POINT
  8
DEFPOINTS
  6
CONTINUOUS
 62
    30
 10
-221.5
 20
-305.0
 30
0.0
  0
POINT
  8
DEFPOINTS
  6
CONTINUOUS
 62
    30
 10
-465.44635499999998
 20
-305.0
 30
0.0
  0
LINE
  8
DETAIL
  6
CONTINUOUS
 62
     5
 10
211.5
 20
-305.0
 30
0.0
 11
-211.5
 21
-305.0
 31
0.0
  0
LINE
  8
DETAIL
  6
CONTINUOUS
 62
     5
 10
211.5
 20
0.0
 30
0.0
 11
-211.5
 21
0.0
 31
0.0
  0
CIRCLE
  8
DETAIL
  6
CONTINUOUS
 62
     5
 10
2.5
 20
-152.5
 30
0.0
 40
104.0
  0
CIRCLE
  8
DETAIL
  6
CONTINUOUS
 62
     5
 10
2.5
 20
-152.5
 30
0.0
 40
96.0
  0
LINE
  8
NOTE
  6
CONTINUOUS
 62
     4
 10
249.5
 20
-122.5
 30
0.0
 11
249.5
 21
-162.5
 31
0.0
  0
CIRCLE
  8
FIX
  6
CONTINUOUS
 62
    11
 10
249.5
 20
-142.5
 30
0.0
 40
5.5
  0
LINE
  8
DETAIL
  6
CONTINUOUS
 62
     5
 10
177.19963999999999
 20
-189.965239
 30
0.0
 11
191.39060399999991
 21
-145.965239
 31
0.0
  0
LINE
  8
DETAIL
  6
CONTINUOUS
 62
     5
 10
269.5
 20
-142.5
 30
0.0
 11
269.5
 21
-170.106863
 31
0.0
  0
LINE
  8
DETAIL
  6
CONTINUOUS
 62
     5
 10
181.95826500000001
 20
-196.5
 30
0.0
 11
254.44429299999999
 21
-196.5
 31
0.0
  0
LINE
  8
DETAIL
  6
CONTINUOUS
 62
     5
 10
269.5
 20
-170.106863
 30
0.0
 11
254.44429299999999
 21
-196.5
 31
0.0
  0
LINE
  8
DETAIL
  6
CONTINUOUS
 62
     5
 10
206.69047800000001
 20
-196.5
 30
0.0
 11
206.69047800000001
 21
-305.0
 31
0.0
  0
LINE
  8
DETAIL
  6
CONTINUOUS
 62
     5
 10
211.5
 20
-196.5
 30
0.0
 11
211.5
 21
-305.0
 31
0.0
  0
ARC
  8
DETAIL
  6
CONTINUOUS
 62
     5
 10
181.95826500000001
 20
-191.5
 30
0.0
 40
5.0
 50
162.12435200000121
 51
270.0
  0
LINE
  8
DETAIL
  6
CONTINUOUS
 62
     5
 10
269.5
 20
-142.5
 30
0.0
 11
196.14922799999999
 21
-142.5
 31
0.0
  0
LINE
  8
DETAIL
  6
CONTINUOUS
 62
     5
 10
206.69047800000001
 20
-142.5
 30
0.0
 11
206.69047800000001
 21
0.0
 31
0.0
  0
LINE
  8
DETAIL
  6
CONTINUOUS
 62
     5
 10
211.50000199999999
 20
-142.5
 30
0.0
 11
211.5
 21
0.0
 31
0.0
  0
ARC
  8
DETAIL
  6
CONTINUOUS
 62
     5
 10
196.14922799999999
 20
-147.5
 30
0.0
 40
5.0
 50
90.0
 51
162.12435200000121
  0
LINE
  8
NOTE
  6
CONTINUOUS
 62
     4
 10
-249.5
 20
-122.5
 30
0.0
 11
-249.5
 21
-162.5
 31
0.0
  0
CIRCLE
  8
FIX
  6
CONTINUOUS
 62
    11
 10
-249.5
 20
-142.5
 30
0.0
 40
5.5
  0
LINE
  8
DETAIL
  6
CONTINUOUS
 62
     5
 10
-180.32473200000001
 20
-189.965239
 30
0.0
 11
-194.51569500000011
 21
-145.965239
 31
0.0
  0
LINE
  8
DETAIL
  6
CONTINUOUS
 62
     5
 10
-269.5
 20
-142.5
 30
0.0
 11
-269.5
 21
-170.106863
 31
0.0
  0
LINE
  8
DETAIL
  6
CONTINUOUS
 62
     5
 10
-185.08335600000009
 20
-196.5
 30
0.0
 11
-257.5693839999999
 21
-196.5
 31
0.0
  0
LINE
  8
DETAIL
  6
CONTINUOUS
 62
     5
 10
-206.69047599999999
 20
-196.5
 30
0.0
 11
-206.69047599999999
 21
-305.0
 31
0.0
  0
LINE
  8
DETAIL
  6
CONTINUOUS
 62
     5
 10
-211.5
 20
-305.0
 30
0.0
 11
-211.5
 21
-196.5
 31
0.0
  0
ARC
  8
DETAIL
  6
CONTINUOUS
 62
     5
 10
-185.08335600000009
 20
-191.5
 30
0.0
 40
5.0
 50
270.0
 51
17.875647999998758
  0
LINE
  8
DETAIL
  6
CONTINUOUS
 62
     5
 10
-269.5
 20
-170.106863
 30
0.0
 11
-257.5693839999999
 21
-196.5
 31
0.0
  0
LINE
  8
DETAIL
  6
CONTINUOUS
 62
     5
 10
-269.5
 20
-142.5
 30
0.0
 11
-199.27431999999999
 21
-142.5
 31
0.0
  0
ARC
  8
DETAIL
  6
CONTINUOUS
 62
     5
 10
-224.78258400000001
 20
-249.633611
 30
0.0
 40
9.9437479999999994
 50
176.1871469999991
 51
250.37952000000911
  0
LINE
  8
DETAIL
  6
CONTINUOUS
 62
     5
 10
-206.69047599999999
 20
-142.5
 30
0.0
 11
-206.69047599999999
 21
0.0
 31
0.0
  0
LINE
  8
DETAIL
  6
CONTINUOUS
 62
     5
 10
-211.5
 20
0.0
 30
0.0
 11
-211.5
 21
-142.5
 31
0.0
  0
ARC
  8
DETAIL
  6
CONTINUOUS
 62
     5
 10
-199.27431999999999
 20
-147.5
 30
0.0
 40
5.0
 50
17.875647999998758
 51
90.0
  0
LINE
  8
DETAIL
  6
CONTINUOUS
 62
     5
 10
-228.121578
 20
-259.0
 30
0.0
 11
-211.5
 21
-259.0
 31
0.0
  0
LINE
  8
DETAIL
  6
CONTINUOUS
 62
     5
 10
-234.70432199999999
 20
-196.5
 30
0.0
 11
-234.70432199999999
 21
-248.97237400000009
 31
0.0
  0
LINE
  8
SIZE
  6
CONTINUOUS
 62
    30
 10
-211.5
 20
10.00518515737167
 30
0.0
 11
-211.5
 21
316.74779163696991
 31
0.0
  0
LINE
  8
SIZE
  6
CONTINUOUS
 62
    30
 10
211.5
 20
10.734347422239811
 30
0.0
 11
211.5
 21
316.74779163696991
 31
0.0
  0
LINE
  8
SIZE
  6
CONTINUOUS
 62
    30
 10
-209.5
 20
286.74779163696991
 30
0.0
 11
209.5
 21
286.74779163696991
 31
0.0
  0
CIRCLE
  8
SIZE
  6
CONTINUOUS
 62
    30
 10
-211.5
 20
286.74779163696991
 30
0.0
 40
6.0
  0
CIRCLE
  8
SIZE
  6
CONTINUOUS
 62
    30
 10
211.5
 20
286.74779163696991
 30
0.0
 40
6.0
  0
TEXT
  8
SIZE
  6
CONTINUOUS
 62
    30
 10
-74.057142857142836
 20
306.74779163696991
 30
0.0
 40
64.0
  1
423
 41
0.9
 72
     1
 11
0.0
 21
306.74779163696991
 31
0.0
  0
POINT
  8
DEFPOINTS
  6
CONTINUOUS
 62
    30
 10
-211.5
 20
0.0
 30
0.0
  0
POINT
  8
DEFPOINTS
  6
CONTINUOUS
 62
    30
 10
211.5
 20
0.0
 30
0.0
  0
POINT
  8
DEFPOINTS
  6
CONTINUOUS
 62
    30
 10
211.5
 20
286.74779163696991
 30
0.0
  0
LINE
  8
SIZE
  6
CONTINUOUS
 62
    30
 10
-249.5
 20
-109.383946605205
 30
0.0
 11
-249.5
 21
409.65098263696979
 31
0.0
  0
LINE
  8
SIZE
  6
CONTINUOUS
 62
    30
 10
249.5
 20
-117.2377622237946
 30
0.0
 11
249.5
 21
409.65098263696979
 31
0.0
  0
LINE
  8
SIZE
  6
CONTINUOUS
 62
    30
 10
-247.5
 20
379.65098263696979
 30
0.0
 11
247.5
 21
379.65098263696979
 31
0.0
  0
CIRCLE
  8
SIZE
  6
CONTINUOUS
 62
    30
 10
-249.5
 20
379.65098263696979
 30
0.0
 40
6.0
  0
CIRCLE
  8
SIZE
  6
CONTINUOUS
 62
    30
 10
249.5
 20
379.65098263696979
 30
0.0
 40
6.0
  0
TEXT
  8
SIZE
  6
CONTINUOUS
 62
    30
 10
-72.685714285714283
 20
399.65098263696979
 30
0.0
 40
64.0
  1
499
 41
0.9
 72
     1
 11
0.0
 21
399.65098263696979
 31
0.0
  0
POINT
  8
DEFPOINTS
  6
CONTINUOUS
 62
    30
 10
-249.5
 20
-152.5
 30
0.0
  0
POINT
  8
DEFPOINTS
  6
CONTINUOUS
 62
    30
 10
249.5
 20
-152.5
 30
0.0
  0
POINT
  8
DEFPOINTS
  6
CONTINUOUS
 62
    30
 10
249.5
 20
379.65098263696979
 30
0.0
  0
LINE
  8
SIZE
  6
CONTINUOUS
 62
    30
 10
-269.5
 20
-133.41650598294109
 30
0.0
 11
-269.5
 21
522.86404763696987
 31
0.0
  0
LINE
  8
SIZE
  6
CONTINUOUS
 62
    30
 10
269.5
 20
-135.29288769398769
 30
0.0
 11
269.5
 21
522.86404763696987
 31
0.0
  0
LINE
  8
SIZE
  6
CONTINUOUS
 62
    30
 10
-267.5
 20
492.86404763696987
 30
0.0
 11
267.5
 21
492.86404763696987
 31
0.0
  0
CIRCLE
  8
SIZE
  6
CONTINUOUS
 62
    30
 10
-269.5
 20
492.86404763696987
 30
0.0
 40
6.0
  0
CIRCLE
  8
SIZE
  6
CONTINUOUS
 62
    30
 10
269.5
 20
492.86404763696987
 30
0.0
 40
6.0
  0
TEXT
  8
SIZE
  6
CONTINUOUS
 62
    30
 10
-72.685714285714283
 20
512.86404763696987
 30
0.0
 40
64.0
  1
539
 41
0.9
 72
     1
 11
0.0
 21
512.86404763696987
 31
0.0
  0
POINT
  8
DEFPOINTS
  6
CONTINUOUS
 62
    30
 10
-269.5
 20
-152.5
 30
0.0
  0
POINT
  8
DEFPOINTS
  6
CONTINUOUS
 62
    30
 10
269.5
 20
-152.5
 30
0.0
  0
POINT
  8
DEFPOINTS
  6
CONTINUOUS
 62
    30
 10
269.5
 20
492.86404763696987
 30
0.0
  0
LINE
  8
OUTLINE
  6
CONTINUOUS
 62
     3
 10
211.5
 20
-305.0
 30
0.0
 11
-211.5
 21
-305.0
 31
0.0
  0
LINE
  8
OUTLINE
  6
CONTINUOUS
 62
     3
 10
211.5
 20
0.0
 30
0.0
 11
-211.5
 21
0.0
 31
0.0
  0
LINE
  8
OUTLINE
  6
CONTINUOUS
 62
     3
 10
-269.5
 20
-142.5
 30
0.0
 11
-269.5
 21
-170.106863
 31
0.0
  0
LINE
  8
OUTLINE
  6
CONTINUOUS
 62
     3
 10
-180.32473200000001
 20
-189.965239
 30
0.0
 11
-194.51569500000011
 21
-145.965239
 31
0.0
  0
LINE
  8
OUTLINE
  6
CONTINUOUS
 62
     3
 10
-185.08335600000009
 20
-196.5
 30
0.0
 11
-257.5693839999999
 21
-196.5
 31
0.0
  0
LINE
  8
OUTLINE
  6
CONTINUOUS
 62
     3
 10
-269.5
 20
-170.106863
 30
0.0
 11
-257.5693839999999
 21
-196.5
 31
0.0
  0
LINE
  8
OUTLINE
  6
CONTINUOUS
 62
     3
 10
-206.69047599999999
 20
-196.5
 30
0.0
 11
-206.69047599999999
 21
-305.0
 31
0.0
  0
LINE
  8
OUTLINE
  6
CONTINUOUS
 62
     3
 10
-211.5
 20
-305.0
 30
0.0
 11
-211.5
 21
-196.5
 31
0.0
  0
ARC
  8
OUTLINE
  6
CONTINUOUS
 62
     3
 10
-185.08335600000009
 20
-191.5
 30
0.0
 40
5.0
 50
270.0
 51
17.875647999998758
  0
ARC
  8
OUTLINE
  6
CONTINUOUS
 62
     3
 10
-224.78258400000001
 20
-249.633611
 30
0.0
 40
9.9437479999999994
 50
176.1871469999991
 51
250.37952000000911
  0
LINE
  8
OUTLINE
  6
CONTINUOUS
 62
     3
 10
-269.5
 20
-142.5
 30
0.0
 11
-199.27431999999999
 21
-142.5
 31
0.0
  0
LINE
  8
OUTLINE
  6
CONTINUOUS
 62
     3
 10
-234.70432199999999
 20
-196.5
 30
0.0
 11
-234.70432199999999
 21
-248.97237400000009
 31
0.0
  0
LINE
  8
OUTLINE
  6
CONTINUOUS
 62
     3
 10
-206.69047599999999
 20
-142.5
 30
0.0
 11
-206.69047599999999
 21
0.0
 31
0.0
  0
LINE
  8
OUTLINE
  6
CONTINUOUS
 62
     3
 10
-211.5
 20
0.0
 30
0.0
 11
-211.5
 21
-142.5
 31
0.0
  0
ARC
  8
OUTLINE
  6
CONTINUOUS
 62
     3
 10
-199.27431999999999
 20
-147.5
 30
0.0
 40
5.0
 50
17.875647999998758
 51
90.0
  0
LINE
  8
OUTLINE
  6
CONTINUOUS
 62
     3
 10
-228.121578
 20
-259.0
 30
0.0
 11
-211.5
 21
-259.0
 31
0.0
  0
LINE
  8
OUTLINE
  6
CONTINUOUS
 62
     3
 10
269.5
 20
-142.5
 30
0.0
 11
269.5
 21
-170.106863
 31
0.0
  0
LINE
  8
OUTLINE
  6
CONTINUOUS
 62
     3
 10
177.19963999999999
 20
-189.965239
 30
0.0
 11
191.39060399999991
 21
-145.965239
 31
0.0
  0
LINE
  8
OUTLINE
  6
CONTINUOUS
 62
     3
 10
181.95826500000001
 20
-196.5
 30
0.0
 11
254.44429299999999
 21
-196.5
 31
0.0
  0
LINE
  8
OUTLINE
  6
CONTINUOUS
 62
     3
 10
206.69047800000001
 20
-196.5
 30
0.0
 11
206.69047800000001
 21
-305.0
 31
0.0
  0
LINE
  8
OUTLINE
  6
CONTINUOUS
 62
     3
 10
211.5
 20
-196.5
 30
0.0
 11
211.5
 21
-305.0
 31
0.0
  0
ARC
  8
OUTLINE
  6
CONTINUOUS
 62
     3
 10
181.95826500000001
 20
-191.5
 30
0.0
 40
5.0
 50
162.12435200000121
 51
270.0
  0
LINE
  8
OUTLINE
  6
CONTINUOUS
 62
     3
 10
269.5
 20
-170.106863
 30
0.0
 11
254.44429299999999
 21
-196.5
 31
0.0
  0
LINE
  8
OUTLINE
  6
CONTINUOUS
 62
     3
 10
269.5
 20
-142.5
 30
0.0
 11
196.14922799999999
 21
-142.5
 31
0.0
  0
LINE
  8
OUTLINE
  6
CONTINUOUS
 62
     3
 10
206.69047800000001
 20
-142.5
 30
0.0
 11
206.69047800000001
 21
0.0
 31
0.0
  0
LINE
  8
OUTLINE
  6
CONTINUOUS
 62
     3
 10
211.50000199999999
 20
-142.5
 30
0.0
 11
211.5
 21
0.0
 31
0.0
  0
ARC
  8
OUTLINE
  6
CONTINUOUS
 62
     3
 10
196.14922799999999
 20
-147.5
 30
0.0
 40
5.0
 50
90.0
 51
162.12435200000121
  0
LINE
  8
NOTE
  6
DASHDOT
 62
     4
 10
2.5
 20
-274.84832792923947
 30
0.0
 11
2.5
 21
-35.861992492398713
 31
0.0
  0
LINE
  8
SIZE
  6
CONTINUOUS
 62
    30
 10
2.5000000000000009
 20
-15.861992492398709
 30
0.0
 11
2.5000000000000129
 21
184.18635645703401
 31
0.0
  0
LINE
  8
SIZE
  6
CONTINUOUS
 62
    30
 10
-249.5
 20
-102.5
 30
0.0
 11
-249.5
 21
184.18635645703401
 31
0.0
  0
LINE
  8
SIZE
  6
CONTINUOUS
 62
    30
 10
-9.4999999999999876
 20
164.18635645703401
 30
0.0
 11
-237.5
 21
164.18635645703401
 31
0.0
  0
CIRCLE
  8
SIZE
  6
CONTINUOUS
 62
    30
 10
2.500000000000012
 20
164.18635645703401
 30
0.0
 40
6.0
  0
LINE
  8
SIZE
  6
CONTINUOUS
 62
    30
 10
2.500000000000012
 20
164.18635645703401
 30
0.0
 11
-9.4999999999999876
 21
164.18635645703401
 31
0.0
  0
CIRCLE
  8
SIZE
  6
CONTINUOUS
 62
    30
 10
-249.5
 20
164.18635645703401
 30
0.0
 40
6.0
  0
LINE
  8
SIZE
  6
CONTINUOUS
 62
    30
 10
-249.5
 20
164.18635645703401
 30
0.0
 11
-237.5
 21
164.18635645703401
 31
0.0
  0
TEXT
  8
SIZE
  6
CONTINUOUS
 62
    30
 10
-203.852
 20
189.18635645703401
 30
0.0
 40
64.0
  1
252
 50
0.0
 41
0.9
 51
0.0
  7
STANDARD
 71
     0
 72
     1
 11
-123.5
 21
189.18635645703401
 31
0.0
210
0.0
220
0.0
230
1.0
  0
POINT
  8
DEFPOINTS
  6
CONTINUOUS
 62
    30
 10
2.5
 20
-35.861992492398713
 30
0.0
  0
POINT
  8
DEFPOINTS
  6
CONTINUOUS
 62
    30
 10
-249.5
 20
-122.5
 30
0.0
  0
POINT
  8
DEFPOINTS
  6
CONTINUOUS
 62
    30
 10
-249.5
 20
164.18635645703401
 30
0.0
  0
TEXT
  8
NOTE
  6
CONTINUOUS
 62
     4
 10
375.67583173155458
 20
-388.6645594026586
 30
0.0
 40
70.73684200000001
  1
ダクト中心軸
 41
0.9
  0
LINE
  8
NOTE
  6
CONTINUOUS
 62
     4
 10
369.17398822920632
 20
-415.22531937244457
 30
0.0
 11
833.02022122920653
 21
-415.22531937244457
 31
0.0
  0
LINE
  8
NOTE
  6
CONTINUOUS
 62
     4
 10
35.508526999999958
 20
-231.2351673600551
 30
0.0
 11
2.5
 21
-201.8241623600552
 31
0.0
  0
LINE
  8
NOTE
  6
CONTINUOUS
 62
     4
 10
2.5
 20
-201.8241623600552
 30
0.0
 11
45.791726000000381
 21
-210.79057636005521
 31
0.0
  0
LINE
  8
NOTE
  6
CONTINUOUS
 62
     4
 10
2.5
 20
-201.8241623600552
 30
0.0
 11
369.17398822920632
 21
-415.22531937244457
 31
0.0
  0
ENDSEC
  0
EOF
