  0
SECTION
  2
HEADER
  9
$ACADVER
  1
AC1009
  9
$DWGCODEPAGE
  3
dos932
  9
$INSBASE
 10
0.0
 20
0.0
 30
0.0
  9
$EXTMIN
 10
-1380.2174391496769
 20
-1006.5623687446659
 30
0.0
  9
$EXTMAX
 10
1515.6877682889151
 20
632.44102358700161
 30
50.0
  9
$LIMMIN
 10
-2970.0
 20
-2100.0
  9
$LIMMAX
 10
2970.0
 20
2100.0
  9
$ORTHOMODE
 70
     1
  9
$REGENMODE
 70
     1
  9
$FILLMODE
 70
     1
  9
$QTEXTMODE
 70
     0
  9
$MIRRTEXT
 70
     0
  9
$LTSCALE
 40
20.0
  9
$ATTMODE
 70
     1
  9
$TEXTSIZE
 40
64.0
  9
$TRACEWID
 40
0.05
  9
$TEXTSTYLE
  7
STANDARD
  9
$CLAYER
  8
SIZE
  9
$CELTYPE
  6
CONTINUOUS
  9
$CECOLOR
 62
     7
  9
$DIMSCALE
 40
1.0
  9
$DIMASZ
 40
12.0
  9
$DIMEXO
 40
20.0
  9
$DIMDLI
 40
200.0
  9
$DIMRND
 40
0.0
  9
$DIMDLE
 40
0.0
  9
$DIMEXE
 40
20.0
  9
$DIMTP
 40
0.0
  9
$DIMTM
 40
0.0
  9
$DIMTXT
 40
64.0
  9
$DIMCEN
 40
0.09
  9
$DIMTSZ
 40
0.0
  9
$DIMTOL
 70
     0
  9
$DIMLIM
 70
     0
  9
$DIMTIH
 70
     0
  9
$DIMTOH
 70
     0
  9
$DIMSE1
 70
     0
  9
$DIMSE2
 70
     0
  9
$DIMTAD
 70
     1
  9
$DIMZIN
 70
     8
  9
$DIMBLK
  1

  9
$DIMASO
 70
     1
  9
$DIMSHO
 70
     0
  9
$DIMPOST
  1

  9
$DIMAPOST
  1

  9
$DIMALT
 70
     0
  9
$DIMALTD
 70
     2
  9
$DIMALTF
 40
25.399999999999999
  9
$DIMLFAC
 40
1.0
  9
$DIMTOFL
 70
     1
  9
$DIMTVP
 40
0.0
  9
$DIMTIX
 70
     1
  9
$DIMSOXD
 70
     0
  9
$DIMSAH
 70
     0
  9
$DIMBLK1
  1

  9
$DIMBLK2
  1

  9
$DIMSTYLE
  2
STANDARD
  9
$DIMCLRD
 70
     7
  9
$DIMCLRE
 70
     7
  9
$DIMCLRT
 70
     7
  9
$DIMTFAC
 40
1.0
  9
$DIMGAP
 40
25.0
  9
$LUNITS
 70
     2
  9
$LUPREC
 70
     4
  9
$SKETCHINC
 40
0.1
  9
$FILLETRAD
 40
3.0
  9
$AUNITS
 70
     1
  9
$AUPREC
 70
     3
  9
$MENU
  1
ACAD
  9
$ELEVATION
 40
0.0
  9
$PELEVATION
 40
0.0
  9
$THICKNESS
 40
50.0
  9
$LIMCHECK
 70
     0
  9
$CHAMFERA
 40
0.0
  9
$CHAMFERB
 40
0.0
  9
$SKPOLY
 70
     0
  9
$TDCREATE
 40
2453019.62301037
  9
$TDUPDATE
 40
2457107.666160255
  9
$TDINDWG
 40
1.7644696296
  9
$TDUSRTIMER
 40
1.7644696296
  9
$USRTIMER
 70
     1
  9
$ANGBASE
 50
0.0
  9
$ANGDIR
 70
     0
  9
$PDMODE
 70
     3
  9
$PDSIZE
 40
-2.0
  9
$PLINEWID
 40
0.0
  9
$SPLFRAME
 70
     0
  9
$SPLINETYPE
 70
     6
  9
$SPLINESEGS
 70
     8
  9
$SURFTAB1
 70
     6
  9
$SURFTAB2
 70
     6
  9
$SURFTYPE
 70
     6
  9
$SURFU
 70
     6
  9
$SURFV
 70
     6
  9
$UCSNAME
  2

  9
$UCSORG
 10
0.0
 20
0.0
 30
0.0
  9
$UCSXDIR
 10
1.0
 20
0.0
 30
0.0
  9
$UCSYDIR
 10
0.0
 20
1.0
 30
0.0
  9
$PUCSNAME
  2

  9
$PUCSORG
 10
0.0
 20
0.0
 30
0.0
  9
$PUCSXDIR
 10
1.0
 20
0.0
 30
0.0
  9
$PUCSYDIR
 10
0.0
 20
1.0
 30
0.0
  9
$USERI1
 70
     0
  9
$USERI2
 70
     0
  9
$USERI3
 70
     0
  9
$USERI4
 70
     0
  9
$USERI5
 70
     0
  9
$USERR1
 40
20.0
  9
$USERR2
 40
0.0
  9
$USERR3
 40
0.0
  9
$USERR4
 40
0.0
  9
$USERR5
 40
0.0
  9
$WORLDVIEW
 70
     1
  9
$SHADEDGE
 70
     3
  9
$SHADEDIF
 70
    70
  9
$TILEMODE
 70
     1
  9
$MAXACTVP
 70
    48
  9
$PINSBASE
 10
0.0
 20
0.0
 30
0.0
  9
$PLIMCHECK
 70
     0
  9
$PEXTMIN
 10
-100000000000000000000.0
 20
-100000000000000000000.0
 30
-100000000000000000000.0
  9
$PEXTMAX
 10
100000000000000000000.0
 20
100000000000000000000.0
 30
100000000000000000000.0
  9
$PLIMMIN
 10
0.0
 20
0.0
  9
$PLIMMAX
 10
12.0
 20
9.0
  9
$UNITMODE
 70
     0
  9
$VISRETAIN
 70
     0
  9
$PLINEGEN
 70
     0
  9
$PSLTSCALE
 70
     0
  9
$TREEDEPTH
 70
  3020
  9
$ATTDIA
 70
     0
  9
$ATTREQ
 70
     1
  9
$BLIPMODE
 70
     1
  9
$COORDS
 70
     1
  9
$DRAGMODE
 70
     2
  9
$OSMODE
 70
     0
  9
$HANDLING
 70
     0
  9
$HANDSEED
  5
126F7
  0
ENDSEC
  0
SECTION
  2
TABLES
  0
TABLE
  2
LTYPE
 70
     2
  0
LTYPE
  2
CONTINUOUS
 70
     0
  3
実線
 72
    65
 73
     0
 40
0.0
  0
LTYPE
  2
DASHDOT
 70
     0
  3
____ _ ____ _ ____ _ ____ _ ____ _ ____ _ ____
 72
    65
 73
     4
 40
5.5
 49
4.0
 49
-0.6
 49
0.3
 49
-0.6
  0
ENDTAB
  0
TABLE
  2
LAYER
 70
    12
  0
LAYER
  2
0
 70
     0
 62
     7
  6
CONTINUOUS
  0
LAYER
  2
BASIS
 70
     0
 62
     6
  6
DASHDOT
  0
LAYER
  2
OUTLINE
 70
     0
 62
     3
  6
CONTINUOUS
  0
LAYER
  2
DETAIL
 70
     0
 62
     5
  6
CONTINUOUS
  0
LAYER
  2
SIZE
 70
     0
 62
    30
  6
CONTINUOUS
  0
LAYER
  2
ARRANGE
 70
     4
 62
     1
  6
CONTINUOUS
  0
LAYER
  2
DEFPOINTS
 70
     0
 62
     7
  6
CONTINUOUS
  0
LAYER
  2
ETC
 70
     0
 62
    61
  6
CONTINUOUS
  0
LAYER
  2
FIX
 70
     0
 62
    11
  6
CONTINUOUS
  0
LAYER
  2
NOTE
 70
     0
 62
     4
  6
CONTINUOUS
  0
LAYER
  2
SERVICESPACE
 70
    64
 62
     2
  6
DASHDOT
  0
LAYER
  2
SYMBOLLINE
 70
    64
 62
    15
  6
CONTINUOUS
  0
ENDTAB
  0
TABLE
  2
STYLE
 70
     1
  0
STYLE
  2
STANDARD
 70
     0
 40
64.0
 41
0.9
 50
0.0
 71
     0
 42
64.0
  3
SIMPLEX.shx
  4
BIGFONT.shx
  0
ENDTAB
  0
TABLE
  2
APPID
 70
    15
  0
APPID
  2
ACAD
 70
     0
  0
APPID
  2
AUTOCAD_POSTSCRIPT_FIGURE
 70
     0
  0
APPID
  2
ACAD_EXEMPT_FROM_CAD_STANDARDS
 70
     0
  0
APPID
  2
ACAD_PSEXT
 70
     0
  0
APPID
  2
ACAUTHENVIRON
 70
     0
  0
APPID
  2
GENIUS_GENOENT_13
 70
     0
  0
APPID
  2
GENIUS_GENCFG_13
 70
     0
  0
APPID
  2
GENIUS_GENCFG0_13
 70
     0
  0
APPID
  2
GENIUS_GENCFG1_13
 70
     0
  0
APPID
  2
GENIUS_GENCFG2_13
 70
     0
  0
APPID
  2
GENIUS_GENCFG3_13
 70
     0
  0
APPID
  2
GENIUS_GENCFG4_13
 70
     0
  0
APPID
  2
GENIUS_GEVCFG0_13
 70
     0
  0
APPID
  2
CONTENTBLOCKICON
 70
     0
  0
APPID
  2
CONTENTBLOCKDESCRIPTION
 70
     0
  0
ENDTAB
  0
TABLE
  2
DIMSTYLE
 70
     1
  0
DIMSTYLE
  2
STANDARD
 70
     0
  3

  4

  5
_ORIGIN
  6

  7

 40
1.0
 41
12.0
 42
20.0
 43
200.0
 44
20.0
 45
0.0
 46
0.0
 47
0.0
 48
0.0
140
64.0
141
0.09
142
0.0
143
25.399999999999999
144
1.0
145
0.0
146
1.0
147
25.0
 71
     0
 72
     0
 73
     0
 74
     0
 75
     0
 76
     0
 77
     1
 78
     8
170
     0
171
     2
172
     1
173
     0
174
     1
175
     0
176
     7
177
     7
178
     7
  0
ENDTAB
  0
TABLE
  2
VIEW
 70
     1
  0
VIEW
  2
ALL
 70
     0
 40
4282.6198079999986
 10
0.0
 20
41.309904000000003
 41
5940.0
 11
0.0
 21
0.0
 31
1.0
 12
0.0
 22
0.0
 32
0.0
 42
50.0
 43
0.0
 44
0.0
 50
0.0
 71
     0
  0
ENDTAB
  0
TABLE
  2
UCS
 70
     0
  0
ENDTAB
  0
TABLE
  2
VPORT
 70
     1
  0
VPORT
  2
*ACTIVE
 70
     0
 10
0.0
 20
0.0
 11
1.0
 21
1.0
 12
67.735164569618973
 22
-187.0606725788322
 13
0.0
 23
0.0
 14
1.0
 24
1.0
 15
0.0
 25
0.0
 16
0.0
 26
0.0
 36
1.0
 17
0.0
 27
0.0
 37
0.0
 40
2228.434087144552
 41
1.3074866310160429
 42
50.0
 43
0.0
 44
0.0
 50
0.0
 51
0.0
 71
     0
 72
  1000
 73
     1
 74
     0
 75
     0
 76
     0
 77
     0
 78
     0
  0
ENDTAB
  0
ENDSEC
  0
SECTION
  2
BLOCKS
  0
BLOCK
  8
0
  2
_ORIGIN
 70
     0
 10
0.0
 20
0.0
 30
0.0
  3
_ORIGIN
  1

  0
CIRCLE
  8
0
  6
CONTINUOUS
 62
     7
 10
0.0
 20
0.0
 30
0.0
 40
0.5
  0
LINE
  8
0
  6
CONTINUOUS
 62
     7
 10
0.0
 20
0.0
 30
0.0
 11
-1.0
 21
0.0
 31
0.0
  0
ENDBLK
  8
0
  0
ENDSEC
  0
SECTION
  2
ENTITIES
  0
TEXT
  8
ETC
  6
CONTINUOUS
 62
    61
 10
904.03062543177111
 20
568.44102358700115
 30
0.0
 40
64.0
  1
BFS-800TU2_5
 41
0.9
  0
TEXT
  8
ETC
  6
CONTINUOUS
 62
    61
 10
899.84463143177072
 20
450.48571357217003
 30
0.0
 40
64.0
  1
産業扇
 41
0.9
  0
CIRCLE
  8
ARRANGE
  6
CONTINUOUS
 62
     1
 10
0.0
 20
0.0
 30
0.0
 40
40.0
  0
POINT
  8
ARRANGE
  6
CONTINUOUS
 62
     1
 10
0.0
 20
0.0
 30
0.0
 39
50.0
  0
TEXT
  8
ETC
  6
CONTINUOUS
 62
    61
 10
950.54602968032668
 20
342.33694068594468
 30
0.0
 40
40.0
  1
BFS-800TU2
 50
0.0
 41
0.9
 51
0.0
  7
STANDARD
 71
     0
 11
0.0
 21
0.0
 31
0.0
210
0.0
220
0.0
230
1.0
  0
LINE
  8
DETAIL
  6
CONTINUOUS
 62
     5
 10
-920.67313341599947
 20
-352.3748963399994
 30
0.0
 11
-920.67313340200417
 21
-60.478528308000023
 31
0.0
  0
LINE
  8
DETAIL
  6
CONTINUOUS
 62
     5
 10
-919.67348830600349
 20
-355.37383162799961
 30
0.0
 11
-919.67348832000062
 21
-57.479593019999811
 31
0.0
  0
LINE
  8
DETAIL
  6
CONTINUOUS
 62
     5
 10
-910.67668244200468
 20
-353.37454143600007
 30
0.0
 11
-910.67668244200468
 21
-354.37418653199887
 31
0.0
  0
LINE
  8
DETAIL
  6
CONTINUOUS
 62
     5
 10
-904.67881186600425
 20
-355.37383162799961
 30
0.0
 11
-904.67881186600425
 21
-352.3748963399994
 31
0.0
  0
LINE
  8
DETAIL
  6
CONTINUOUS
 62
     5
 10
-847.29918336959963
 20
-228.7187979647988
 30
0.0
 11
-847.29918336959963
 21
-239.11510696319971
 31
0.0
  0
LINE
  8
DETAIL
  6
CONTINUOUS
 62
     5
 10
-844.99999964880044
 20
-203.52774154560029
 30
0.0
 11
-844.99999964880044
 21
-268.90453082400018
 31
0.0
  0
LINE
  8
DETAIL
  6
CONTINUOUS
 62
     5
 10
-842.70081591400594
 20
-355.37383162799961
 30
0.0
 11
-842.70081592800125
 21
-330.53240086820188
 31
0.0
  0
LINE
  8
DETAIL
  6
CONTINUOUS
 62
     5
 10
-842.70081592800125
 20
-322.2358468197981
 30
0.0
 11
-842.70081592800125
 21
-203.52774154560029
 31
0.0
  0
LINE
  8
DETAIL
  6
CONTINUOUS
 62
     5
 10
-842.70081592800125
 20
-199.54548427340521
 30
0.0
 11
-842.70081592800125
 21
-90.61757782820132
 31
0.0
  0
LINE
  8
DETAIL
  6
CONTINUOUS
 62
     5
 10
-842.70081592800125
 20
-82.321023779797542
 30
0.0
 11
-842.70081592800125
 21
-57.479593019999811
 31
0.0
  0
LINE
  8
DETAIL
  6
CONTINUOUS
 62
     5
 10
-842.20099338
 20
-41.785165012799553
 30
0.0
 11
-842.20099338
 21
-51.181828915199731
 31
0.0
  0
LINE
  8
DETAIL
  6
CONTINUOUS
 62
     5
 10
-842.20099338
 20
-81.770968852799342
 30
0.0
 11
-842.20099338
 21
-91.16763275519952
 31
0.0
  0
LINE
  8
DETAIL
  6
CONTINUOUS
 62
     5
 10
-842.20099338
 20
-207.04746709543181
 30
0.0
 11
-842.20099338
 21
-211.12504427519889
 31
0.0
  0
LINE
  8
DETAIL
  6
CONTINUOUS
 62
     5
 10
-842.20099338
 20
-321.6857918927999
 30
0.0
 11
-842.20099338
 21
-331.08245579520008
 31
0.0
  0
LINE
  8
DETAIL
  6
CONTINUOUS
 62
     5
 10
-842.2009933660047
 20
-361.67159573279969
 30
0.0
 11
-842.2009933660047
 21
-371.06825963519992
 31
0.0
  0
LINE
  8
DETAIL
  6
CONTINUOUS
 62
     5
 10
-841.70117081800527
 20
-379.36531393199948
 30
0.0
 11
-841.70117081800527
 21
-356.37347672400028
 31
0.0
  0
LINE
  8
DETAIL
  6
CONTINUOUS
 62
     5
 10
-841.70117083200057
 20
-352.3748963399994
 30
0.0
 11
-841.70117083200057
 21
-268.90453082400018
 31
0.0
  0
LINE
  8
DETAIL
  6
CONTINUOUS
 62
     5
 10
-841.70117083200057
 20
-248.95892092091529
 30
0.0
 11
-841.70117083200057
 21
-206.54764454743051
 31
0.0
  0
LINE
  8
DETAIL
  6
CONTINUOUS
 62
     5
 10
-841.70117083200057
 20
-199.12068087035729
 30
0.0
 11
-841.70117083200057
 21
-60.478528308000023
 31
0.0
  0
LINE
  8
DETAIL
  6
CONTINUOUS
 62
     5
 10
-841.70117083200057
 20
-56.479947923999127
 30
0.0
 11
-841.70117083200057
 21
-33.488110715998118
 31
0.0
  0
LINE
  8
DETAIL
  6
CONTINUOUS
 62
     5
 10
-841.40134828399937
 20
-418.15154365679882
 30
0.0
 11
-841.40134828399937
 21
-427.548207559199
 31
0.0
  0
LINE
  8
DETAIL
  6
CONTINUOUS
 62
     5
 10
-840.90152573599994
 20
-429.84739128000001
 30
0.0
 11
-840.90152573599994
 21
-205.54799945143171
 31
0.0
  0
LINE
  8
DETAIL
  6
CONTINUOUS
 62
     5
 10
-840.90152573599994
 20
-198.94254301763979
 30
0.0
 11
-840.90152573599994
 21
-3.998580383999069
 31
0.0
  0
LINE
  8
DETAIL
  6
CONTINUOUS
 62
     5
 10
-840.60163220720028
 20
-198.92937410400009
 30
0.0
 11
-840.60163220720028
 21
-201.22855782479931
 31
0.0
  0
LINE
  8
DETAIL
  6
CONTINUOUS
 62
     5
 10
-839.90188063999926
 20
-432.8463265679984
 30
0.0
 11
-839.90188063999926
 21
-429.84739128000001
 31
0.0
  0
LINE
  8
DETAIL
  6
CONTINUOUS
 62
     5
 10
-838.9022355440004
 20
-432.8463265679984
 30
0.0
 11
-838.9022355440004
 21
-203.54870925943209
 31
0.0
  0
LINE
  8
DETAIL
  6
CONTINUOUS
 62
     5
 10
-838.9022355440004
 20
-198.92937410400009
 30
0.0
 11
-838.9022355440004
 21
-3.998580383999069
 31
0.0
  0
LINE
  8
DETAIL
  6
CONTINUOUS
 62
     5
 10
-838.9022355440004
 20
-2.998935287998393
 30
0.0
 11
-838.9022355440004
 21
-0.9996450959988579
 31
0.0
  0
LINE
  8
DETAIL
  6
CONTINUOUS
 62
     5
 10
-837.10287437120064
 20
-217.9226309279984
 30
0.0
 11
-837.10287437120064
 21
-201.74934808663241
 31
0.0
  0
LINE
  8
DETAIL
  6
CONTINUOUS
 62
     5
 10
-836.70301633279928
 20
-3.998580383999069
 30
0.0
 11
-836.70301633279928
 21
-2.998935287998393
 31
0.0
  0
LINE
  8
DETAIL
  6
CONTINUOUS
 62
     5
 10
-833.70401006399879
 20
-1.9992901919995349
 30
0.0
 11
-833.70401006399879
 21
-0.9996450959988579
 31
0.0
  0
LINE
  8
DETAIL
  6
CONTINUOUS
 62
     5
 10
-797.21696406000046
 20
-217.9226309279984
 30
0.0
 11
-797.21696406000046
 21
-198.92937410400009
 31
0.0
  0
LINE
  8
DETAIL
  6
CONTINUOUS
 62
     5
 10
-795.71749641600036
 20
-2.998935287998393
 30
0.0
 11
-795.71749641600036
 21
-1.9992901919995349
 31
0.0
  0
LINE
  8
DETAIL
  6
CONTINUOUS
 62
     5
 10
-794.91778033919945
 20
-206.9265348719982
 30
0.0
 11
-794.91778033919945
 21
-203.52774154560029
 31
0.0
  0
LINE
  8
DETAIL
  6
CONTINUOUS
 62
     5
 10
-792.61859661840026
 20
-206.9265348719982
 30
0.0
 11
-792.61859661840026
 21
-203.52774154560029
 31
0.0
  0
LINE
  8
DETAIL
  6
CONTINUOUS
 62
     5
 10
-790.71927093600061
 20
-8.9968058639988158
 30
0.0
 11
-790.71927093600061
 21
-424.84916580000032
 31
0.0
  0
LINE
  8
DETAIL
  6
CONTINUOUS
 62
     5
 10
-790.71927093600061
 20
-2.998935287998393
 30
0.0
 11
-790.71927093600061
 21
-1.9992901919995349
 31
0.0
  0
LINE
  8
DETAIL
  6
CONTINUOUS
 62
     5
 10
-789.71962583999994
 20
-2.998935287998393
 30
0.0
 11
-789.71962583999994
 21
-1.9992901919995349
 31
0.0
  0
LINE
  8
DETAIL
  6
CONTINUOUS
 62
     5
 10
-788.71998074399926
 20
-2.998935287998393
 30
0.0
 11
-788.71998074399926
 21
-1.9992901919995349
 31
0.0
  0
LINE
  8
DETAIL
  6
CONTINUOUS
 62
     5
 10
-785.72104545600087
 20
-412.85342464799942
 30
0.0
 11
-785.72104545600087
 21
-411.85377955199868
 31
0.0
  0
LINE
  8
DETAIL
  6
CONTINUOUS
 62
     5
 10
-783.72175526399951
 20
-2.998935287998393
 30
0.0
 11
-783.72175526399951
 21
-1.9992901919995349
 31
0.0
  0
LINE
  8
DETAIL
  6
CONTINUOUS
 62
     5
 10
-763.72885334400053
 20
-6.997515671999281
 30
0.0
 11
-763.72885334400053
 21
-424.84916580000032
 31
0.0
  0
LINE
  8
DETAIL
  6
CONTINUOUS
 62
     5
 10
-762.72920824799985
 20
-429.84739128000001
 30
0.0
 11
-762.72920824799985
 21
-424.84916580000032
 31
0.0
  0
LINE
  8
DETAIL
  6
CONTINUOUS
 62
     5
 10
-762.72920824799985
 20
-6.997515671999281
 30
0.0
 11
-762.72920824799985
 21
-1.9992901919995349
 31
0.0
  0
LINE
  8
DETAIL
  6
CONTINUOUS
 62
     5
 10
-761.72956315200099
 20
-1.9992901919995349
 30
0.0
 11
-761.72956315200099
 21
-429.84739128000001
 31
0.0
  0
LINE
  8
DETAIL
  6
CONTINUOUS
 62
     5
 10
-760.72991805600032
 20
-429.84739128000001
 30
0.0
 11
-760.72991805600032
 21
0.0
 31
0.0
  0
LINE
  8
DETAIL
  6
CONTINUOUS
 62
     5
 10
-835.90330025600019
 20
-429.84739128000001
 30
0.0
 11
-832.70436496799994
 21
-432.8463265679984
 31
0.0
  0
LINE
  8
DETAIL
  6
CONTINUOUS
 62
     5
 10
-815.31954684200537
 20
-368.95999838919312
 30
0.0
 11
-818.5003981073769
 21
-365.77914712382329
 31
0.0
  0
LINE
  8
DETAIL
  6
CONTINUOUS
 62
     5
 10
-741.32779664919326
 20
-421.2594499988063
 30
0.0
 11
-738.14694538382355
 21
-424.44030126417601
 31
0.0
  0
LINE
  8
DETAIL
  6
CONTINUOUS
 62
     5
 10
-840.90152573599994
 20
-249.95856601691409
 30
0.0
 11
-842.70081592800125
 21
-247.95927582491461
 31
0.0
  0
LINE
  8
DETAIL
  6
CONTINUOUS
 62
     5
 10
-844.99999964880044
 20
-241.41429068399879
 30
0.0
 11
-847.29918336959963
 21
-239.11510696319971
 31
0.0
  0
LINE
  8
DETAIL
  6
CONTINUOUS
 62
     5
 10
-830.13266435987134
 20
-209.69816449932841
 30
0.0
 11
-825.67947272250603
 21
-214.15135613669369
 31
0.0
  0
LINE
  8
DETAIL
  6
CONTINUOUS
 62
     5
 10
-741.32779664919326
 20
-284.80789439480583
 30
0.0
 11
-738.14694538382355
 21
-287.98874566017548
 31
0.0
  0
LINE
  8
DETAIL
  6
CONTINUOUS
 62
     5
 10
-808.140472247871
 20
-209.69816449932841
 30
0.0
 11
-803.6872806105057
 21
-214.15135613669369
 31
0.0
  0
LINE
  8
DETAIL
  6
CONTINUOUS
 62
     5
 10
-556.39345388919355
 20
-421.2594499988063
 30
0.0
 11
-553.21260262382384
 21
-424.44030126417601
 31
0.0
  0
LINE
  8
DETAIL
  6
CONTINUOUS
 62
     5
 10
-741.32779664919326
 20
-148.35633879080521
 30
0.0
 11
-738.14694538382355
 21
-151.5371900561768
 31
0.0
  0
LINE
  8
DETAIL
  6
CONTINUOUS
 62
     5
 10
-815.31954684200537
 20
-49.073567669192933
 30
0.0
 11
-818.5003981073769
 21
-45.892716403823208
 31
0.0
  0
LINE
  8
DETAIL
  6
CONTINUOUS
 62
     5
 10
-790.71927093600061
 20
-8.9968058639988158
 30
0.0
 11
-795.71749641600036
 21
-3.998580383999069
 31
0.0
  0
LINE
  8
DETAIL
  6
CONTINUOUS
 62
     5
 10
-371.45911112919379
 20
-421.2594499988063
 30
0.0
 11
-368.27825986382231
 21
-424.44030126417601
 31
0.0
  0
LINE
  8
DETAIL
  6
CONTINUOUS
 62
     5
 10
-741.32779664919326
 20
-11.904783186806529
 30
0.0
 11
-738.14694538382355
 21
-15.08563445217624
 31
0.0
  0
LINE
  8
DETAIL
  6
CONTINUOUS
 62
     5
 10
-186.52476836919229
 20
-421.2594499988063
 30
0.0
 11
-183.3439171038226
 21
-424.44030126417601
 31
0.0
  0
LINE
  8
DETAIL
  6
CONTINUOUS
 62
     5
 10
-1.590425609192607
 20
-421.2594499988063
 30
0.0
 11
1.590425656177104
 21
-424.44030126417601
 31
0.0
  0
LINE
  8
DETAIL
  6
CONTINUOUS
 62
     5
 10
-52.981190088000403
 20
-1.9992901919995349
 30
0.0
 11
-52.981190088000403
 21
0.0
 31
0.0
  0
LINE
  8
DETAIL
  6
CONTINUOUS
 62
     5
 10
-15.994321535999919
 20
-6.997515671999281
 30
0.0
 11
-15.994321535999919
 21
-424.84916580000032
 31
0.0
  0
LINE
  8
DETAIL
  6
CONTINUOUS
 62
     5
 10
-14.99467644000015
 20
-429.84739128000001
 30
0.0
 11
-14.99467644000015
 21
-424.84916580000032
 31
0.0
  0
LINE
  8
DETAIL
  6
CONTINUOUS
 62
     5
 10
-14.99467644000015
 20
-6.997515671999281
 30
0.0
 11
-14.99467644000015
 21
-1.9992901919995349
 31
0.0
  0
LINE
  8
DETAIL
  6
CONTINUOUS
 62
     5
 10
-13.99503134399947
 20
-1.9992901919995349
 30
0.0
 11
-13.99503134399947
 21
-429.84739128000001
 31
0.0
  0
LINE
  8
DETAIL
  6
CONTINUOUS
 62
     5
 10
-12.99538624800061
 20
-429.84739128000001
 30
0.0
 11
-12.99538624800061
 21
-1.9992901919995349
 31
0.0
  0
LINE
  8
DETAIL
  6
CONTINUOUS
 62
     5
 10
15.994321535999919
 20
-1.9992901919995349
 30
0.0
 11
15.994321535999919
 21
-429.84739128000001
 31
0.0
  0
LINE
  8
DETAIL
  6
CONTINUOUS
 62
     5
 10
16.99396663199968
 20
-1.9992901919995349
 30
0.0
 11
16.99396663199968
 21
-429.84739128000001
 31
0.0
  0
LINE
  8
DETAIL
  6
CONTINUOUS
 62
     5
 10
17.993611727999451
 20
-1.9992901919995349
 30
0.0
 11
17.993611727999451
 21
0.0
 31
0.0
  0
LINE
  8
DETAIL
  6
CONTINUOUS
 62
     5
 10
-818.5003980603924
 20
-49.073567669192933
 30
0.0
 11
-815.31954679502269
 21
-45.892716403823208
 31
0.0
  0
LINE
  8
DETAIL
  6
CONTINUOUS
 62
     5
 10
-738.14694543080623
 20
-11.904783186806529
 30
0.0
 11
-741.32779669617594
 21
-15.08563445217624
 31
0.0
  0
LINE
  8
DETAIL
  6
CONTINUOUS
 62
     5
 10
-842.70081592800125
 20
-207.54728964343121
 30
0.0
 11
-836.58208410936754
 21
-201.22855782479931
 31
0.0
  0
LINE
  8
DETAIL
  6
CONTINUOUS
 62
     5
 10
-844.99999964880044
 20
-226.4196142439996
 30
0.0
 11
-847.29918336959963
 21
-228.7187979647988
 31
0.0
  0
LINE
  8
DETAIL
  6
CONTINUOUS
 62
     5
 10
-825.67947265452858
 20
-209.69816449932841
 30
0.0
 11
-830.13266429189571
 21
-214.15135613669369
 31
0.0
  0
LINE
  8
DETAIL
  6
CONTINUOUS
 62
     5
 10
-803.68728054253006
 20
-209.69816449932841
 30
0.0
 11
-808.14047217989537
 21
-214.15135613669369
 31
0.0
  0
LINE
  8
DETAIL
  6
CONTINUOUS
 62
     5
 10
-738.14694543080623
 20
-148.35633879080521
 30
0.0
 11
-741.32779669617594
 21
-151.5371900561768
 31
0.0
  0
LINE
  8
DETAIL
  6
CONTINUOUS
 62
     5
 10
-1.590425609192607
 20
-284.80789439480583
 30
0.0
 11
1.590425656177104
 21
-287.98874566017548
 31
0.0
  0
LINE
  8
DETAIL
  6
CONTINUOUS
 62
     5
 10
183.34391715080619
 20
-421.2594499988063
 30
0.0
 11
186.52476841617681
 21
-424.44030126417601
 31
0.0
  0
LINE
  8
DETAIL
  6
CONTINUOUS
 62
     5
 10
-1.590425609192607
 20
-148.35633879080521
 30
0.0
 11
1.590425656177104
 21
-151.5371900561768
 31
0.0
  0
LINE
  8
DETAIL
  6
CONTINUOUS
 62
     5
 10
186.3428524388064
 20
-277.7104142132066
 30
0.0
 11
189.52370370417611
 21
-280.89126547857632
 31
0.0
  0
LINE
  8
DETAIL
  6
CONTINUOUS
 62
     5
 10
80.580401282006278
 20
-153.35456427080501
 30
0.0
 11
83.761252547376898
 21
-156.53541553617649
 31
0.0
  0
LINE
  8
DETAIL
  6
CONTINUOUS
 62
     5
 10
368.2782599108059
 20
-421.2594499988063
 30
0.0
 11
371.45911117617652
 21
-424.44030126417601
 31
0.0
  0
LINE
  8
DETAIL
  6
CONTINUOUS
 62
     5
 10
185.33420079840019
 20
-224.32035954239839
 30
0.0
 11
187.33349099040061
 21
-226.31964973439969
 31
0.0
  0
LINE
  8
DETAIL
  6
CONTINUOUS
 62
     5
 10
173.7383176847998
 20
-208.52596702560001
 30
0.0
 11
175.73760787680021
 21
-210.5252572175996
 31
0.0
  0
LINE
  8
DETAIL
  6
CONTINUOUS
 62
     5
 10
-1.590425609192607
 20
-11.904783186806529
 30
0.0
 11
1.590425656177104
 21
-15.08563445217624
 31
0.0
  0
LINE
  8
DETAIL
  6
CONTINUOUS
 62
     5
 10
72.174375931200302
 20
-157.94392516799959
 30
0.0
 11
72.174375931200302
 21
-128.55435934560049
 31
0.0
  0
LINE
  8
DETAIL
  6
CONTINUOUS
 62
     5
 10
73.373950046400751
 20
-149.34327368231061
 30
0.0
 11
73.373950046400751
 21
-128.55435934560049
 31
0.0
  0
LINE
  8
DETAIL
  6
CONTINUOUS
 62
     5
 10
73.87377259440018
 20
-149.3469773423985
 30
0.0
 11
73.87377259440018
 21
-129.75393346079909
 31
0.0
  0
LINE
  8
DETAIL
  6
CONTINUOUS
 62
     5
 10
75.673133767200852
 20
-129.75393346079909
 30
0.0
 11
75.673133767200852
 21
-128.954217384
 31
0.0
  0
LINE
  8
DETAIL
  6
CONTINUOUS
 62
     5
 10
76.172956315200281
 20
-129.75393346079909
 30
0.0
 11
76.172956315200281
 21
-128.954217384
 31
0.0
  0
LINE
  8
DETAIL
  6
CONTINUOUS
 62
     5
 10
81.571039833599571
 20
-137.051342661598
 30
0.0
 11
81.571039833599571
 21
-140.84999402639909
 31
0.0
  0
LINE
  8
DETAIL
  6
CONTINUOUS
 62
     5
 10
82.770613948800019
 20
-140.84999402639909
 30
0.0
 11
82.770613948800019
 21
-137.051342661598
 31
0.0
  0
LINE
  8
DETAIL
  6
CONTINUOUS
 62
     5
 10
88.168697467200218
 20
-129.75393346079909
 30
0.0
 11
88.168697467200218
 21
-128.954217384
 31
0.0
  0
LINE
  8
DETAIL
  6
CONTINUOUS
 62
     5
 10
88.668520015200556
 20
-128.954217384
 30
0.0
 11
88.668520015200556
 21
-129.75393346079909
 31
0.0
  0
LINE
  8
DETAIL
  6
CONTINUOUS
 62
     5
 10
90.46788118799941
 20
-129.75393346079909
 30
0.0
 11
90.46788118799941
 21
-149.3469773423985
 31
0.0
  0
LINE
  8
DETAIL
  6
CONTINUOUS
 62
     5
 10
90.967703736000658
 20
-149.34327368231061
 30
0.0
 11
90.967703736000658
 21
-128.55435934560049
 31
0.0
  0
LINE
  8
DETAIL
  6
CONTINUOUS
 62
     5
 10
92.167277851200197
 20
-157.94392516799959
 30
0.0
 11
92.167277851200197
 21
-128.55435934560049
 31
0.0
  0
LINE
  8
DETAIL
  6
CONTINUOUS
 62
     5
 10
173.7383176847998
 20
-65.776647316799426
 30
0.0
 11
173.7383176847998
 21
-124.1559209232
 31
0.0
  0
LINE
  8
DETAIL
  6
CONTINUOUS
 62
     5
 10
173.7383176847998
 20
-170.13959533920021
 30
0.0
 11
173.7383176847998
 21
-208.52596702560001
 31
0.0
  0
LINE
  8
DETAIL
  6
CONTINUOUS
 62
     5
 10
177.93682708799949
 20
-279.30083982239921
 30
0.0
 11
177.93682708799949
 21
-276.301904534399
 31
0.0
  0
LINE
  8
DETAIL
  6
CONTINUOUS
 62
     5
 10
179.93611727999999
 20
-170.6394178871997
 30
0.0
 11
179.93611727999999
 21
-123.65609837519879
 31
0.0
  0
LINE
  8
DETAIL
  6
CONTINUOUS
 62
     5
 10
184.53448472159931
 20
-210.5252572175996
 30
0.0
 11
184.53448472159931
 21
-63.777357124799892
 31
0.0
  0
LINE
  8
DETAIL
  6
CONTINUOUS
 62
     5
 10
185.33420079840019
 20
-224.32035954239839
 30
0.0
 11
185.33420079840019
 21
-210.5252572175996
 31
0.0
  0
LINE
  8
DETAIL
  6
CONTINUOUS
 62
     5
 10
185.33420079840019
 20
-63.777357124799892
 30
0.0
 11
185.33420079840019
 21
-49.982254799999282
 31
0.0
  0
LINE
  8
DETAIL
  6
CONTINUOUS
 62
     5
 10
90.967703736000658
 20
-149.34327368231061
 30
0.0
 11
90.967690696629688
 21
-149.34356711613151
 31
0.0
  0
LINE
  8
DETAIL
  6
CONTINUOUS
 62
     5
 10
90.967690696629688
 20
-149.34356711613151
 30
0.0
 11
90.967652140318023
 21
-149.3438417166399
 31
0.0
  0
LINE
  8
DETAIL
  6
CONTINUOUS
 62
     5
 10
90.967652140318023
 20
-149.3438417166399
 30
0.0
 11
90.967588907768004
 21
-149.34409806063189
 31
0.0
  0
LINE
  8
DETAIL
  6
CONTINUOUS
 62
     5
 10
90.967588907768004
 20
-149.34409806063189
 30
0.0
 11
90.967501839679244
 21
-149.34433672589691
 31
0.0
  0
LINE
  8
DETAIL
  6
CONTINUOUS
 62
     5
 10
90.967501839679244
 20
-149.34433672589691
 30
0.0
 11
90.967391777754528
 21
-149.3445582882359
 31
0.0
  0
LINE
  8
DETAIL
  6
CONTINUOUS
 62
     5
 10
90.967391777754528
 20
-149.3445582882359
 30
0.0
 11
90.967259563693915
 21
-149.34476332544179
 31
0.0
  0
LINE
  8
DETAIL
  6
CONTINUOUS
 62
     5
 10
90.967259563693915
 20
-149.34476332544179
 30
0.0
 11
90.96710603720112
 21
-149.34495241331021
 31
0.0
  0
LINE
  8
DETAIL
  6
CONTINUOUS
 62
     5
 10
90.96710603720112
 20
-149.34495241331021
 30
0.0
 11
90.966932040974825
 21
-149.3451261296359
 31
0.0
  0
LINE
  8
DETAIL
  6
CONTINUOUS
 62
     5
 10
90.966932040974825
 20
-149.3451261296359
 30
0.0
 11
90.966738414717838
 21
-149.34528505021439
 31
0.0
  0
LINE
  8
DETAIL
  6
CONTINUOUS
 62
     5
 10
90.966738414717838
 20
-149.34528505021439
 30
0.0
 11
90.96652600113157
 21
-149.3454297518401
 31
0.0
  0
LINE
  8
DETAIL
  6
CONTINUOUS
 62
     5
 10
90.96652600113157
 20
-149.3454297518401
 30
0.0
 11
90.966295639916098
 21
-149.34556081230949
 31
0.0
  0
LINE
  8
DETAIL
  6
CONTINUOUS
 62
     5
 10
90.966295639916098
 20
-149.34556081230949
 30
0.0
 11
90.966048172774208
 21
-149.34567880741821
 31
0.0
  0
LINE
  8
DETAIL
  6
CONTINUOUS
 62
     5
 10
90.966048172774208
 20
-149.34567880741821
 30
0.0
 11
90.965784441406868
 21
-149.34578431396039
 31
0.0
  0
LINE
  8
DETAIL
  6
CONTINUOUS
 62
     5
 10
90.965784441406868
 20
-149.34578431396039
 30
0.0
 11
90.965505286515508
 21
-149.34587790973089
 31
0.0
  0
LINE
  8
DETAIL
  6
CONTINUOUS
 62
     5
 10
90.965505286515508
 20
-149.34587790973089
 30
0.0
 11
90.965211548801562
 21
-149.34596017052539
 31
0.0
  0
LINE
  8
DETAIL
  6
CONTINUOUS
 62
     5
 10
90.965211548801562
 20
-149.34596017052539
 30
0.0
 11
90.964904069965087
 21
-149.34603167313981
 31
0.0
  0
LINE
  8
DETAIL
  6
CONTINUOUS
 62
     5
 10
90.964904069965087
 20
-149.34603167313981
 30
0.0
 11
90.964583691709777
 21
-149.34609299536899
 31
0.0
  0
LINE
  8
DETAIL
  6
CONTINUOUS
 62
     5
 10
90.964583691709777
 20
-149.34609299536899
 30
0.0
 11
90.964251254734336
 21
-149.34614471300671
 31
0.0
  0
LINE
  8
DETAIL
  6
CONTINUOUS
 62
     5
 10
90.964251254734336
 20
-149.34614471300671
 30
0.0
 11
90.963731828146592
 21
-149.34620554241161
 31
0.0
  0
LINE
  8
DETAIL
  6
CONTINUOUS
 62
     5
 10
90.963731828146592
 20
-149.34620554241161
 30
0.0
 11
90.963190000511531
 21
-149.34624800733579
 31
0.0
  0
LINE
  8
DETAIL
  6
CONTINUOUS
 62
     5
 10
90.963190000511531
 20
-149.34624800733579
 30
0.0
 11
90.962628610822321
 21
-149.34627405308859
 31
0.0
  0
LINE
  8
DETAIL
  6
CONTINUOUS
 62
     5
 10
90.962628610822321
 20
-149.34627405308859
 30
0.0
 11
90.962050498068493
 21
-149.34628562697981
 31
0.0
  0
LINE
  8
DETAIL
  6
CONTINUOUS
 62
     5
 10
90.962050498068493
 20
-149.34628562697981
 30
0.0
 11
90.961458501245033
 21
-149.34628467531729
 31
0.0
  0
LINE
  8
DETAIL
  6
CONTINUOUS
 62
     5
 10
90.961458501245033
 20
-149.34628467531729
 30
0.0
 11
90.960855458343758
 21
-149.346273145411
 31
0.0
  0
LINE
  8
DETAIL
  6
CONTINUOUS
 62
     5
 10
90.960855458343758
 20
-149.346273145411
 30
0.0
 11
90.960244209355551
 21
-149.34625298257009
 31
0.0
  0
LINE
  8
DETAIL
  6
CONTINUOUS
 62
     5
 10
90.960244209355551
 20
-149.34625298257009
 30
0.0
 11
90.959627593272671
 21
-149.34622613410099
 31
0.0
  0
LINE
  8
DETAIL
  6
CONTINUOUS
 62
     5
 10
90.959627593272671
 20
-149.34622613410099
 30
0.0
 11
90.959008448088753
 21
-149.34619454731549
 31
0.0
  0
LINE
  8
DETAIL
  6
CONTINUOUS
 62
     5
 10
-738.14694543080623
 20
-284.80789439480583
 30
0.0
 11
-741.32779669617594
 21
-287.98874566017548
 31
0.0
  0
LINE
  8
DETAIL
  6
CONTINUOUS
 62
     5
 10
-818.5003980603924
 20
-368.95999838919312
 30
0.0
 11
-815.31954679502269
 21
-365.77914712382329
 31
0.0
  0
LINE
  8
DETAIL
  6
CONTINUOUS
 62
     5
 10
-795.71749641600036
 20
-429.84739128000001
 30
0.0
 11
-790.71927093600061
 21
-424.84916580000032
 31
0.0
  0
LINE
  8
DETAIL
  6
CONTINUOUS
 62
     5
 10
-738.14694543080623
 20
-421.2594499988063
 30
0.0
 11
-741.32779669617594
 21
-424.44030126417601
 31
0.0
  0
LINE
  8
DETAIL
  6
CONTINUOUS
 62
     5
 10
839.90188064000017
 20
-432.8463265679984
 30
0.0
 11
838.9022355440004
 21
-432.8463265679984
 31
0.0
  0
LINE
  8
DETAIL
  6
CONTINUOUS
 62
     5
 10
-839.90188063999926
 20
-432.8463265679984
 30
0.0
 11
-838.9022355440004
 21
-432.8463265679984
 31
0.0
  0
LINE
  8
DETAIL
  6
CONTINUOUS
 62
     5
 10
-832.70436496799994
 20
-432.8463265679984
 30
0.0
 11
832.70436496799994
 21
-432.8463265679984
 31
0.0
  0
LINE
  8
DETAIL
  6
CONTINUOUS
 62
     5
 10
-795.71749641600036
 20
-429.84739128000001
 30
0.0
 11
-840.90152573599994
 21
-429.84739128000001
 31
0.0
  0
LINE
  8
DETAIL
  6
CONTINUOUS
 62
     5
 10
-762.72920824799985
 20
-429.84739128000001
 30
0.0
 11
762.72920824799985
 21
-429.84739128000001
 31
0.0
  0
LINE
  8
DETAIL
  6
CONTINUOUS
 62
     5
 10
795.71749641600036
 20
-429.84739128000001
 30
0.0
 11
840.90152573600085
 21
-429.84739128000001
 31
0.0
  0
LINE
  8
DETAIL
  6
CONTINUOUS
 62
     5
 10
-840.90152573599994
 20
-427.548207559199
 30
0.0
 11
-841.40134828399937
 21
-427.548207559199
 31
0.0
  0
LINE
  8
DETAIL
  6
CONTINUOUS
 62
     5
 10
840.90152573600085
 20
-427.548207559199
 30
0.0
 11
841.40134828400028
 21
-427.548207559199
 31
0.0
  0
LINE
  8
DETAIL
  6
CONTINUOUS
 62
     5
 10
-13.99503134399947
 20
-424.84916580000032
 30
0.0
 11
-15.994321535999919
 21
-424.84916580000032
 31
0.0
  0
LINE
  8
DETAIL
  6
CONTINUOUS
 62
     5
 10
-761.72956315200099
 20
-424.84916580000032
 30
0.0
 11
-763.72885334400053
 21
-424.84916580000032
 31
0.0
  0
LINE
  8
DETAIL
  6
CONTINUOUS
 62
     5
 10
761.72956315199917
 20
-424.84916580000032
 30
0.0
 11
763.72885334399962
 21
-424.84916580000032
 31
0.0
  0
LINE
  8
DETAIL
  6
CONTINUOUS
 62
     5
 10
-840.90152573599994
 20
-418.15154365679882
 30
0.0
 11
-841.40134828399937
 21
-418.15154365679882
 31
0.0
  0
LINE
  8
DETAIL
  6
CONTINUOUS
 62
     5
 10
840.90152573600085
 20
-418.15154365679882
 30
0.0
 11
841.40134828400028
 21
-418.15154365679882
 31
0.0
  0
LINE
  8
DETAIL
  6
CONTINUOUS
 62
     5
 10
-790.71927093600061
 20
-415.2525728783985
 30
0.0
 11
-763.72885334400053
 21
-415.2525728783985
 31
0.0
  0
LINE
  8
DETAIL
  6
CONTINUOUS
 62
     5
 10
763.72885334399962
 20
-415.2525728783985
 30
0.0
 11
790.71927093600061
 21
-415.2525728783985
 31
0.0
  0
LINE
  8
DETAIL
  6
CONTINUOUS
 62
     5
 10
-790.71927093600061
 20
-412.85342464799942
 30
0.0
 11
-763.72885334400053
 21
-412.85342464799942
 31
0.0
  0
LINE
  8
DETAIL
  6
CONTINUOUS
 62
     5
 10
763.72885334399962
 20
-412.85342464799942
 30
0.0
 11
790.71927093600061
 21
-412.85342464799942
 31
0.0
  0
LINE
  8
DETAIL
  6
CONTINUOUS
 62
     5
 10
-790.71927093600061
 20
-411.85377955199868
 30
0.0
 11
-763.72885334400053
 21
-411.85377955199868
 31
0.0
  0
LINE
  8
DETAIL
  6
CONTINUOUS
 62
     5
 10
763.72885334399962
 20
-411.85377955199868
 30
0.0
 11
790.71927093600061
 21
-411.85377955199868
 31
0.0
  0
LINE
  8
DETAIL
  6
CONTINUOUS
 62
     5
 10
790.71927093600061
 20
-408.65491524479881
 30
0.0
 11
763.72885334399962
 21
-408.65491524479881
 31
0.0
  0
LINE
  8
DETAIL
  6
CONTINUOUS
 62
     5
 10
-763.72885334400053
 20
-408.65491524479881
 30
0.0
 11
-790.71927093600061
 21
-408.65491524479881
 31
0.0
  0
LINE
  8
DETAIL
  6
CONTINUOUS
 62
     5
 10
840.90152573600085
 20
-391.5609841032001
 30
0.0
 11
841.40134828400028
 21
-391.5609841032001
 31
0.0
  0
LINE
  8
DETAIL
  6
CONTINUOUS
 62
     5
 10
840.90152573600085
 20
-382.16432020079992
 30
0.0
 11
841.40134828400028
 21
-382.16432020079992
 31
0.0
  0
LINE
  8
DETAIL
  6
CONTINUOUS
 62
     5
 10
841.90117083199971
 20
-379.36531393199948
 30
0.0
 11
840.90152573600085
 21
-379.36531393199948
 31
0.0
  0
LINE
  8
DETAIL
  6
CONTINUOUS
 62
     5
 10
-841.70117081800527
 20
-379.36531393199948
 30
0.0
 11
-840.90152572200464
 21
-379.36531393199948
 31
0.0
  0
LINE
  8
DETAIL
  6
CONTINUOUS
 62
     5
 10
841.90117083199971
 20
-374.36708845199968
 30
0.0
 11
840.90152573600085
 21
-374.36708845199968
 31
0.0
  0
LINE
  8
DETAIL
  6
CONTINUOUS
 62
     5
 10
-841.70117081800527
 20
-374.36708845199968
 30
0.0
 11
-840.90152572200464
 21
-374.36708845199968
 31
0.0
  0
LINE
  8
DETAIL
  6
CONTINUOUS
 62
     5
 10
-841.70117081800527
 20
-371.06825963519992
 30
0.0
 11
-842.2009933660047
 21
-371.06825963519992
 31
0.0
  0
LINE
  8
DETAIL
  6
CONTINUOUS
 62
     5
 10
841.90117083199971
 20
-371.06825963519992
 30
0.0
 11
842.40099338000005
 21
-371.06825963519992
 31
0.0
  0
LINE
  8
DETAIL
  6
CONTINUOUS
 62
     5
 10
283.90885716799488
 20
-361.82922928715737
 30
0.0
 11
471.83248531199928
 21
-361.82922928715737
 31
0.0
  0
LINE
  8
DETAIL
  6
CONTINUOUS
 62
     5
 10
-841.70117081800527
 20
-361.67159573279969
 30
0.0
 11
-842.2009933660047
 21
-361.67159573279969
 31
0.0
  0
LINE
  8
DETAIL
  6
CONTINUOUS
 62
     5
 10
841.90117083199971
 20
-361.67159573279969
 30
0.0
 11
842.40099338000005
 21
-361.67159573279969
 31
0.0
  0
LINE
  8
DETAIL
  6
CONTINUOUS
 62
     5
 10
-840.90152572200464
 20
-356.37347672400028
 30
0.0
 11
-841.70117081800527
 21
-356.37347672400028
 31
0.0
  0
LINE
  8
DETAIL
  6
CONTINUOUS
 62
     5
 10
840.90152573600085
 20
-356.37347672400028
 30
0.0
 11
841.90117083199971
 21
-356.37347672400028
 31
0.0
  0
LINE
  8
DETAIL
  6
CONTINUOUS
 62
     5
 10
-919.67348830600349
 20
-355.37383162799961
 30
0.0
 11
-842.70081591400594
 21
-355.37383162799961
 31
0.0
  0
LINE
  8
DETAIL
  6
CONTINUOUS
 62
     5
 10
842.90081592799947
 20
-355.37383162799961
 30
0.0
 11
919.67348832000062
 21
-355.37383162799961
 31
0.0
  0
LINE
  8
DETAIL
  6
CONTINUOUS
 62
     5
 10
-919.67348830600349
 20
-354.37418653199887
 30
0.0
 11
-904.67881186600425
 21
-354.37418653199887
 31
0.0
  0
LINE
  8
DETAIL
  6
CONTINUOUS
 62
     5
 10
-919.67348830600349
 20
-353.37454143600007
 30
0.0
 11
-842.70081591400594
 21
-353.37454143600007
 31
0.0
  0
LINE
  8
DETAIL
  6
CONTINUOUS
 62
     5
 10
842.90081592799947
 20
-353.37454143600007
 30
0.0
 11
919.67348832000062
 21
-353.37454143600007
 31
0.0
  0
LINE
  8
DETAIL
  6
CONTINUOUS
 62
     5
 10
920.67313341600038
 20
-352.3748963399994
 30
0.0
 11
919.67348832000062
 21
-352.3748963399994
 31
0.0
  0
LINE
  8
DETAIL
  6
CONTINUOUS
 62
     5
 10
842.90081592799947
 20
-352.3748963399994
 30
0.0
 11
840.90152573600085
 21
-352.3748963399994
 31
0.0
  0
LINE
  8
DETAIL
  6
CONTINUOUS
 62
     5
 10
-920.67313341599947
 20
-352.3748963399994
 30
0.0
 11
-840.90152573599994
 21
-352.3748963399994
 31
0.0
  0
LINE
  8
DETAIL
  6
CONTINUOUS
 62
     5
 10
919.67348832000062
 20
-351.37525124399872
 30
0.0
 11
920.67313341600038
 21
-351.37525124399872
 31
0.0
  0
LINE
  8
DETAIL
  6
CONTINUOUS
 62
     5
 10
841.90117083199971
 20
-347.37667085999959
 30
0.0
 11
840.90152573600085
 21
-347.37667085999959
 31
0.0
  0
LINE
  8
DETAIL
  6
CONTINUOUS
 62
     5
 10
-841.70117083200057
 20
-347.37667085999959
 30
0.0
 11
-840.90152573599994
 21
-347.37667085999959
 31
0.0
  0
LINE
  8
DETAIL
  6
CONTINUOUS
 62
     5
 10
-841.70117083200057
 20
-331.08245579520008
 30
0.0
 11
-842.20099338
 21
-331.08245579520008
 31
0.0
  0
LINE
  8
DETAIL
  6
CONTINUOUS
 62
     5
 10
841.90117083199971
 20
-331.08245579520008
 30
0.0
 11
842.40099338000005
 21
-331.08245579520008
 31
0.0
  0
LINE
  8
DETAIL
  6
CONTINUOUS
 62
     5
 10
-841.70117083200057
 20
-321.6857918927999
 30
0.0
 11
-842.20099338
 21
-321.6857918927999
 31
0.0
  0
LINE
  8
DETAIL
  6
CONTINUOUS
 62
     5
 10
841.90117083199971
 20
-321.6857918927999
 30
0.0
 11
842.40099338000005
 21
-321.6857918927999
 31
0.0
  0
LINE
  8
DETAIL
  6
CONTINUOUS
 62
     5
 10
236.32510723880659
 20
-217.73170845320601
 30
0.0
 11
239.50595850417631
 21
-220.91255971857569
 31
0.0
  0
LINE
  8
DETAIL
  6
CONTINUOUS
 62
     5
 10
173.7383176847998
 20
-124.1559209232
 30
0.0
 11
175.73760787680021
 21
-126.15521111519961
 31
0.0
  0
LINE
  8
DETAIL
  6
CONTINUOUS
 62
     5
 10
541.80764203199942
 20
-424.84916580000032
 30
0.0
 11
546.80586751199917
 21
-429.84739128000001
 31
0.0
  0
LINE
  8
DETAIL
  6
CONTINUOUS
 62
     5
 10
553.21260267080652
 20
-421.2594499988063
 30
0.0
 11
556.39345393617714
 21
-424.44030126417601
 31
0.0
  0
LINE
  8
DETAIL
  6
CONTINUOUS
 62
     5
 10
183.34391715080619
 20
-11.904783186806529
 30
0.0
 11
186.52476841617681
 21
-15.08563445217624
 31
0.0
  0
LINE
  8
DETAIL
  6
CONTINUOUS
 62
     5
 10
236.32510723880659
 20
-53.390054670806421
 30
0.0
 11
239.50595850417631
 21
-56.570905936176132
 31
0.0
  0
LINE
  8
DETAIL
  6
CONTINUOUS
 62
     5
 10
283.90885716799488
 20
-259.30793790239841
 30
0.0
 11
283.90885716799488
 21
-361.82922928715737
 31
0.0
  0
LINE
  8
DETAIL
  6
CONTINUOUS
 62
     5
 10
-553.21260267080652
 20
-421.2594499988063
 30
0.0
 11
-556.39345393617623
 21
-424.44030126417601
 31
0.0
  0
LINE
  8
DETAIL
  6
CONTINUOUS
 62
     5
 10
1.5904256091935169
 20
-11.904783186806529
 30
0.0
 11
-1.590425656176194
 21
-15.08563445217624
 31
0.0
  0
LINE
  8
DETAIL
  6
CONTINUOUS
 62
     5
 10
177.1371110112004
 20
-281.69998805279829
 30
0.0
 11
178.73654316480039
 21
-281.69998805279829
 31
0.0
  0
LINE
  8
DETAIL
  6
CONTINUOUS
 62
     5
 10
175.93753689600001
 20
-280.50041393759972
 30
0.0
 11
179.93611727999999
 21
-280.50041393759972
 31
0.0
  0
LINE
  8
DETAIL
  6
CONTINUOUS
 62
     5
 10
175.13782081919999
 20
-279.30083982239921
 30
0.0
 11
180.7358333568009
 21
-279.30083982239921
 31
0.0
  0
LINE
  8
DETAIL
  6
CONTINUOUS
 62
     5
 10
-844.99999964880044
 20
-268.90453082400018
 30
0.0
 11
-840.90152573599994
 21
-268.90453082400018
 31
0.0
  0
LINE
  8
DETAIL
  6
CONTINUOUS
 62
     5
 10
840.90152573600085
 20
-268.90453082400018
 30
0.0
 11
844.99999964879953
 21
-268.90453082400018
 31
0.0
  0
LINE
  8
DETAIL
  6
CONTINUOUS
 62
     5
 10
844.99999964879953
 20
-263.04874542749889
 30
0.0
 11
842.90081592799947
 21
-263.04874542749889
 31
0.0
  0
LINE
  8
DETAIL
  6
CONTINUOUS
 62
     5
 10
-844.99999964880044
 20
-263.04874542749889
 30
0.0
 11
-842.70081592800125
 21
-263.04874542749889
 31
0.0
  0
LINE
  8
DETAIL
  6
CONTINUOUS
 62
     5
 10
471.83248531199928
 20
-259.30793790239841
 30
0.0
 11
283.90885716799488
 21
-259.30793790239841
 31
0.0
  0
LINE
  8
DETAIL
  6
CONTINUOUS
 62
     5
 10
-840.90152573599994
 20
-258.90807986399892
 30
0.0
 11
-842.70081592800125
 21
-258.90807986399892
 31
0.0
  0
LINE
  8
DETAIL
  6
CONTINUOUS
 62
     5
 10
840.90152573600085
 20
-258.90807986399892
 30
0.0
 11
842.90081592799947
 21
-258.90807986399892
 31
0.0
  0
LINE
  8
DETAIL
  6
CONTINUOUS
 62
     5
 10
-842.70081592800125
 20
-244.77096334050111
 30
0.0
 11
-844.99999964880044
 21
-244.77096334050111
 31
0.0
  0
LINE
  8
DETAIL
  6
CONTINUOUS
 62
     5
 10
842.90081592799947
 20
-244.77096334050111
 30
0.0
 11
844.99999964879953
 21
-244.77096334050111
 31
0.0
  0
LINE
  8
DETAIL
  6
CONTINUOUS
 62
     5
 10
-842.70081592800125
 20
-230.63384681800201
 30
0.0
 11
-844.99999964880044
 21
-230.63384681800201
 31
0.0
  0
LINE
  8
DETAIL
  6
CONTINUOUS
 62
     5
 10
842.90081592799947
 20
-230.63384681800201
 30
0.0
 11
844.99999964879953
 21
-230.63384681800201
 31
0.0
  0
LINE
  8
DETAIL
  6
CONTINUOUS
 62
     5
 10
187.33349099040061
 20
-226.31964973439969
 30
0.0
 11
538.40884870560058
 21
-226.31964973439969
 31
0.0
  0
LINE
  8
DETAIL
  6
CONTINUOUS
 62
     5
 10
832.90429398720062
 20
-221.92121131199929
 30
0.0
 11
801.21554444399953
 21
-221.92121131199929
 31
0.0
  0
LINE
  8
DETAIL
  6
CONTINUOUS
 62
     5
 10
-832.90429398719971
 20
-221.92121131199929
 30
0.0
 11
-801.21554444399953
 21
-221.92121131199929
 31
0.0
  0
LINE
  8
DETAIL
  6
CONTINUOUS
 62
     5
 10
540.4081388975992
 20
-212.12468937119959
 30
0.0
 11
185.33420079840019
 21
-212.12468937119959
 31
0.0
  0
LINE
  8
DETAIL
  6
CONTINUOUS
 62
     5
 10
-841.70117083200057
 20
-211.12504427519889
 30
0.0
 11
-842.20099338
 21
-211.12504427519889
 31
0.0
  0
LINE
  8
DETAIL
  6
CONTINUOUS
 62
     5
 10
841.90117083199971
 20
-211.12504427519889
 30
0.0
 11
842.40099338000005
 21
-211.12504427519889
 31
0.0
  0
LINE
  8
DETAIL
  6
CONTINUOUS
 62
     5
 10
550.00473181920006
 20
-210.5252572175996
 30
0.0
 11
542.74435773982077
 21
-210.52538793219171
 31
0.0
  0
LINE
  8
DETAIL
  6
CONTINUOUS
 62
     5
 10
794.91778033920036
 20
-206.9265348719982
 30
0.0
 11
792.61859661840026
 21
-206.9265348719982
 31
0.0
  0
LINE
  8
DETAIL
  6
CONTINUOUS
 62
     5
 10
-794.91778033919945
 20
-206.9265348719982
 30
0.0
 11
-792.61859661840026
 21
-206.9265348719982
 31
0.0
  0
LINE
  8
DETAIL
  6
CONTINUOUS
 62
     5
 10
794.91778033920036
 20
-203.92759958399981
 30
0.0
 11
792.61859661840026
 21
-203.92759958399981
 31
0.0
  0
LINE
  8
DETAIL
  6
CONTINUOUS
 62
     5
 10
-794.91778033919945
 20
-203.92759958399981
 30
0.0
 11
-792.61859661840026
 21
-203.92759958399981
 31
0.0
  0
LINE
  8
DETAIL
  6
CONTINUOUS
 62
     5
 10
844.99999964879953
 20
-203.52774154560029
 30
0.0
 11
842.90081592799947
 21
-203.52774154560029
 31
0.0
  0
LINE
  8
DETAIL
  6
CONTINUOUS
 62
     5
 10
-792.61859661840026
 20
-203.52774154560029
 30
0.0
 11
-794.91778033919945
 21
-203.52774154560029
 31
0.0
  0
LINE
  8
DETAIL
  6
CONTINUOUS
 62
     5
 10
-797.21696406000046
 20
-203.52774154560029
 30
0.0
 11
-837.10287437120064
 21
-203.52774154560029
 31
0.0
  0
LINE
  8
DETAIL
  6
CONTINUOUS
 62
     5
 10
-844.99999964880044
 20
-203.52774154560029
 30
0.0
 11
-842.70081592800125
 21
-203.52774154560029
 31
0.0
  0
LINE
  8
DETAIL
  6
CONTINUOUS
 62
     5
 10
792.61859661840026
 20
-203.52774154560029
 30
0.0
 11
794.91778033920036
 21
-203.52774154560029
 31
0.0
  0
LINE
  8
DETAIL
  6
CONTINUOUS
 62
     5
 10
797.21696406000046
 20
-203.52774154560029
 30
0.0
 11
837.10287437120064
 21
-203.52774154560029
 31
0.0
  0
LINE
  8
DETAIL
  6
CONTINUOUS
 62
     5
 10
-797.21696406000046
 20
-201.22855782479931
 30
0.0
 11
-840.60163220720028
 21
-201.22855782479931
 31
0.0
  0
LINE
  8
DETAIL
  6
CONTINUOUS
 62
     5
 10
797.21696406000046
 20
-201.22855782479931
 30
0.0
 11
840.60163220720028
 21
-201.22855782479931
 31
0.0
  0
LINE
  8
DETAIL
  6
CONTINUOUS
 62
     5
 10
-797.21696406000046
 20
-198.92937410400009
 30
0.0
 11
-840.60163220720028
 21
-198.92937410400009
 31
0.0
  0
LINE
  8
DETAIL
  6
CONTINUOUS
 62
     5
 10
797.21696406000046
 20
-198.92937410400009
 30
0.0
 11
840.60163220720028
 21
-198.92937410400009
 31
0.0
  0
LINE
  8
DETAIL
  6
CONTINUOUS
 62
     5
 10
179.93611727999999
 20
-170.6394178871997
 30
0.0
 11
182.93505256799929
 21
-170.6394178871997
 31
0.0
  0
LINE
  8
DETAIL
  6
CONTINUOUS
 62
     5
 10
179.93611727999999
 20
-168.14030514719889
 30
0.0
 11
175.73760787680021
 21
-168.14030514719889
 31
0.0
  0
LINE
  8
DETAIL
  6
CONTINUOUS
 62
     5
 10
179.93611727999999
 20
-167.64048259919949
 30
0.0
 11
182.93505256799929
 21
-167.64048259919949
 31
0.0
  0
LINE
  8
DETAIL
  6
CONTINUOUS
 62
     5
 10
90.167987659199753
 20
-159.94321535999919
 30
0.0
 11
74.173666123199837
 21
-159.94321535999919
 31
0.0
  0
LINE
  8
DETAIL
  6
CONTINUOUS
 62
     5
 10
179.93611727999999
 20
-156.64438654319929
 30
0.0
 11
182.93505256799929
 21
-156.64438654319929
 31
0.0
  0
LINE
  8
DETAIL
  6
CONTINUOUS
 62
     5
 10
90.925976119556253
 20
-149.3469773423985
 30
0.0
 11
90.46788118799941
 21
-149.3469773423985
 31
0.0
  0
LINE
  8
DETAIL
  6
CONTINUOUS
 62
     5
 10
73.87377259440018
 20
-149.3469773423985
 30
0.0
 11
73.415677661844711
 21
-149.3469773423985
 31
0.0
  0
LINE
  8
DETAIL
  6
CONTINUOUS
 62
     5
 10
73.373950046400751
 20
-149.3469773423985
 30
0.0
 11
72.174375931200302
 21
-149.3469773423985
 31
0.0
  0
LINE
  8
DETAIL
  6
CONTINUOUS
 62
     5
 10
90.967703736000658
 20
-149.3469773423985
 30
0.0
 11
92.167277851200197
 21
-149.3469773423985
 31
0.0
  0
LINE
  8
DETAIL
  6
CONTINUOUS
 62
     5
 10
73.373950046400751
 20
-148.64297003911449
 30
0.0
 11
90.967703736000658
 21
-148.64297003911449
 31
0.0
  0
LINE
  8
DETAIL
  6
CONTINUOUS
 62
     5
 10
73.87377259440018
 20
-148.14360022837721
 30
0.0
 11
90.46788118799941
 21
-148.14360022837721
 31
0.0
  0
LINE
  8
DETAIL
  6
CONTINUOUS
 62
     5
 10
72.174375931200302
 20
-143.94889382399921
 30
0.0
 11
92.167277851200197
 21
-143.94889382399921
 31
0.0
  0
LINE
  8
DETAIL
  6
CONTINUOUS
 62
     5
 10
179.93611727999999
 20
-137.65112971919919
 30
0.0
 11
182.93505256799929
 21
-137.65112972019961
 31
0.0
  0
LINE
  8
DETAIL
  6
CONTINUOUS
 62
     5
 10
72.174375931200302
 20
-133.95244286399969
 30
0.0
 11
92.167277851200197
 21
-133.95244286399969
 31
0.0
  0
LINE
  8
DETAIL
  6
CONTINUOUS
 62
     5
 10
73.87377259440018
 20
-129.75393346079909
 30
0.0
 11
90.46788118799941
 21
-129.75393346079909
 31
0.0
  0
LINE
  8
DETAIL
  6
CONTINUOUS
 62
     5
 10
88.168697467200218
 20
-129.25411091279969
 30
0.0
 11
76.172956315200281
 21
-129.25411091279969
 31
0.0
  0
LINE
  8
DETAIL
  6
CONTINUOUS
 62
     5
 10
75.673133767200852
 20
-128.954217384
 30
0.0
 11
88.668520015200556
 21
-128.954217384
 31
0.0
  0
LINE
  8
DETAIL
  6
CONTINUOUS
 62
     5
 10
72.174375931200302
 20
-128.55435934560049
 30
0.0
 11
73.373950046400751
 21
-128.55435934560049
 31
0.0
  0
LINE
  8
DETAIL
  6
CONTINUOUS
 62
     5
 10
90.967703736000658
 20
-128.55435934560049
 30
0.0
 11
92.167277851200197
 21
-128.55435934560049
 31
0.0
  0
LINE
  8
DETAIL
  6
CONTINUOUS
 62
     5
 10
179.93611727999999
 20
-126.65503366319901
 30
0.0
 11
182.93505256799929
 21
-126.65503366319901
 31
0.0
  0
LINE
  8
DETAIL
  6
CONTINUOUS
 62
     5
 10
179.93611727999999
 20
-126.15521111519961
 30
0.0
 11
175.73760787680021
 21
-126.15521111519961
 31
0.0
  0
LINE
  8
DETAIL
  6
CONTINUOUS
 62
     5
 10
179.93611727999999
 20
-123.65609837519879
 30
0.0
 11
182.93505256799929
 21
-123.65609837519879
 31
0.0
  0
LINE
  8
DETAIL
  6
CONTINUOUS
 62
     5
 10
540.4081388975992
 20
-210.5252572175996
 30
0.0
 11
542.50137157419977
 21
-210.52515516583119
 31
0.0
  0
LINE
  8
DETAIL
  6
CONTINUOUS
 62
     5
 10
542.50137157419977
 20
-210.52515516583119
 30
0.0
 11
542.74435773982077
 21
-210.52538793219171
 31
0.0
  0
LINE
  8
DETAIL
  6
CONTINUOUS
 62
     5
 10
175.73760787680021
 20
-210.5252572175996
 30
0.0
 11
185.33420079840019
 21
-210.5252572175996
 31
0.0
  0
LINE
  8
DETAIL
  6
CONTINUOUS
 62
     5
 10
73.415677661844711
 20
-149.3469773423985
 30
0.0
 11
73.414576162909725
 21
-149.3469712515616
 31
0.0
  0
LINE
  8
DETAIL
  6
CONTINUOUS
 62
     5
 10
73.414576162909725
 20
-149.3469712515616
 30
0.0
 11
73.413498389551933
 21
-149.3469537127894
 31
0.0
  0
LINE
  8
DETAIL
  6
CONTINUOUS
 62
     5
 10
73.413498389551933
 20
-149.3469537127894
 30
0.0
 11
73.412441500779096
 21
-149.34692582968819
 31
0.0
  0
LINE
  8
DETAIL
  6
CONTINUOUS
 62
     5
 10
73.412441500779096
 20
-149.34692582968819
 30
0.0
 11
73.411402651601747
 21
-149.3468887038689
 31
0.0
  0
LINE
  8
DETAIL
  6
CONTINUOUS
 62
     5
 10
73.411402651601747
 20
-149.3468887038689
 30
0.0
 11
73.410379000028115
 21
-149.3468434369388
 31
0.0
  0
LINE
  8
DETAIL
  6
CONTINUOUS
 62
     5
 10
73.410379000028115
 20
-149.3468434369388
 30
0.0
 11
73.409367701070551
 21
-149.34679113250971
 31
0.0
  0
LINE
  8
DETAIL
  6
CONTINUOUS
 62
     5
 10
73.409367701070551
 20
-149.34679113250971
 30
0.0
 11
73.408365912734553
 21
-149.34673289118649
 31
0.0
  0
LINE
  8
DETAIL
  6
CONTINUOUS
 62
     5
 10
90.957164230841045
 20
-149.3460908201414
 30
0.0
 11
90.956084270259453
 21
-149.34603624851661
 31
0.0
  0
LINE
  8
DETAIL
  6
CONTINUOUS
 62
     5
 10
90.956084270259453
 20
-149.34603624851661
 30
0.0
 11
90.955031971857352
 21
-149.34599117851761
 31
0.0
  0
LINE
  8
DETAIL
  6
CONTINUOUS
 62
     5
 10
90.955031971857352
 20
-149.34599117851761
 30
0.0
 11
90.95400619803695
 21
-149.3459551713004
 31
0.0
  0
LINE
  8
DETAIL
  6
CONTINUOUS
 62
     5
 10
90.95400619803695
 20
-149.3459551713004
 30
0.0
 11
90.953005811204093
 21
-149.34592778402481
 31
0.0
  0
LINE
  8
DETAIL
  6
CONTINUOUS
 62
     5
 10
90.953005811204093
 20
-149.34592778402481
 30
0.0
 11
90.952029673761899
 21
-149.3459085768427
 31
0.0
  0
LINE
  8
DETAIL
  6
CONTINUOUS
 62
     5
 10
90.952029673761899
 20
-149.3459085768427
 30
0.0
 11
90.951076649114839
 21
-149.3458971079144
 31
0.0
  0
LINE
  8
DETAIL
  6
CONTINUOUS
 62
     5
 10
90.951076649114839
 20
-149.3458971079144
 30
0.0
 11
90.950145597666051
 21
-149.34589293739549
 31
0.0
  0
LINE
  8
DETAIL
  6
CONTINUOUS
 62
     5
 10
90.950145597666051
 20
-149.34589293739549
 30
0.0
 11
90.949235384818166
 21
-149.34589562344081
 31
0.0
  0
LINE
  8
DETAIL
  6
CONTINUOUS
 62
     5
 10
90.949235384818166
 20
-149.34589562344081
 30
0.0
 11
90.948344870977053
 21
-149.34590472521089
 31
0.0
  0
LINE
  8
DETAIL
  6
CONTINUOUS
 62
     5
 10
90.948344870977053
 20
-149.34590472521089
 30
0.0
 11
90.947472918546737
 21
-149.34591980185911
 31
0.0
  0
LINE
  8
DETAIL
  6
CONTINUOUS
 62
     5
 10
90.947472918546737
 20
-149.34591980185911
 30
0.0
 11
90.946618390929871
 21
-149.34594041254061
 31
0.0
  0
LINE
  8
DETAIL
  6
CONTINUOUS
 62
     5
 10
90.946618390929871
 20
-149.34594041254061
 30
0.0
 11
90.945780150530481
 21
-149.34596611541559
 31
0.0
  0
LINE
  8
DETAIL
  6
CONTINUOUS
 62
     5
 10
90.945780150530481
 20
-149.34596611541559
 30
0.0
 11
90.944957059752596
 21
-149.34599647063811
 31
0.0
  0
LINE
  8
DETAIL
  6
CONTINUOUS
 62
     5
 10
90.944957059752596
 20
-149.34599647063811
 30
0.0
 11
90.944147980999333
 21
-149.3460310373666
 31
0.0
  0
LINE
  8
DETAIL
  6
CONTINUOUS
 62
     5
 10
90.944147980999333
 20
-149.3460310373666
 30
0.0
 11
90.943351776676536
 21
-149.34606937275569
 31
0.0
  0
LINE
  8
DETAIL
  6
CONTINUOUS
 62
     5
 10
90.943351776676536
 20
-149.34606937275569
 30
0.0
 11
90.942567308185971
 21
-149.34611103796311
 31
0.0
  0
LINE
  8
DETAIL
  6
CONTINUOUS
 62
     5
 10
90.942567308185971
 20
-149.34611103796311
 30
0.0
 11
90.941793439932553
 21
-149.34615559114539
 31
0.0
  0
LINE
  8
DETAIL
  6
CONTINUOUS
 62
     5
 10
90.941793439932553
 20
-149.34615559114539
 30
0.0
 11
90.940272951751467
 21
-149.3462515970605
 31
0.0
  0
LINE
  8
DETAIL
  6
CONTINUOUS
 62
     5
 10
73.399086473214993
 20
-149.34611103796311
 30
0.0
 11
73.398302005723053
 21
-149.34606937275569
 31
0.0
  0
LINE
  8
DETAIL
  6
CONTINUOUS
 62
     5
 10
73.398302005723053
 20
-149.34606937275569
 30
0.0
 11
73.397505801400257
 21
-149.3460310373666
 31
0.0
  0
LINE
  8
DETAIL
  6
CONTINUOUS
 62
     5
 10
73.397505801400257
 20
-149.3460310373666
 30
0.0
 11
73.396696722646993
 21
-149.34599647063811
 31
0.0
  0
LINE
  8
DETAIL
  6
CONTINUOUS
 62
     5
 10
73.396696722646993
 20
-149.34599647063811
 30
0.0
 11
73.395873630869573
 21
-149.34596611541559
 31
0.0
  0
LINE
  8
DETAIL
  6
CONTINUOUS
 62
     5
 10
73.395873630869573
 20
-149.34596611541559
 30
0.0
 11
73.395035390470184
 21
-149.34594041254061
 31
0.0
  0
LINE
  8
DETAIL
  6
CONTINUOUS
 62
     5
 10
73.395035390470184
 20
-149.34594041254061
 30
0.0
 11
73.394180863852853
 21
-149.34591980185911
 31
0.0
  0
LINE
  8
DETAIL
  6
CONTINUOUS
 62
     5
 10
73.394180863852853
 20
-149.34591980185911
 30
0.0
 11
73.393308911422537
 21
-149.34590472521089
 31
0.0
  0
LINE
  8
DETAIL
  6
CONTINUOUS
 62
     5
 10
73.393308911422537
 20
-149.34590472521089
 30
0.0
 11
73.392418397581423
 21
-149.34589562344081
 31
0.0
  0
LINE
  8
DETAIL
  6
CONTINUOUS
 62
     5
 10
73.392418397581423
 20
-149.34589562344081
 30
0.0
 11
73.391508183734913
 21
-149.34589293739549
 31
0.0
  0
LINE
  8
DETAIL
  6
CONTINUOUS
 62
     5
 10
73.391508183734913
 20
-149.34589293739549
 30
0.0
 11
73.390577133284751
 21
-149.3458971079144
 31
0.0
  0
LINE
  8
DETAIL
  6
CONTINUOUS
 62
     5
 10
73.390577133284751
 20
-149.3458971079144
 30
0.0
 11
73.38962410863769
 21
-149.3459085768427
 31
0.0
  0
LINE
  8
DETAIL
  6
CONTINUOUS
 62
     5
 10
73.38962410863769
 20
-149.3459085768427
 30
0.0
 11
73.388647971195496
 21
-149.34592778402481
 31
0.0
  0
LINE
  8
DETAIL
  6
CONTINUOUS
 62
     5
 10
73.388647971195496
 20
-149.34592778402481
 30
0.0
 11
73.387647584363549
 21
-149.3459551713004
 31
0.0
  0
LINE
  8
DETAIL
  6
CONTINUOUS
 62
     5
 10
73.387647584363549
 20
-149.3459551713004
 30
0.0
 11
73.386621810544057
 21
-149.34599117851761
 31
0.0
  0
LINE
  8
DETAIL
  6
CONTINUOUS
 62
     5
 10
73.386621810544057
 20
-149.34599117851761
 30
0.0
 11
73.385569512141046
 21
-149.34603624851661
 31
0.0
  0
LINE
  8
DETAIL
  6
CONTINUOUS
 62
     5
 10
73.385569512141046
 20
-149.34603624851661
 30
0.0
 11
73.38448955055992
 21
-149.3460908201414
 31
0.0
  0
LINE
  8
DETAIL
  6
CONTINUOUS
 62
     5
 10
90.959008448088753
 20
-149.34619454731549
 30
0.0
 11
90.957164230841045
 21
-149.3460908201414
 31
0.0
  0
LINE
  8
DETAIL
  6
CONTINUOUS
 62
     5
 10
73.4006247480811
 20
-149.34620259045909
 30
0.0
 11
73.399086473214993
 21
-149.34611103796311
 31
0.0
  0
LINE
  8
DETAIL
  6
CONTINUOUS
 62
     5
 10
73.408365912734553
 20
-149.34673289118649
 30
0.0
 11
73.406379491973894
 21
-149.34660301229809
 31
0.0
  0
LINE
  8
DETAIL
  6
CONTINUOUS
 62
     5
 10
73.402395663351854
 20
-149.34632052358941
 30
0.0
 11
73.4006247480811
 21
-149.34620259045909
 31
0.0
  0
LINE
  8
DETAIL
  6
CONTINUOUS
 62
     5
 10
73.406379491973894
 20
-149.34660301229809
 30
0.0
 11
73.402395663351854
 21
-149.34632052358941
 31
0.0
  0
LINE
  8
DETAIL
  6
CONTINUOUS
 62
     5
 10
553.21260267080652
 20
-284.80789439480583
 30
0.0
 11
556.39345393617714
 21
-287.98874566017548
 31
0.0
  0
LINE
  8
DETAIL
  6
CONTINUOUS
 62
     5
 10
486.23638123880659
 20
-217.73170845320601
 30
0.0
 11
489.41723250417641
 21
-220.91255971857569
 31
0.0
  0
LINE
  8
DETAIL
  6
CONTINUOUS
 62
     5
 10
738.14694543080623
 20
-421.2594499988063
 30
0.0
 11
741.32779669617685
 21
-424.44030126417601
 31
0.0
  0
LINE
  8
DETAIL
  6
CONTINUOUS
 62
     5
 10
368.2782599108059
 20
-11.904783186806529
 30
0.0
 11
371.45911117617652
 21
-15.08563445217624
 31
0.0
  0
LINE
  8
DETAIL
  6
CONTINUOUS
 62
     5
 10
790.71927093600061
 20
-424.84916580000032
 30
0.0
 11
795.71749641600036
 21
-429.84739128000001
 31
0.0
  0
LINE
  8
DETAIL
  6
CONTINUOUS
 62
     5
 10
553.21260267080652
 20
-148.35633879080521
 30
0.0
 11
556.39345393617714
 21
-151.5371900561768
 31
0.0
  0
LINE
  8
DETAIL
  6
CONTINUOUS
 62
     5
 10
486.23638123880659
 20
-53.390054670806421
 30
0.0
 11
489.41723250417641
 21
-56.570905936176132
 31
0.0
  0
LINE
  8
DETAIL
  6
CONTINUOUS
 62
     5
 10
815.31954684200628
 20
-365.77914717080603
 30
0.0
 11
818.5003981073769
 21
-368.95999843617568
 31
0.0
  0
LINE
  8
DETAIL
  6
CONTINUOUS
 62
     5
 10
738.14694543080623
 20
-284.80789439480583
 30
0.0
 11
741.32779669617685
 21
-287.98874566017548
 31
0.0
  0
LINE
  8
DETAIL
  6
CONTINUOUS
 62
     5
 10
552.0040220112005
 20
-65.776647316799426
 30
0.0
 11
550.00473181920006
 21
-63.777357124799892
 31
0.0
  0
LINE
  8
DETAIL
  6
CONTINUOUS
 62
     5
 10
540.4081388975992
 20
-49.982254799999282
 30
0.0
 11
538.40884870560058
 21
-47.982964607999747
 31
0.0
  0
LINE
  8
DETAIL
  6
CONTINUOUS
 62
     5
 10
471.83248531199928
 20
-259.30793790239841
 30
0.0
 11
471.83248531199928
 21
-361.82922928715737
 31
0.0
  0
LINE
  8
DETAIL
  6
CONTINUOUS
 62
     5
 10
540.4081388975992
 20
-224.32035954239839
 30
0.0
 11
540.4081388975992
 21
-210.5252572175996
 31
0.0
  0
LINE
  8
DETAIL
  6
CONTINUOUS
 62
     5
 10
540.4081388975992
 20
-63.777357124799892
 30
0.0
 11
540.4081388975992
 21
-49.982254799999282
 31
0.0
  0
LINE
  8
DETAIL
  6
CONTINUOUS
 62
     5
 10
541.80764203199942
 20
-6.997515671999281
 30
0.0
 11
541.80764203199942
 21
-63.005232053363223
 31
0.0
  0
LINE
  8
DETAIL
  6
CONTINUOUS
 62
     5
 10
541.80764203199942
 20
-211.29760049356449
 30
0.0
 11
541.80764203199942
 21
-424.84916580000032
 31
0.0
  0
LINE
  8
DETAIL
  6
CONTINUOUS
 62
     5
 10
542.8072871280001
 20
-63.777357124799892
 30
0.0
 11
542.8072871280001
 21
-210.5252572175996
 31
0.0
  0
LINE
  8
DETAIL
  6
CONTINUOUS
 62
     5
 10
552.0040220112005
 20
-65.776647316799426
 30
0.0
 11
552.0040220112005
 21
-142.94924872799859
 31
0.0
  0
LINE
  8
DETAIL
  6
CONTINUOUS
 62
     5
 10
552.0040220112005
 20
-156.94428007199889
 30
0.0
 11
552.0040220112005
 21
-208.52596702560001
 31
0.0
  0
LINE
  8
DETAIL
  6
CONTINUOUS
 62
     5
 10
571.79699491199972
 20
-429.84739128000001
 30
0.0
 11
571.79699491199972
 21
0.0
 31
0.0
  0
LINE
  8
DETAIL
  6
CONTINUOUS
 62
     5
 10
572.79664000799949
 20
-1.9992901919995349
 30
0.0
 11
572.79664000799949
 21
-429.84739128000001
 31
0.0
  0
LINE
  8
DETAIL
  6
CONTINUOUS
 62
     5
 10
573.79628510400016
 20
-1.9992901919995349
 30
0.0
 11
573.79628510400016
 21
0.0
 31
0.0
  0
LINE
  8
DETAIL
  6
CONTINUOUS
 62
     5
 10
-368.27825991080681
 20
-421.2594499988063
 30
0.0
 11
-371.45911117617652
 21
-424.44030126417601
 31
0.0
  0
LINE
  8
DETAIL
  6
CONTINUOUS
 62
     5
 10
1.5904256091935169
 20
-148.35633879080521
 30
0.0
 11
-1.590425656176194
 21
-151.5371900561768
 31
0.0
  0
LINE
  8
DETAIL
  6
CONTINUOUS
 62
     5
 10
186.5247683691932
 20
-11.904783186806529
 30
0.0
 11
183.34391710382349
 21
-15.08563445217624
 31
0.0
  0
LINE
  8
DETAIL
  6
CONTINUOUS
 62
     5
 10
187.33349099040061
 20
-47.982964607999747
 30
0.0
 11
185.33420079840019
 21
-49.982254799999282
 31
0.0
  0
LINE
  8
DETAIL
  6
CONTINUOUS
 62
     5
 10
83.761252500393311
 20
-153.35456427080501
 30
0.0
 11
80.580401235023601
 21
-156.53541553617649
 31
0.0
  0
LINE
  8
DETAIL
  6
CONTINUOUS
 62
     5
 10
-183.3439171508071
 20
-421.2594499988063
 30
0.0
 11
-186.52476841617681
 21
-424.44030126417601
 31
0.0
  0
LINE
  8
DETAIL
  6
CONTINUOUS
 62
     5
 10
175.73760787680021
 20
-63.777357124799892
 30
0.0
 11
173.7383176847998
 21
-65.776647316799426
 31
0.0
  0
LINE
  8
DETAIL
  6
CONTINUOUS
 62
     5
 10
1.5904256091935169
 20
-284.80789439480583
 30
0.0
 11
-1.590425656176194
 21
-287.98874566017548
 31
0.0
  0
LINE
  8
DETAIL
  6
CONTINUOUS
 62
     5
 10
239.5059584571936
 20
-53.390054670806421
 30
0.0
 11
236.32510719182301
 21
-56.570905936176132
 31
0.0
  0
LINE
  8
DETAIL
  6
CONTINUOUS
 62
     5
 10
90.940272951751467
 20
-149.3462515970605
 30
0.0
 11
90.934282991366672
 21
-149.34666981757979
 31
0.0
  0
LINE
  8
DETAIL
  6
CONTINUOUS
 62
     5
 10
90.934282991366672
 20
-149.34666981757979
 30
0.0
 11
90.933287869665037
 21
-149.34673289118649
 31
0.0
  0
LINE
  8
DETAIL
  6
CONTINUOUS
 62
     5
 10
90.933287869665037
 20
-149.34673289118649
 30
0.0
 11
90.932286081330858
 21
-149.34679113250971
 31
0.0
  0
LINE
  8
DETAIL
  6
CONTINUOUS
 62
     5
 10
90.932286081330858
 20
-149.34679113250971
 30
0.0
 11
90.931274782371474
 21
-149.3468434369388
 31
0.0
  0
LINE
  8
DETAIL
  6
CONTINUOUS
 62
     5
 10
90.931274782371474
 20
-149.3468434369388
 30
0.0
 11
90.930251130797842
 21
-149.3468887038689
 31
0.0
  0
LINE
  8
DETAIL
  6
CONTINUOUS
 62
     5
 10
90.930251130797842
 20
-149.3468887038689
 30
0.0
 11
90.929212281620494
 21
-149.34692582968819
 31
0.0
  0
LINE
  8
DETAIL
  6
CONTINUOUS
 62
     5
 10
90.929212281620494
 20
-149.34692582968819
 30
0.0
 11
90.928155392847657
 21
-149.3469537127894
 31
0.0
  0
LINE
  8
DETAIL
  6
CONTINUOUS
 62
     5
 10
90.928155392847657
 20
-149.3469537127894
 30
0.0
 11
90.927077619489864
 21
-149.3469712515616
 31
0.0
  0
LINE
  8
DETAIL
  6
CONTINUOUS
 62
     5
 10
90.927077619489864
 20
-149.3469712515616
 30
0.0
 11
90.925976119556253
 21
-149.3469773423985
 31
0.0
  0
LINE
  8
DETAIL
  6
CONTINUOUS
 62
     5
 10
73.38448955055992
 20
-149.3460908201414
 30
0.0
 11
73.382645333312212
 21
-149.34619454731549
 31
0.0
  0
LINE
  8
DETAIL
  6
CONTINUOUS
 62
     5
 10
73.382645333312212
 20
-149.34619454731549
 30
0.0
 11
73.382026189126918
 21
-149.34622613410099
 31
0.0
  0
LINE
  8
DETAIL
  6
CONTINUOUS
 62
     5
 10
73.382026189126918
 20
-149.34622613410099
 30
0.0
 11
73.381409573044039
 21
-149.34625298257009
 31
0.0
  0
LINE
  8
DETAIL
  6
CONTINUOUS
 62
     5
 10
73.381409573044039
 20
-149.34625298257009
 30
0.0
 11
73.380798324055831
 21
-149.346273145411
 31
0.0
  0
LINE
  8
DETAIL
  6
CONTINUOUS
 62
     5
 10
73.380798324055831
 20
-149.346273145411
 30
0.0
 11
73.380195281154556
 21
-149.34628467531729
 31
0.0
  0
LINE
  8
DETAIL
  6
CONTINUOUS
 62
     5
 10
73.380195281154556
 20
-149.34628467531729
 30
0.0
 11
73.379603284331097
 21
-149.34628562697981
 31
0.0
  0
LINE
  8
DETAIL
  6
CONTINUOUS
 62
     5
 10
73.379603284331097
 20
-149.34628562697981
 30
0.0
 11
73.379025171579087
 21
-149.34627405308859
 31
0.0
  0
LINE
  8
DETAIL
  6
CONTINUOUS
 62
     5
 10
73.379025171579087
 20
-149.34627405308859
 30
0.0
 11
73.378463781888058
 21
-149.34624800733579
 31
0.0
  0
LINE
  8
DETAIL
  6
CONTINUOUS
 62
     5
 10
73.378463781888058
 20
-149.34624800733579
 30
0.0
 11
73.377921954253907
 21
-149.34620554241161
 31
0.0
  0
LINE
  8
DETAIL
  6
CONTINUOUS
 62
     5
 10
73.377921954253907
 20
-149.34620554241161
 30
0.0
 11
73.377402527665254
 21
-149.34614471300671
 31
0.0
  0
LINE
  8
DETAIL
  6
CONTINUOUS
 62
     5
 10
73.377402527665254
 20
-149.34614471300671
 30
0.0
 11
73.377070090689813
 21
-149.34609299536899
 31
0.0
  0
LINE
  8
DETAIL
  6
CONTINUOUS
 62
     5
 10
73.377070090689813
 20
-149.34609299536899
 30
0.0
 11
73.376749711434968
 21
-149.34603167313981
 31
0.0
  0
LINE
  8
DETAIL
  6
CONTINUOUS
 62
     5
 10
73.376749711434968
 20
-149.34603167313981
 30
0.0
 11
73.376442233598937
 21
-149.34596017052539
 31
0.0
  0
LINE
  8
DETAIL
  6
CONTINUOUS
 62
     5
 10
73.376442233598937
 20
-149.34596017052539
 30
0.0
 11
73.376148495884081
 21
-149.34587790973089
 31
0.0
  0
LINE
  8
DETAIL
  6
CONTINUOUS
 62
     5
 10
73.376148495884081
 20
-149.34587790973089
 30
0.0
 11
73.375869340992722
 21
-149.34578431396039
 31
0.0
  0
LINE
  8
DETAIL
  6
CONTINUOUS
 62
     5
 10
73.375869340992722
 20
-149.34578431396039
 30
0.0
 11
73.375605609625381
 21
-149.34567880741821
 31
0.0
  0
LINE
  8
DETAIL
  6
CONTINUOUS
 62
     5
 10
73.375605609625381
 20
-149.34567880741821
 30
0.0
 11
73.375358142483492
 21
-149.34556081230949
 31
0.0
  0
LINE
  8
DETAIL
  6
CONTINUOUS
 62
     5
 10
73.375358142483492
 20
-149.34556081230949
 30
0.0
 11
73.37512778126893
 21
-149.3454297518401
 31
0.0
  0
LINE
  8
DETAIL
  6
CONTINUOUS
 62
     5
 10
73.37512778126893
 20
-149.3454297518401
 30
0.0
 11
73.374915367681751
 21
-149.34528505021439
 31
0.0
  0
LINE
  8
DETAIL
  6
CONTINUOUS
 62
     5
 10
73.374915367681751
 20
-149.34528505021439
 30
0.0
 11
73.374721741424764
 21
-149.3451261296359
 31
0.0
  0
LINE
  8
DETAIL
  6
CONTINUOUS
 62
     5
 10
73.374721741424764
 20
-149.3451261296359
 30
0.0
 11
73.37454774519847
 21
-149.34495241331021
 31
0.0
  0
LINE
  8
DETAIL
  6
CONTINUOUS
 62
     5
 10
73.37454774519847
 20
-149.34495241331021
 30
0.0
 11
73.374394218705675
 21
-149.34476332544179
 31
0.0
  0
LINE
  8
DETAIL
  6
CONTINUOUS
 62
     5
 10
73.374394218705675
 20
-149.34476332544179
 30
0.0
 11
73.374262004645971
 21
-149.3445582882359
 31
0.0
  0
LINE
  8
DETAIL
  6
CONTINUOUS
 62
     5
 10
73.374262004645971
 20
-149.3445582882359
 30
0.0
 11
73.374151942720346
 21
-149.34433672589691
 31
0.0
  0
LINE
  8
DETAIL
  6
CONTINUOUS
 62
     5
 10
73.374151942720346
 20
-149.34433672589691
 30
0.0
 11
73.374064874631586
 21
-149.34409806063189
 31
0.0
  0
LINE
  8
DETAIL
  6
CONTINUOUS
 62
     5
 10
73.374064874631586
 20
-149.34409806063189
 30
0.0
 11
73.374001642081566
 21
-149.3438417166399
 31
0.0
  0
LINE
  8
DETAIL
  6
CONTINUOUS
 62
     5
 10
73.374001642081566
 20
-149.3438417166399
 30
0.0
 11
73.37396308577172
 21
-149.34356711613151
 31
0.0
  0
LINE
  8
DETAIL
  6
CONTINUOUS
 62
     5
 10
73.37396308577172
 20
-149.34356711613151
 30
0.0
 11
73.373950046400751
 21
-149.34327368231061
 31
0.0
  0
LINE
  8
DETAIL
  6
CONTINUOUS
 62
     5
 10
-841.70117083200057
 20
-91.16763275519952
 30
0.0
 11
-842.20099338
 21
-91.16763275519952
 31
0.0
  0
LINE
  8
DETAIL
  6
CONTINUOUS
 62
     5
 10
841.90117083199971
 20
-91.16763275519952
 30
0.0
 11
842.40099338000005
 21
-91.16763275519952
 31
0.0
  0
LINE
  8
DETAIL
  6
CONTINUOUS
 62
     5
 10
-841.70117083200057
 20
-81.770968852799342
 30
0.0
 11
-842.20099338
 21
-81.770968852799342
 31
0.0
  0
LINE
  8
DETAIL
  6
CONTINUOUS
 62
     5
 10
841.90117083199971
 20
-81.770968852799342
 30
0.0
 11
842.40099338000005
 21
-81.770968852799342
 31
0.0
  0
LINE
  8
DETAIL
  6
CONTINUOUS
 62
     5
 10
841.90117083199971
 20
-65.476753787999769
 30
0.0
 11
840.90152573600085
 21
-65.476753787999769
 31
0.0
  0
LINE
  8
DETAIL
  6
CONTINUOUS
 62
     5
 10
-841.70117083200057
 20
-65.476753787999769
 30
0.0
 11
-840.90152573599994
 21
-65.476753787999769
 31
0.0
  0
LINE
  8
DETAIL
  6
CONTINUOUS
 62
     5
 10
175.73760787680021
 20
-63.777357124799892
 30
0.0
 11
182.99798195617859
 21
-63.777226410207732
 31
0.0
  0
LINE
  8
DETAIL
  6
CONTINUOUS
 62
     5
 10
185.33420079840019
 20
-62.1779249711999
 30
0.0
 11
540.4081388975992
 21
-62.1779249711999
 31
0.0
  0
LINE
  8
DETAIL
  6
CONTINUOUS
 62
     5
 10
-919.67348832000062
 20
-61.478173403998881
 30
0.0
 11
-920.67313341599947
 21
-61.478173403998881
 31
0.0
  0
LINE
  8
DETAIL
  6
CONTINUOUS
 62
     5
 10
-920.67313340200417
 20
-60.478528308000023
 30
0.0
 11
-919.67348830600349
 21
-60.478528308000023
 31
0.0
  0
LINE
  8
DETAIL
  6
CONTINUOUS
 62
     5
 10
-842.70081592800125
 20
-60.478528308000023
 30
0.0
 11
-840.90152573599994
 21
-60.478528308000023
 31
0.0
  0
LINE
  8
DETAIL
  6
CONTINUOUS
 62
     5
 10
840.90152573600085
 20
-60.478528308000023
 30
0.0
 11
920.67313341600038
 21
-60.478528308000023
 31
0.0
  0
LINE
  8
DETAIL
  6
CONTINUOUS
 62
     5
 10
-842.70081592800125
 20
-59.478883211999353
 30
0.0
 11
-919.67348832000062
 21
-59.478883211999353
 31
0.0
  0
LINE
  8
DETAIL
  6
CONTINUOUS
 62
     5
 10
842.90081592799947
 20
-59.478883211999353
 30
0.0
 11
919.67348832000062
 21
-59.478883211999353
 31
0.0
  0
LINE
  8
DETAIL
  6
CONTINUOUS
 62
     5
 10
919.67348832000062
 20
-58.479238115998669
 30
0.0
 11
904.67881188000047
 21
-58.479238115998669
 31
0.0
  0
LINE
  8
DETAIL
  6
CONTINUOUS
 62
     5
 10
-842.70081592800125
 20
-57.479593019999811
 30
0.0
 11
-919.67348832000062
 21
-57.479593019999811
 31
0.0
  0
LINE
  8
DETAIL
  6
CONTINUOUS
 62
     5
 10
842.90081592799947
 20
-57.479593019999811
 30
0.0
 11
919.67348832000062
 21
-57.479593019999811
 31
0.0
  0
LINE
  8
DETAIL
  6
CONTINUOUS
 62
     5
 10
-840.90152573599994
 20
-56.479947923999127
 30
0.0
 11
-841.70117083200057
 21
-56.479947923999127
 31
0.0
  0
LINE
  8
DETAIL
  6
CONTINUOUS
 62
     5
 10
840.90152573600085
 20
-56.479947923999127
 30
0.0
 11
841.90117083199971
 21
-56.479947923999127
 31
0.0
  0
LINE
  8
DETAIL
  6
CONTINUOUS
 62
     5
 10
-841.70117083200057
 20
-51.181828915199731
 30
0.0
 11
-842.20099338
 21
-51.181828915199731
 31
0.0
  0
LINE
  8
DETAIL
  6
CONTINUOUS
 62
     5
 10
841.90117083199971
 20
-51.181828915199731
 30
0.0
 11
842.40099338000005
 21
-51.181828915199731
 31
0.0
  0
LINE
  8
DETAIL
  6
CONTINUOUS
 62
     5
 10
187.33349099040061
 20
-47.982964607999747
 30
0.0
 11
538.40884870560058
 21
-47.982964607999747
 31
0.0
  0
LINE
  8
DETAIL
  6
CONTINUOUS
 62
     5
 10
-841.70117083200057
 20
-41.785165012799553
 30
0.0
 11
-842.20099338
 21
-41.785165012799553
 31
0.0
  0
LINE
  8
DETAIL
  6
CONTINUOUS
 62
     5
 10
841.90117083199971
 20
-41.785165012799553
 30
0.0
 11
842.40099338000005
 21
-41.785165012799553
 31
0.0
  0
LINE
  8
DETAIL
  6
CONTINUOUS
 62
     5
 10
841.90117083199971
 20
-38.486336195997858
 30
0.0
 11
840.90152573600085
 21
-38.486336195997858
 31
0.0
  0
LINE
  8
DETAIL
  6
CONTINUOUS
 62
     5
 10
-841.70117083200057
 20
-38.486336195997858
 30
0.0
 11
-840.90152573599994
 21
-38.486336195997858
 31
0.0
  0
LINE
  8
DETAIL
  6
CONTINUOUS
 62
     5
 10
841.90117083199971
 20
-33.488110715998118
 30
0.0
 11
840.90152573600085
 21
-33.488110715998118
 31
0.0
  0
LINE
  8
DETAIL
  6
CONTINUOUS
 62
     5
 10
-841.70117083200057
 20
-33.488110715998118
 30
0.0
 11
-840.90152573599994
 21
-33.488110715998118
 31
0.0
  0
LINE
  8
DETAIL
  6
CONTINUOUS
 62
     5
 10
840.90152573600085
 20
-31.688749543198359
 30
0.0
 11
841.40134828400028
 21
-31.688749543198359
 31
0.0
  0
LINE
  8
DETAIL
  6
CONTINUOUS
 62
     5
 10
840.90152573600085
 20
-22.2920856408
 30
0.0
 11
841.40134828400028
 21
-22.2920856408
 31
0.0
  0
LINE
  8
DETAIL
  6
CONTINUOUS
 62
     5
 10
-13.99503134399947
 20
-6.997515671999281
 30
0.0
 11
-15.994321535999919
 21
-6.997515671999281
 31
0.0
  0
LINE
  8
DETAIL
  6
CONTINUOUS
 62
     5
 10
-761.72956315200099
 20
-6.997515671999281
 30
0.0
 11
-763.72885334400053
 21
-6.997515671999281
 31
0.0
  0
LINE
  8
DETAIL
  6
CONTINUOUS
 62
     5
 10
761.72956315199917
 20
-6.997515671999281
 30
0.0
 11
763.72885334399962
 21
-6.997515671999281
 31
0.0
  0
LINE
  8
DETAIL
  6
CONTINUOUS
 62
     5
 10
-793.51827720479923
 20
-6.1977995952001947
 30
0.0
 11
-762.72920824799985
 21
-6.1977995952001947
 31
0.0
  0
LINE
  8
DETAIL
  6
CONTINUOUS
 62
     5
 10
762.72920824799985
 20
-6.1977995952001947
 30
0.0
 11
793.51827720480014
 21
-6.1977995952001947
 31
0.0
  0
LINE
  8
DETAIL
  6
CONTINUOUS
 62
     5
 10
-840.90152573599994
 20
-3.998580383999069
 30
0.0
 11
-795.71749641600036
 21
-3.998580383999069
 31
0.0
  0
LINE
  8
DETAIL
  6
CONTINUOUS
 62
     5
 10
795.71749641600036
 20
-3.998580383999069
 30
0.0
 11
840.90152573600085
 21
-3.998580383999069
 31
0.0
  0
LINE
  8
DETAIL
  6
CONTINUOUS
 62
     5
 10
-838.9022355440004
 20
-2.998935287998393
 30
0.0
 11
-762.72920824799985
 21
-2.998935287998393
 31
0.0
  0
LINE
  8
DETAIL
  6
CONTINUOUS
 62
     5
 10
762.72920824799985
 20
-2.998935287998393
 30
0.0
 11
838.9022355440004
 21
-2.998935287998393
 31
0.0
  0
LINE
  8
DETAIL
  6
CONTINUOUS
 62
     5
 10
-838.9022355440004
 20
-1.9992901919995349
 30
0.0
 11
838.9022355440004
 21
-1.9992901919995349
 31
0.0
  0
LINE
  8
DETAIL
  6
CONTINUOUS
 62
     5
 10
573.79628510400016
 20
-0.9996450959988579
 30
0.0
 11
571.79699491199972
 21
-0.9996450959988579
 31
0.0
  0
LINE
  8
DETAIL
  6
CONTINUOUS
 62
     5
 10
17.993611727999451
 20
-0.9996450959988579
 30
0.0
 11
-52.981190088000403
 21
-0.9996450959988579
 31
0.0
  0
LINE
  8
DETAIL
  6
CONTINUOUS
 62
     5
 10
-838.9022355440004
 20
-0.9996450959988579
 30
0.0
 11
-760.72991805600032
 21
-0.9996450959988579
 31
0.0
  0
LINE
  8
DETAIL
  6
CONTINUOUS
 62
     5
 10
760.72991805600032
 20
-0.9996450959988579
 30
0.0
 11
838.9022355440004
 21
-0.9996450959988579
 31
0.0
  0
LINE
  8
DETAIL
  6
CONTINUOUS
 62
     5
 10
-760.72991805600032
 20
0.0
 30
0.0
 11
760.72991805600032
 21
0.0
 31
0.0
  0
LINE
  8
DETAIL
  6
CONTINUOUS
 62
     5
 10
185.33420079840019
 20
-63.777357124799892
 30
0.0
 11
183.2409681217996
 21
-63.7774591765683
 31
0.0
  0
LINE
  8
DETAIL
  6
CONTINUOUS
 62
     5
 10
183.2409681217996
 20
-63.7774591765683
 30
0.0
 11
182.99798195617859
 21
-63.777226410207732
 31
0.0
  0
LINE
  8
DETAIL
  6
CONTINUOUS
 62
     5
 10
550.00473181920006
 20
-63.777357124799892
 30
0.0
 11
540.4081388975992
 21
-63.777357124799892
 31
0.0
  0
LINE
  8
DETAIL
  6
CONTINUOUS
 62
     5
 10
553.21260267080652
 20
-11.904783186806529
 30
0.0
 11
556.39345393617714
 21
-15.08563445217624
 31
0.0
  0
LINE
  8
DETAIL
  6
CONTINUOUS
 62
     5
 10
738.14694543080623
 20
-148.35633879080521
 30
0.0
 11
741.32779669617685
 21
-151.5371900561768
 31
0.0
  0
LINE
  8
DETAIL
  6
CONTINUOUS
 62
     5
 10
803.68728054252824
 20
-209.69816449932841
 30
0.0
 11
808.14047217989537
 21
-214.15135613669369
 31
0.0
  0
LINE
  8
DETAIL
  6
CONTINUOUS
 62
     5
 10
825.67947265452858
 20
-209.69816449932841
 30
0.0
 11
830.1326642918948
 21
-214.15135613669369
 31
0.0
  0
LINE
  8
DETAIL
  6
CONTINUOUS
 62
     5
 10
844.99999964879953
 20
-226.4196142439996
 30
0.0
 11
847.29918336960054
 21
-228.7187979647988
 31
0.0
  0
LINE
  8
DETAIL
  6
CONTINUOUS
 62
     5
 10
842.90081592799947
 20
-207.54728964343121
 30
0.0
 11
836.3820841093675
 21
-201.22855782479931
 31
0.0
  0
LINE
  8
DETAIL
  6
CONTINUOUS
 62
     5
 10
738.14694543080623
 20
-11.904783186806529
 30
0.0
 11
741.32779669617685
 21
-15.08563445217624
 31
0.0
  0
LINE
  8
DETAIL
  6
CONTINUOUS
 62
     5
 10
815.31954684200628
 20
-45.892716450805892
 30
0.0
 11
818.5003981073769
 21
-49.073567716175603
 31
0.0
  0
LINE
  8
DETAIL
  6
CONTINUOUS
 62
     5
 10
760.72991805600032
 20
-429.84739128000001
 30
0.0
 11
760.72991805600032
 21
0.0
 31
0.0
  0
LINE
  8
DETAIL
  6
CONTINUOUS
 62
     5
 10
761.72956315199917
 20
-429.84739128000001
 30
0.0
 11
761.72956315199917
 21
-1.9992901919995349
 31
0.0
  0
LINE
  8
DETAIL
  6
CONTINUOUS
 62
     5
 10
762.72920824799985
 20
-1.9992901919995349
 30
0.0
 11
762.72920824799985
 21
-6.997515671999281
 31
0.0
  0
LINE
  8
DETAIL
  6
CONTINUOUS
 62
     5
 10
762.72920824799985
 20
-424.84916580000032
 30
0.0
 11
762.72920824799985
 21
-429.84739128000001
 31
0.0
  0
LINE
  8
DETAIL
  6
CONTINUOUS
 62
     5
 10
763.72885334399962
 20
-424.84916580000032
 30
0.0
 11
763.72885334399962
 21
-6.997515671999281
 31
0.0
  0
LINE
  8
DETAIL
  6
CONTINUOUS
 62
     5
 10
783.72175526399951
 20
-2.998935287998393
 30
0.0
 11
783.72175526399951
 21
-1.9992901919995349
 31
0.0
  0
LINE
  8
DETAIL
  6
CONTINUOUS
 62
     5
 10
785.72104545600087
 20
-412.85342464799942
 30
0.0
 11
785.72104545600087
 21
-411.85377955199868
 31
0.0
  0
LINE
  8
DETAIL
  6
CONTINUOUS
 62
     5
 10
788.71998074400017
 20
-2.998935287998393
 30
0.0
 11
788.71998074400017
 21
-1.9992901919995349
 31
0.0
  0
LINE
  8
DETAIL
  6
CONTINUOUS
 62
     5
 10
789.71962583999994
 20
-2.998935287998393
 30
0.0
 11
789.71962583999994
 21
-1.9992901919995349
 31
0.0
  0
LINE
  8
DETAIL
  6
CONTINUOUS
 62
     5
 10
790.71927093600061
 20
-424.84916580000032
 30
0.0
 11
790.71927093600061
 21
-8.9968058639988158
 31
0.0
  0
LINE
  8
DETAIL
  6
CONTINUOUS
 62
     5
 10
790.71927093600061
 20
-2.998935287998393
 30
0.0
 11
790.71927093600061
 21
-1.9992901919995349
 31
0.0
  0
LINE
  8
DETAIL
  6
CONTINUOUS
 62
     5
 10
792.61859661840026
 20
-206.9265348719982
 30
0.0
 11
792.61859661840026
 21
-203.52774154560029
 31
0.0
  0
LINE
  8
DETAIL
  6
CONTINUOUS
 62
     5
 10
794.91778033920036
 20
-206.9265348719982
 30
0.0
 11
794.91778033920036
 21
-203.52774154560029
 31
0.0
  0
LINE
  8
DETAIL
  6
CONTINUOUS
 62
     5
 10
795.71749641600036
 20
-2.998935287998393
 30
0.0
 11
795.71749641600036
 21
-1.9992901919995349
 31
0.0
  0
LINE
  8
DETAIL
  6
CONTINUOUS
 62
     5
 10
797.21696406000046
 20
-217.9226309279984
 30
0.0
 11
797.21696406000046
 21
-198.92937410400009
 31
0.0
  0
LINE
  8
DETAIL
  6
CONTINUOUS
 62
     5
 10
175.73760787680021
 20
-168.14030514719889
 30
0.0
 11
173.7383176847998
 21
-170.13959533920021
 31
0.0
  0
LINE
  8
DETAIL
  6
CONTINUOUS
 62
     5
 10
371.45911112919288
 20
-11.904783186806529
 30
0.0
 11
368.27825986382322
 21
-15.08563445217624
 31
0.0
  0
LINE
  8
DETAIL
  6
CONTINUOUS
 62
     5
 10
1.5904256091935169
 20
-421.2594499988063
 30
0.0
 11
-1.590425656176194
 21
-424.44030126417601
 31
0.0
  0
LINE
  8
DETAIL
  6
CONTINUOUS
 62
     5
 10
239.5059584571936
 20
-217.73170845320601
 30
0.0
 11
236.32510719182301
 21
-220.91255971857569
 31
0.0
  0
LINE
  8
DETAIL
  6
CONTINUOUS
 62
     5
 10
189.52370365719341
 20
-277.7104142132066
 30
0.0
 11
186.34285239182279
 21
-280.89126547857632
 31
0.0
  0
LINE
  8
DETAIL
  6
CONTINUOUS
 62
     5
 10
489.41723245719368
 20
-53.390054670806421
 30
0.0
 11
486.23638119182311
 21
-56.570905936176132
 31
0.0
  0
LINE
  8
DETAIL
  6
CONTINUOUS
 62
     5
 10
546.80586751199917
 20
-1.9992901919995349
 30
0.0
 11
541.80764203199942
 21
-6.997515671999281
 31
0.0
  0
LINE
  8
DETAIL
  6
CONTINUOUS
 62
     5
 10
556.39345388919355
 20
-11.904783186806529
 30
0.0
 11
553.21260262382384
 21
-15.08563445217624
 31
0.0
  0
LINE
  8
DETAIL
  6
CONTINUOUS
 62
     5
 10
833.7040100639997
 20
-1.9992901919995349
 30
0.0
 11
833.7040100639997
 21
-0.9996450959988579
 31
0.0
  0
LINE
  8
DETAIL
  6
CONTINUOUS
 62
     5
 10
836.70301633280019
 20
-3.998580383999069
 30
0.0
 11
836.70301633280019
 21
-2.998935287998393
 31
0.0
  0
LINE
  8
DETAIL
  6
CONTINUOUS
 62
     5
 10
837.10287437120064
 20
-217.9226309279984
 30
0.0
 11
837.10287437120064
 21
-201.74934808663241
 31
0.0
  0
LINE
  8
DETAIL
  6
CONTINUOUS
 62
     5
 10
838.9022355440004
 20
-3.998580383999069
 30
0.0
 11
838.9022355440004
 21
-198.92937410400009
 31
0.0
  0
LINE
  8
DETAIL
  6
CONTINUOUS
 62
     5
 10
838.9022355440004
 20
-432.8463265679984
 30
0.0
 11
838.9022355440004
 21
-203.54870925943209
 31
0.0
  0
LINE
  8
DETAIL
  6
CONTINUOUS
 62
     5
 10
838.9022355440004
 20
-2.998935287998393
 30
0.0
 11
838.9022355440004
 21
-0.9996450959988579
 31
0.0
  0
LINE
  8
DETAIL
  6
CONTINUOUS
 62
     5
 10
839.90188064000017
 20
-429.84739128000001
 30
0.0
 11
839.90188064000017
 21
-432.8463265679984
 31
0.0
  0
LINE
  8
DETAIL
  6
CONTINUOUS
 62
     5
 10
840.60163220720028
 20
-198.92937410400009
 30
0.0
 11
840.60163220720028
 21
-201.22855782479931
 31
0.0
  0
LINE
  8
DETAIL
  6
CONTINUOUS
 62
     5
 10
840.90152573600085
 20
-3.998580383999069
 30
0.0
 11
840.90152573600085
 21
-198.94254301763979
 31
0.0
  0
LINE
  8
DETAIL
  6
CONTINUOUS
 62
     5
 10
840.90152573600085
 20
-205.54799945143171
 30
0.0
 11
840.90152573600085
 21
-429.84739128000001
 31
0.0
  0
LINE
  8
DETAIL
  6
CONTINUOUS
 62
     5
 10
841.40134828400028
 20
-427.548207559199
 30
0.0
 11
841.40134828400028
 21
-418.15154365679882
 31
0.0
  0
LINE
  8
DETAIL
  6
CONTINUOUS
 62
     5
 10
841.40134828400028
 20
-391.5609841032001
 30
0.0
 11
841.40134828400028
 21
-382.16432020079992
 31
0.0
  0
LINE
  8
DETAIL
  6
CONTINUOUS
 62
     5
 10
841.40134828400028
 20
-31.688749543198359
 30
0.0
 11
841.40134828400028
 21
-22.2920856408
 31
0.0
  0
LINE
  8
DETAIL
  6
CONTINUOUS
 62
     5
 10
841.90117083199971
 20
-60.478528308000023
 30
0.0
 11
841.90117083199971
 21
-199.12068087035729
 31
0.0
  0
LINE
  8
DETAIL
  6
CONTINUOUS
 62
     5
 10
841.90117083199971
 20
-206.54764454743051
 30
0.0
 11
841.90117083199971
 21
-248.95892092091529
 31
0.0
  0
LINE
  8
DETAIL
  6
CONTINUOUS
 62
     5
 10
841.90117083199971
 20
-268.90453082400018
 30
0.0
 11
841.90117083199971
 21
-352.3748963399994
 31
0.0
  0
LINE
  8
DETAIL
  6
CONTINUOUS
 62
     5
 10
841.90117083199971
 20
-356.37347672400028
 30
0.0
 11
841.90117083199971
 21
-379.36531393199948
 31
0.0
  0
LINE
  8
DETAIL
  6
CONTINUOUS
 62
     5
 10
841.90117083199971
 20
-56.479947923999127
 30
0.0
 11
841.90117083199971
 21
-33.488110715998118
 31
0.0
  0
LINE
  8
DETAIL
  6
CONTINUOUS
 62
     5
 10
842.40099338000005
 20
-371.06825963519992
 30
0.0
 11
842.40099338000005
 21
-361.67159573279969
 31
0.0
  0
LINE
  8
DETAIL
  6
CONTINUOUS
 62
     5
 10
842.40099338000005
 20
-331.08245579520008
 30
0.0
 11
842.40099338000005
 21
-321.6857918927999
 31
0.0
  0
LINE
  8
DETAIL
  6
CONTINUOUS
 62
     5
 10
842.40099338000005
 20
-211.12504427519889
 30
0.0
 11
842.40099338000005
 21
-207.04746709543181
 31
0.0
  0
LINE
  8
DETAIL
  6
CONTINUOUS
 62
     5
 10
842.40099338000005
 20
-91.16763275519952
 30
0.0
 11
842.40099338000005
 21
-81.770968852799342
 31
0.0
  0
LINE
  8
DETAIL
  6
CONTINUOUS
 62
     5
 10
842.40099338000005
 20
-51.181828915199731
 30
0.0
 11
842.40099338000005
 21
-41.785165012799553
 31
0.0
  0
LINE
  8
DETAIL
  6
CONTINUOUS
 62
     5
 10
842.90081592799947
 20
-90.61757782820132
 30
0.0
 11
842.90081592799947
 21
-199.54548427340521
 31
0.0
  0
LINE
  8
DETAIL
  6
CONTINUOUS
 62
     5
 10
842.90081592799947
 20
-355.37383162799961
 30
0.0
 11
842.90081592799947
 21
-330.53240086820188
 31
0.0
  0
LINE
  8
DETAIL
  6
CONTINUOUS
 62
     5
 10
842.90081592799947
 20
-322.2358468197981
 30
0.0
 11
842.90081592799947
 21
-203.52774154560029
 31
0.0
  0
LINE
  8
DETAIL
  6
CONTINUOUS
 62
     5
 10
842.90081592799947
 20
-82.321023779797542
 30
0.0
 11
842.90081592799947
 21
-57.479593019999811
 31
0.0
  0
LINE
  8
DETAIL
  6
CONTINUOUS
 62
     5
 10
844.99999964879953
 20
-203.52774154560029
 30
0.0
 11
844.99999964879953
 21
-268.90453082400018
 31
0.0
  0
LINE
  8
DETAIL
  6
CONTINUOUS
 62
     5
 10
847.29918336960054
 20
-228.7187979647988
 30
0.0
 11
847.29918336960054
 21
-239.11510696319971
 31
0.0
  0
LINE
  8
DETAIL
  6
CONTINUOUS
 62
     5
 10
904.67881188000047
 20
-60.478528308000023
 30
0.0
 11
904.67881188000047
 21
-57.479593019999811
 31
0.0
  0
LINE
  8
DETAIL
  6
CONTINUOUS
 62
     5
 10
910.67668245599998
 20
-59.478883211999353
 30
0.0
 11
910.67668245599998
 21
-58.479238115998669
 31
0.0
  0
LINE
  8
DETAIL
  6
CONTINUOUS
 62
     5
 10
919.67348832000062
 20
-355.37383162799961
 30
0.0
 11
919.67348832000062
 21
-57.479593019999811
 31
0.0
  0
LINE
  8
DETAIL
  6
CONTINUOUS
 62
     5
 10
920.67313341600038
 20
-352.3748963399994
 30
0.0
 11
920.67313341600038
 21
-60.478528308000023
 31
0.0
  0
LINE
  8
DETAIL
  6
CONTINUOUS
 62
     5
 10
186.5247683691932
 20
-421.2594499988063
 30
0.0
 11
183.34391710382349
 21
-424.44030126417601
 31
0.0
  0
LINE
  8
DETAIL
  6
CONTINUOUS
 62
     5
 10
556.39345388919355
 20
-148.35633879080521
 30
0.0
 11
553.21260262382384
 21
-151.5371900561768
 31
0.0
  0
LINE
  8
DETAIL
  6
CONTINUOUS
 62
     5
 10
489.41723245719368
 20
-217.73170845320601
 30
0.0
 11
486.23638119182311
 21
-220.91255971857569
 31
0.0
  0
LINE
  8
DETAIL
  6
CONTINUOUS
 62
     5
 10
741.32779664919326
 20
-11.904783186806529
 30
0.0
 11
738.14694538382355
 21
-15.08563445217624
 31
0.0
  0
LINE
  8
DETAIL
  6
CONTINUOUS
 62
     5
 10
550.00473181920006
 20
-210.5252572175996
 30
0.0
 11
552.0040220112005
 21
-208.52596702560001
 31
0.0
  0
LINE
  8
DETAIL
  6
CONTINUOUS
 62
     5
 10
538.40884870560058
 20
-226.31964973439969
 30
0.0
 11
540.4081388975992
 21
-224.32035954239839
 31
0.0
  0
LINE
  8
DETAIL
  6
CONTINUOUS
 62
     5
 10
371.45911112919288
 20
-421.2594499988063
 30
0.0
 11
368.27825986382322
 21
-424.44030126417601
 31
0.0
  0
LINE
  8
DETAIL
  6
CONTINUOUS
 62
     5
 10
795.71749641600036
 20
-3.998580383999069
 30
0.0
 11
790.71927093600061
 21
-8.9968058639988158
 31
0.0
  0
LINE
  8
DETAIL
  6
CONTINUOUS
 62
     5
 10
556.39345388919355
 20
-284.80789439480583
 30
0.0
 11
553.21260262382384
 21
-287.98874566017548
 31
0.0
  0
LINE
  8
DETAIL
  6
CONTINUOUS
 62
     5
 10
818.50039806039331
 20
-45.892716450805892
 30
0.0
 11
815.3195467950236
 21
-49.073567716175603
 31
0.0
  0
LINE
  8
DETAIL
  6
CONTINUOUS
 62
     5
 10
741.32779664919326
 20
-148.35633879080521
 30
0.0
 11
738.14694538382355
 21
-151.5371900561768
 31
0.0
  0
LINE
  8
DETAIL
  6
CONTINUOUS
 62
     5
 10
556.39345388919355
 20
-421.2594499988063
 30
0.0
 11
553.21260262382384
 21
-424.44030126417601
 31
0.0
  0
LINE
  8
DETAIL
  6
CONTINUOUS
 62
     5
 10
808.140472247871
 20
-209.69816449932841
 30
0.0
 11
803.68728061050479
 21
-214.15135613669369
 31
0.0
  0
LINE
  8
DETAIL
  6
CONTINUOUS
 62
     5
 10
741.32779664919326
 20
-284.80789439480583
 30
0.0
 11
738.14694538382355
 21
-287.98874566017548
 31
0.0
  0
LINE
  8
DETAIL
  6
CONTINUOUS
 62
     5
 10
830.13266435987134
 20
-209.69816449932841
 30
0.0
 11
825.67947272250512
 21
-214.15135613669369
 31
0.0
  0
LINE
  8
DETAIL
  6
CONTINUOUS
 62
     5
 10
844.99999964879953
 20
-241.41429068399879
 30
0.0
 11
847.29918336960054
 21
-239.11510696319971
 31
0.0
  0
LINE
  8
DETAIL
  6
CONTINUOUS
 62
     5
 10
840.90152573600085
 20
-249.95856601691409
 30
0.0
 11
842.90081592799947
 21
-247.95927582491461
 31
0.0
  0
LINE
  8
DETAIL
  6
CONTINUOUS
 62
     5
 10
741.32779664919326
 20
-421.2594499988063
 30
0.0
 11
738.14694538382355
 21
-424.44030126417601
 31
0.0
  0
LINE
  8
DETAIL
  6
CONTINUOUS
 62
     5
 10
818.50039806039331
 20
-365.77914717080603
 30
0.0
 11
815.3195467950236
 21
-368.95999843617568
 31
0.0
  0
LINE
  8
DETAIL
  6
CONTINUOUS
 62
     5
 10
832.70436496799994
 20
-432.8463265679984
 30
0.0
 11
835.70330025600015
 21
-429.84739128000001
 31
0.0
  0
ARC
  8
DETAIL
  6
CONTINUOUS
 62
     5
 10
-837.44643139215077
 20
-258.90807986399892
 30
0.0
 40
9.252964919850001
 50
144.81324676288671
 51
215.18675323711329
  0
ARC
  8
DETAIL
  6
CONTINUOUS
 62
     5
 10
-837.68009841934509
 20
-366.36992768399978
 30
0.0
 40
6.5201851386599996
 50
133.89739816709931
 51
226.10260183290069
  0
ARC
  8
DETAIL
  6
CONTINUOUS
 62
     5
 10
-837.68009843334039
 20
-326.38412384399999
 30
0.0
 40
6.5201851386599996
 50
133.89739816709931
 51
226.10260183290069
  0
ARC
  8
DETAIL
  6
CONTINUOUS
 62
     5
 10
-836.88045333733976
 20
-422.84987560799891
 30
0.0
 40
6.5201851386599996
 50
133.89739816709931
 51
226.10260183290069
  0
CIRCLE
  8
DETAIL
  6
CONTINUOUS
 62
     5
 10
-184.93434275999971
 20
-422.84987560799891
 30
0.0
 40
4.6983319512000001
  0
CIRCLE
  8
DETAIL
  6
CONTINUOUS
 62
     5
 10
-739.73737104000065
 20
-286.3983200040002
 30
0.0
 40
4.6983319512000001
  0
CIRCLE
  8
DETAIL
  6
CONTINUOUS
 62
     5
 10
-739.73737104000065
 20
-422.84987560799891
 30
0.0
 40
4.6983319512000001
  0
CIRCLE
  8
DETAIL
  6
CONTINUOUS
 62
     5
 10
-554.80302827999913
 20
-422.84987560799891
 30
0.0
 40
4.6983319512000001
  0
CIRCLE
  8
DETAIL
  6
CONTINUOUS
 62
     5
 10
-369.86868551999942
 20
-422.84987560799891
 30
0.0
 40
4.6983319512000001
  0
CIRCLE
  8
DETAIL
  6
CONTINUOUS
 62
     5
 10
-816.90997245119979
 20
-367.36957278000051
 30
0.0
 40
4.6983319512000001
  0
ARC
  8
DETAIL
  6
CONTINUOUS
 62
     5
 10
-832.93297959427719
 20
-217.74774954949231
 30
0.0
 40
4.1735603442569449
 50
182.40152257621091
 51
270.3938069713833
  0
ARC
  8
DETAIL
  6
CONTINUOUS
 62
     5
 10
-801.21554444399953
 20
-217.9226309279984
 30
0.0
 40
3.9985803839999998
 50
270.0
 51
0.0
  0
ARC
  8
DETAIL
  6
CONTINUOUS
 62
     5
 10
-842.73144925317774
 20
-356.21104919197938
 30
0.0
 40
1.8371180781578671
 50
354.92760978852027
 51
89.044567459486629
  0
ARC
  8
DETAIL
  6
CONTINUOUS
 62
     5
 10
-842.70081591400594
 20
-356.37347672400028
 30
0.0
 40
0.9996450960000001
 50
0.0
 51
90.0
  0
ARC
  8
DETAIL
  6
CONTINUOUS
 62
     5
 10
-919.67348830600349
 20
-354.37418653199887
 30
0.0
 40
0.9996450960000001
 50
90.0
 51
270.0
  0
CIRCLE
  8
DETAIL
  6
CONTINUOUS
 62
     5
 10
-827.90606850719996
 20
-211.92476035199979
 30
0.0
 40
6.9975156719999996
  0
CIRCLE
  8
DETAIL
  6
CONTINUOUS
 62
     5
 10
-805.91387639519962
 20
-211.92476035199979
 30
0.0
 40
6.9975156719999996
  0
ARC
  8
DETAIL
  6
CONTINUOUS
 62
     5
 10
-837.68009843334039
 20
-46.483496963999642
 30
0.0
 40
6.5201851386599996
 50
133.89739816709931
 51
226.10260183290069
  0
ARC
  8
DETAIL
  6
CONTINUOUS
 62
     5
 10
-837.68009843334039
 20
-86.469300803999431
 30
0.0
 40
6.5201851386599996
 50
133.89739816709931
 51
226.10260183290069
  0
ARC
  8
DETAIL
  6
CONTINUOUS
 62
     5
 10
-837.68009843334039
 20
-206.4267123239988
 30
0.0
 40
6.5201851386599996
 50
219.56665740989649
 51
226.10260183290069
  0
CIRCLE
  8
DETAIL
  6
CONTINUOUS
 62
     5
 10
-739.73737104000065
 20
-13.49520879599913
 30
0.0
 40
4.6983319512000001
  0
CIRCLE
  8
DETAIL
  6
CONTINUOUS
 62
     5
 10
-739.73737104000065
 20
-149.94676439999969
 30
0.0
 40
4.6983319512000001
  0
CIRCLE
  8
DETAIL
  6
CONTINUOUS
 62
     5
 10
-816.90997245119979
 20
-47.483142060000318
 30
0.0
 40
4.6983319512000001
  0
ARC
  8
DETAIL
  6
CONTINUOUS
 62
     5
 10
-840.57178208122048
 20
-203.36064274894221
 30
0.0
 40
4.4313691827319701
 50
90.385952760952549
 51
182.16103099719399
  0
ARC
  8
DETAIL
  6
CONTINUOUS
 62
     5
 10
-797.21696406000046
 20
-203.52774154560029
 30
0.0
 40
4.5983674416000007
 50
0.0
 51
90.0
  0
ARC
  8
DETAIL
  6
CONTINUOUS
 62
     5
 10
-840.5711853088377
 20
-203.3642386870128
 30
0.0
 40
2.1358978811826521
 50
90.816770256710086
 51
184.3902834957901
  0
ARC
  8
DETAIL
  6
CONTINUOUS
 62
     5
 10
-797.21696406000046
 20
-203.52774154560029
 30
0.0
 40
2.2991837207999999
 50
0.0
 51
90.0
  0
ARC
  8
DETAIL
  6
CONTINUOUS
 62
     5
 10
-842.73144926717305
 20
-56.642375456020012
 30
0.0
 40
1.837118078157846
 50
270.95543254051341
 51
5.0723902114797044
  0
ARC
  8
DETAIL
  6
CONTINUOUS
 62
     5
 10
-838.9022355440004
 20
-3.998580383999069
 30
0.0
 40
1.9992901919999999
 50
90.0
 51
180.0
  0
ARC
  8
DETAIL
  6
CONTINUOUS
 62
     5
 10
-838.9022355440004
 20
-3.998580383999069
 30
0.0
 40
0.9996450960000001
 50
90.0
 51
180.0
  0
ARC
  8
DETAIL
  6
CONTINUOUS
 62
     5
 10
-842.70081592800125
 20
-56.479947923999127
 30
0.0
 40
0.9996450960000001
 50
270.0
 51
0.0
  0
ARC
  8
DETAIL
  6
CONTINUOUS
 62
     5
 10
-919.67348832000062
 20
-58.479238115998669
 30
0.0
 40
0.9996450960000001
 50
90.0
 51
270.0
  0
CIRCLE
  8
DETAIL
  6
CONTINUOUS
 62
     5
 10
369.86868552000033
 20
-422.84987560799891
 30
0.0
 40
4.6983319512000001
  0
CIRCLE
  8
DETAIL
  6
CONTINUOUS
 62
     5
 10
184.93434275999971
 20
-422.84987560799891
 30
0.0
 40
4.6983319512000001
  0
CIRCLE
  8
DETAIL
  6
CONTINUOUS
 62
     5
 10
0.0
 20
-422.84987560799891
 30
0.0
 40
4.6983319512000001
  0
CIRCLE
  8
DETAIL
  6
CONTINUOUS
 62
     5
 10
187.93327804799989
 20
-279.30083982239921
 30
0.0
 40
4.6983319512000001
  0
CIRCLE
  8
DETAIL
  6
CONTINUOUS
 62
     5
 10
237.91553284800011
 20
-219.32213406239859
 30
0.0
 40
4.6983319512000001
  0
CIRCLE
  8
DETAIL
  6
CONTINUOUS
 62
     5
 10
0.0
 20
-286.3983200040002
 30
0.0
 40
4.6983319512000001
  0
CIRCLE
  8
DETAIL
  6
CONTINUOUS
 62
     5
 10
554.80302828000004
 20
-422.84987560799891
 30
0.0
 40
4.6983319512000001
  0
CIRCLE
  8
DETAIL
  6
CONTINUOUS
 62
     5
 10
487.82680684800022
 20
-219.32213406239859
 30
0.0
 40
4.6983319512000001
  0
CIRCLE
  8
DETAIL
  6
CONTINUOUS
 62
     5
 10
554.80302828000004
 20
-286.3983200040002
 30
0.0
 40
4.6983319512000001
  0
CIRCLE
  8
DETAIL
  6
CONTINUOUS
 62
     5
 10
177.93682708799949
 20
-279.30083982239921
 30
0.0
 40
3.9985803839999998
  0
ARC
  8
DETAIL
  6
CONTINUOUS
 62
     5
 10
550.00473181920006
 20
-149.94676439999969
 30
0.0
 40
4.9982254800000003
 50
90.0
 51
270.0
  0
CIRCLE
  8
DETAIL
  6
CONTINUOUS
 62
     5
 10
0.0
 20
-149.94676439999969
 30
0.0
 40
4.6983319512000001
  0
CIRCLE
  8
DETAIL
  6
CONTINUOUS
 62
     5
 10
82.170826891200704
 20
-154.94498987999941
 30
0.0
 40
4.6983319512000001
  0
CIRCLE
  8
DETAIL
  6
CONTINUOUS
 62
     5
 10
184.93434275999971
 20
-13.49520879599913
 30
0.0
 40
4.6983319512000001
  0
CIRCLE
  8
DETAIL
  6
CONTINUOUS
 62
     5
 10
369.86868552000033
 20
-13.49520879599913
 30
0.0
 40
4.6983319512000001
  0
CIRCLE
  8
DETAIL
  6
CONTINUOUS
 62
     5
 10
237.91553284800011
 20
-54.980480279999028
 30
0.0
 40
4.6983319512000001
  0
CIRCLE
  8
DETAIL
  6
CONTINUOUS
 62
     5
 10
0.0
 20
-13.49520879599913
 30
0.0
 40
4.6983319512000001
  0
CIRCLE
  8
DETAIL
  6
CONTINUOUS
 62
     5
 10
554.80302828000004
 20
-149.94676439999969
 30
0.0
 40
4.6983319512000001
  0
CIRCLE
  8
DETAIL
  6
CONTINUOUS
 62
     5
 10
487.82680684800022
 20
-54.980480279999028
 30
0.0
 40
4.6983319512000001
  0
CIRCLE
  8
DETAIL
  6
CONTINUOUS
 62
     5
 10
554.80302828000004
 20
-13.49520879599913
 30
0.0
 40
4.6983319512000001
  0
ARC
  8
DETAIL
  6
CONTINUOUS
 62
     5
 10
90.167987659199753
 20
-157.94392516799959
 30
0.0
 40
1.9992901919999999
 50
270.0
 51
0.0
  0
ARC
  8
DETAIL
  6
CONTINUOUS
 62
     5
 10
74.173666123199837
 20
-157.94392516799959
 30
0.0
 40
1.9992901919999999
 50
180.0
 51
270.0
  0
ARC
  8
DETAIL
  6
CONTINUOUS
 62
     5
 10
550.00473181920006
 20
-142.94924872799859
 30
0.0
 40
1.9992901919999999
 50
270.0
 51
0.0
  0
ARC
  8
DETAIL
  6
CONTINUOUS
 62
     5
 10
550.00473181920006
 20
-156.94428007199889
 30
0.0
 40
1.9992901919999999
 50
0.0
 51
90.0
  0
ARC
  8
DETAIL
  6
CONTINUOUS
 62
     5
 10
185.33420079840019
 20
-210.5252572175996
 30
0.0
 40
1.5994321536
 50
180.0
 51
270.0
  0
ARC
  8
DETAIL
  6
CONTINUOUS
 62
     5
 10
185.33420079840019
 20
-63.777357124799892
 30
0.0
 40
1.5994321536
 50
90.0
 51
180.0
  0
ARC
  8
DETAIL
  6
CONTINUOUS
 62
     5
 10
540.4081388975992
 20
-210.5252572175996
 30
0.0
 40
1.5994321536
 50
270.0
 51
0.0
  0
ARC
  8
DETAIL
  6
CONTINUOUS
 62
     5
 10
540.4081388975992
 20
-63.777357124799892
 30
0.0
 40
1.5994321536
 50
0.0
 51
90.0
  0
ARC
  8
DETAIL
  6
CONTINUOUS
 62
     5
 10
185.33420079840019
 20
-210.5252572175996
 30
0.0
 40
0.7997160768000001
 50
180.0
 51
270.0
  0
ARC
  8
DETAIL
  6
CONTINUOUS
 62
     5
 10
185.33420079840019
 20
-63.777357124799892
 30
0.0
 40
0.7997160768000001
 50
90.0
 51
180.0
  0
ARC
  8
DETAIL
  6
CONTINUOUS
 62
     5
 10
540.4081388975992
 20
-210.5252572175996
 30
0.0
 40
0.7997160768000001
 50
270.0
 51
0.0
  0
ARC
  8
DETAIL
  6
CONTINUOUS
 62
     5
 10
540.4081388975992
 20
-63.777357124799892
 30
0.0
 40
0.7997160768000001
 50
0.0
 51
90.0
  0
ARC
  8
DETAIL
  6
CONTINUOUS
 62
     5
 10
82.170826891200704
 20
-137.051342661598
 30
0.0
 40
0.5997870576000001
 50
0.0
 51
180.0
  0
ARC
  8
DETAIL
  6
CONTINUOUS
 62
     5
 10
82.170826891200704
 20
-140.84999402639909
 30
0.0
 40
0.5997870576000001
 50
180.0
 51
0.0
  0
ARC
  8
DETAIL
  6
CONTINUOUS
 62
     5
 10
73.87377259440018
 20
-129.25411091279969
 30
0.0
 40
0.499822548
 50
180.0
 51
270.0
  0
ARC
  8
DETAIL
  6
CONTINUOUS
 62
     5
 10
90.46788118799941
 20
-129.25411091279969
 30
0.0
 40
0.499822548
 50
270.0
 51
0.0
  0
ARC
  8
DETAIL
  6
CONTINUOUS
 62
     5
 10
90.468107527643042
 20
-148.64319643773521
 30
0.0
 40
0.4995962603389087
 50
0.025964401498681
 51
90.025957547207838
  0
ARC
  8
DETAIL
  6
CONTINUOUS
 62
     5
 10
73.873546256756526
 20
-148.6431964387339
 30
0.0
 40
0.4995962613385538
 50
89.9740426189977
 51
179.97403548078441
  0
ARC
  8
DETAIL
  6
CONTINUOUS
 62
     5
 10
836.88045333733976
 20
-386.86265215199819
 30
0.0
 40
6.5201851386599996
 50
313.89739816709931
 51
46.102601832900667
  0
ARC
  8
DETAIL
  6
CONTINUOUS
 62
     5
 10
837.88009843333953
 20
-366.36992768399978
 30
0.0
 40
6.5201851386599996
 50
313.89739816709931
 51
46.102601832900667
  0
ARC
  8
DETAIL
  6
CONTINUOUS
 62
     5
 10
837.88009843333953
 20
-326.38412384399999
 30
0.0
 40
6.5201851386599996
 50
313.89739816709931
 51
46.102601832900667
  0
ARC
  8
DETAIL
  6
CONTINUOUS
 62
     5
 10
836.88045333733976
 20
-422.84987560799891
 30
0.0
 40
6.5201851386599996
 50
313.89739816709931
 51
46.102601832900667
  0
CIRCLE
  8
DETAIL
  6
CONTINUOUS
 62
     5
 10
816.9099724512007
 20
-367.36957278000051
 30
0.0
 40
4.6983319512000001
  0
CIRCLE
  8
DETAIL
  6
CONTINUOUS
 62
     5
 10
739.73737103999974
 20
-422.84987560799891
 30
0.0
 40
4.6983319512000001
  0
ARC
  8
DETAIL
  6
CONTINUOUS
 62
     5
 10
842.90081592799947
 20
-356.37347672400028
 30
0.0
 40
1.9992901919999999
 50
90.0
 51
180.0
  0
ARC
  8
DETAIL
  6
CONTINUOUS
 62
     5
 10
842.90081592799947
 20
-356.37347672400028
 30
0.0
 40
0.9996450960000001
 50
90.0
 51
180.0
  0
ARC
  8
DETAIL
  6
CONTINUOUS
 62
     5
 10
919.67348832000062
 20
-354.37418653199887
 30
0.0
 40
0.9996450960000001
 50
270.0
 51
90.0
  0
ARC
  8
DETAIL
  6
CONTINUOUS
 62
     5
 10
837.44643139214986
 20
-258.90807986399892
 30
0.0
 40
9.252964919850001
 50
324.81324676288671
 51
35.186753237113287
  0
CIRCLE
  8
DETAIL
  6
CONTINUOUS
 62
     5
 10
805.91387639520053
 20
-211.92476035199979
 30
0.0
 40
6.9975156719999996
  0
CIRCLE
  8
DETAIL
  6
CONTINUOUS
 62
     5
 10
827.90606850720087
 20
-211.92476035199979
 30
0.0
 40
6.9975156719999996
  0
CIRCLE
  8
DETAIL
  6
CONTINUOUS
 62
     5
 10
739.73737103999974
 20
-286.3983200040002
 30
0.0
 40
4.6983319512000001
  0
ARC
  8
DETAIL
  6
CONTINUOUS
 62
     5
 10
832.93297959427809
 20
-217.74774954949231
 30
0.0
 40
4.17356034425696
 50
269.6061930286167
 51
357.59847742378912
  0
ARC
  8
DETAIL
  6
CONTINUOUS
 62
     5
 10
801.21554444399953
 20
-217.9226309279984
 30
0.0
 40
3.9985803839999998
 50
180.0
 51
270.0
  0
ARC
  8
DETAIL
  6
CONTINUOUS
 62
     5
 10
837.88009843333953
 20
-206.4267123239988
 30
0.0
 40
6.5201851386599996
 50
313.89739816709931
 51
320.43334259010351
  0
CIRCLE
  8
DETAIL
  6
CONTINUOUS
 62
     5
 10
739.73737103999974
 20
-149.94676439999969
 30
0.0
 40
4.6983319512000001
  0
ARC
  8
DETAIL
  6
CONTINUOUS
 62
     5
 10
840.57178208122048
 20
-203.36064274894221
 30
0.0
 40
4.4313691827319426
 50
357.83896900280598
 51
89.614047239047451
  0
ARC
  8
DETAIL
  6
CONTINUOUS
 62
     5
 10
797.21696406000046
 20
-203.52774154560029
 30
0.0
 40
4.5983674416000007
 50
90.0
 51
180.0
  0
ARC
  8
DETAIL
  6
CONTINUOUS
 62
     5
 10
840.60163220720028
 20
-203.52774154560029
 30
0.0
 40
2.2991837207999999
 50
0.0
 51
90.0
  0
ARC
  8
DETAIL
  6
CONTINUOUS
 62
     5
 10
797.21696406000046
 20
-203.52774154560029
 30
0.0
 40
2.2991837207999999
 50
90.0
 51
180.0
  0
ARC
  8
DETAIL
  6
CONTINUOUS
 62
     5
 10
836.88045333733976
 20
-43.48456167599943
 30
0.0
 40
6.5201851386599996
 50
4.4425595697964324
 51
39.566657409896507
  0
ARC
  8
DETAIL
  6
CONTINUOUS
 62
     5
 10
836.88045333733976
 20
-26.99041759199827
 30
0.0
 40
6.5201851386599996
 50
313.89739816709931
 51
46.102601832900667
  0
ARC
  8
DETAIL
  6
CONTINUOUS
 62
     5
 10
837.88009843333953
 20
-46.483496963999642
 30
0.0
 40
6.5201851386599996
 50
313.89739816709931
 51
46.102601832900667
  0
ARC
  8
DETAIL
  6
CONTINUOUS
 62
     5
 10
837.88009843333953
 20
-86.469300803999431
 30
0.0
 40
6.5201851386599996
 50
313.89739816709931
 51
46.102601832900667
  0
CIRCLE
  8
DETAIL
  6
CONTINUOUS
 62
     5
 10
816.9099724512007
 20
-47.483142060000318
 30
0.0
 40
4.6983319512000001
  0
CIRCLE
  8
DETAIL
  6
CONTINUOUS
 62
     5
 10
739.73737103999974
 20
-13.49520879599913
 30
0.0
 40
4.6983319512000001
  0
ARC
  8
DETAIL
  6
CONTINUOUS
 62
     5
 10
842.90081592799947
 20
-56.479947923999127
 30
0.0
 40
1.9992901919999999
 50
180.0
 51
270.0
  0
ARC
  8
DETAIL
  6
CONTINUOUS
 62
     5
 10
838.9022355440004
 20
-3.998580383999069
 30
0.0
 40
1.9992901919999999
 50
0.0
 51
90.0
  0
ARC
  8
DETAIL
  6
CONTINUOUS
 62
     5
 10
838.9022355440004
 20
-3.998580383999069
 30
0.0
 40
0.9996450960000001
 50
0.0
 51
90.0
  0
ARC
  8
DETAIL
  6
CONTINUOUS
 62
     5
 10
842.90081592799947
 20
-56.479947923999127
 30
0.0
 40
0.9996450960000001
 50
180.0
 51
270.0
  0
ARC
  8
DETAIL
  6
CONTINUOUS
 62
     5
 10
919.67348832000062
 20
-58.479238115998669
 30
0.0
 40
0.9996450960000001
 50
270.0
 51
90.0
  0
LINE
  8
BASIS
  6
DASHDOT
 62
     6
 39
50.0
 10
-1029.9563735748691
 20
0.0
 30
0.0
 11
1029.9563735748691
 21
0.0
 31
0.0
  0
LINE
  8
BASIS
  6
DASHDOT
 62
     6
 39
50.0
 10
0.0000075193302109
 20
100.6956251315564
 30
0.0
 11
0.0000075193302109
 21
-533.54195169955483
 31
0.0
  0
LINE
  8
OUTLINE
  6
CONTINUOUS
 62
     3
 10
-920.67313341599947
 20
-352.3748963399994
 30
0.0
 11
-920.67313340200417
 21
-60.478528308000023
 31
0.0
  0
LINE
  8
OUTLINE
  6
CONTINUOUS
 62
     3
 10
-919.67348830600349
 20
-355.37383162799961
 30
0.0
 11
-919.67348832000062
 21
-57.479593019999811
 31
0.0
  0
LINE
  8
OUTLINE
  6
CONTINUOUS
 62
     3
 10
-841.70117081800527
 20
-379.36531393199948
 30
0.0
 11
-841.70117081800527
 21
-356.37347672400028
 31
0.0
  0
LINE
  8
OUTLINE
  6
CONTINUOUS
 62
     3
 10
-841.70117083200057
 20
-56.479947923999127
 30
0.0
 11
-841.70117083200057
 21
-33.488110715998118
 31
0.0
  0
LINE
  8
OUTLINE
  6
CONTINUOUS
 62
     3
 10
-840.90152573599994
 20
-429.84739128000001
 30
0.0
 11
-840.90152573599994
 21
-205.54799945143171
 31
0.0
  0
LINE
  8
OUTLINE
  6
CONTINUOUS
 62
     3
 10
-840.90152573599994
 20
-198.94254301763979
 30
0.0
 11
-840.90152573599994
 21
-3.998580383999069
 31
0.0
  0
LINE
  8
OUTLINE
  6
CONTINUOUS
 62
     3
 10
-838.9022355440004
 20
-2.998935287998393
 30
0.0
 11
-838.9022355440004
 21
-0.9996450959988579
 31
0.0
  0
LINE
  8
OUTLINE
  6
CONTINUOUS
 62
     3
 10
-835.90330025600019
 20
-429.84739128000001
 30
0.0
 11
-832.70436496799994
 21
-432.8463265679984
 31
0.0
  0
LINE
  8
OUTLINE
  6
CONTINUOUS
 62
     3
 10
-832.70436496799994
 20
-432.8463265679984
 30
0.0
 11
832.70436496799994
 21
-432.8463265679984
 31
0.0
  0
LINE
  8
OUTLINE
  6
CONTINUOUS
 62
     3
 10
-795.71749641600036
 20
-429.84739128000001
 30
0.0
 11
-840.90152573599994
 21
-429.84739128000001
 31
0.0
  0
LINE
  8
OUTLINE
  6
CONTINUOUS
 62
     3
 10
795.71749641600036
 20
-429.84739128000001
 30
0.0
 11
840.90152573600085
 21
-429.84739128000001
 31
0.0
  0
LINE
  8
OUTLINE
  6
CONTINUOUS
 62
     3
 10
841.90117083199971
 20
-379.36531393199948
 30
0.0
 11
840.90152573600085
 21
-379.36531393199948
 31
0.0
  0
LINE
  8
OUTLINE
  6
CONTINUOUS
 62
     3
 10
-841.70117081800527
 20
-379.36531393199948
 30
0.0
 11
-840.90152572200464
 21
-379.36531393199948
 31
0.0
  0
LINE
  8
OUTLINE
  6
CONTINUOUS
 62
     3
 10
-919.67348830600349
 20
-355.37383162799961
 30
0.0
 11
-842.70081591400594
 21
-355.37383162799961
 31
0.0
  0
LINE
  8
OUTLINE
  6
CONTINUOUS
 62
     3
 10
842.90081592799947
 20
-355.37383162799961
 30
0.0
 11
919.67348832000062
 21
-355.37383162799961
 31
0.0
  0
LINE
  8
OUTLINE
  6
CONTINUOUS
 62
     3
 10
920.67313341600038
 20
-352.3748963399994
 30
0.0
 11
919.67348832000062
 21
-352.3748963399994
 31
0.0
  0
LINE
  8
OUTLINE
  6
CONTINUOUS
 62
     3
 10
-920.67313341599947
 20
-352.3748963399994
 30
0.0
 11
-840.90152573599994
 21
-352.3748963399994
 31
0.0
  0
LINE
  8
OUTLINE
  6
CONTINUOUS
 62
     3
 10
-920.67313340200417
 20
-60.478528308000023
 30
0.0
 11
-919.67348830600349
 21
-60.478528308000023
 31
0.0
  0
LINE
  8
OUTLINE
  6
CONTINUOUS
 62
     3
 10
840.90152573600085
 20
-60.478528308000023
 30
0.0
 11
920.67313341600038
 21
-60.478528308000023
 31
0.0
  0
LINE
  8
OUTLINE
  6
CONTINUOUS
 62
     3
 10
-842.70081592800125
 20
-57.479593019999811
 30
0.0
 11
-919.67348832000062
 21
-57.479593019999811
 31
0.0
  0
LINE
  8
OUTLINE
  6
CONTINUOUS
 62
     3
 10
842.90081592799947
 20
-57.479593019999811
 30
0.0
 11
919.67348832000062
 21
-57.479593019999811
 31
0.0
  0
LINE
  8
OUTLINE
  6
CONTINUOUS
 62
     3
 10
841.90117083199971
 20
-33.488110715998118
 30
0.0
 11
840.90152573600085
 21
-33.488110715998118
 31
0.0
  0
LINE
  8
OUTLINE
  6
CONTINUOUS
 62
     3
 10
-841.70117083200057
 20
-33.488110715998118
 30
0.0
 11
-840.90152573599994
 21
-33.488110715998118
 31
0.0
  0
LINE
  8
OUTLINE
  6
CONTINUOUS
 62
     3
 10
-838.9022355440004
 20
-0.9996450959988579
 30
0.0
 11
-760.72991805600032
 21
-0.9996450959988579
 31
0.0
  0
LINE
  8
OUTLINE
  6
CONTINUOUS
 62
     3
 10
760.72991805600032
 20
-0.9996450959988579
 30
0.0
 11
838.9022355440004
 21
-0.9996450959988579
 31
0.0
  0
LINE
  8
OUTLINE
  6
CONTINUOUS
 62
     3
 10
-760.72991805600032
 20
0.0
 30
0.0
 11
760.72991805600032
 21
0.0
 31
0.0
  0
LINE
  8
OUTLINE
  6
CONTINUOUS
 62
     3
 10
760.72991805600032
 20
-429.84739128000001
 30
0.0
 11
760.72991805600032
 21
0.0
 31
0.0
  0
LINE
  8
OUTLINE
  6
CONTINUOUS
 62
     3
 10
838.9022355440004
 20
-2.998935287998393
 30
0.0
 11
838.9022355440004
 21
-0.9996450959988579
 31
0.0
  0
LINE
  8
OUTLINE
  6
CONTINUOUS
 62
     3
 10
840.90152573600085
 20
-3.998580383999069
 30
0.0
 11
840.90152573600085
 21
-198.94254301763979
 31
0.0
  0
LINE
  8
OUTLINE
  6
CONTINUOUS
 62
     3
 10
840.90152573600085
 20
-205.54799945143171
 30
0.0
 11
840.90152573600085
 21
-429.84739128000001
 31
0.0
  0
LINE
  8
OUTLINE
  6
CONTINUOUS
 62
     3
 10
841.90117083199971
 20
-356.37347672400028
 30
0.0
 11
841.90117083199971
 21
-379.36531393199948
 31
0.0
  0
LINE
  8
OUTLINE
  6
CONTINUOUS
 62
     3
 10
841.90117083199971
 20
-56.479947923999127
 30
0.0
 11
841.90117083199971
 21
-33.488110715998118
 31
0.0
  0
LINE
  8
OUTLINE
  6
CONTINUOUS
 62
     3
 10
919.67348832000062
 20
-355.37383162799961
 30
0.0
 11
919.67348832000062
 21
-57.479593019999811
 31
0.0
  0
LINE
  8
OUTLINE
  6
CONTINUOUS
 62
     3
 10
920.67313341600038
 20
-352.3748963399994
 30
0.0
 11
920.67313341600038
 21
-60.478528308000023
 31
0.0
  0
LINE
  8
OUTLINE
  6
CONTINUOUS
 62
     3
 10
832.70436496799994
 20
-432.8463265679984
 30
0.0
 11
835.70330025600015
 21
-429.84739128000001
 31
0.0
  0
ARC
  8
OUTLINE
  6
CONTINUOUS
 62
     3
 10
-842.70081591400594
 20
-356.37347672400028
 30
0.0
 40
0.9996450960000001
 50
0.0
 51
90.0
  0
ARC
  8
OUTLINE
  6
CONTINUOUS
 62
     3
 10
-919.67348830600349
 20
-354.37418653199887
 30
0.0
 40
0.9996450960000001
 50
90.0
 51
270.0
  0
ARC
  8
OUTLINE
  6
CONTINUOUS
 62
     3
 10
-838.9022355440004
 20
-3.998580383999069
 30
0.0
 40
1.9992901919999999
 50
90.0
 51
180.0
  0
ARC
  8
OUTLINE
  6
CONTINUOUS
 62
     3
 10
-842.70081592800125
 20
-56.479947923999127
 30
0.0
 40
0.9996450960000001
 50
270.0
 51
0.0
  0
ARC
  8
OUTLINE
  6
CONTINUOUS
 62
     3
 10
-919.67348832000062
 20
-58.479238115998669
 30
0.0
 40
0.9996450960000001
 50
90.0
 51
270.0
  0
ARC
  8
OUTLINE
  6
CONTINUOUS
 62
     3
 10
842.90081592799947
 20
-356.37347672400028
 30
0.0
 40
0.9996450960000001
 50
90.0
 51
180.0
  0
ARC
  8
OUTLINE
  6
CONTINUOUS
 62
     3
 10
919.67348832000062
 20
-354.37418653199887
 30
0.0
 40
0.9996450960000001
 50
270.0
 51
90.0
  0
ARC
  8
OUTLINE
  6
CONTINUOUS
 62
     3
 10
838.9022355440004
 20
-3.998580383999069
 30
0.0
 40
1.9992901919999999
 50
0.0
 51
90.0
  0
ARC
  8
OUTLINE
  6
CONTINUOUS
 62
     3
 10
842.90081592799947
 20
-56.479947923999127
 30
0.0
 40
0.9996450960000001
 50
180.0
 51
270.0
  0
ARC
  8
OUTLINE
  6
CONTINUOUS
 62
     3
 10
919.67348832000062
 20
-58.479238115998669
 30
0.0
 40
0.9996450960000001
 50
270.0
 51
90.0
  0
LINE
  8
NOTE
  6
CONTINUOUS
 62
     4
 39
50.0
 10
-814.99999248067002
 20
-188.92937410400009
 30
0.0
 11
-814.99999248067002
 21
-209.12937410400011
 31
0.0
  0
LINE
  8
NOTE
  6
CONTINUOUS
 62
     4
 39
50.0
 10
-824.99999248067002
 20
-198.92937410400009
 30
0.0
 11
-804.99999248067002
 21
-198.92937410400009
 31
0.0
  0
LINE
  8
NOTE
  6
CONTINUOUS
 62
     4
 10
815.00000751933044
 20
-198.92937410400009
 30
0.0
 11
960.53615518723291
 21
-154.62867266293139
 31
0.0
  0
LINE
  8
NOTE
  6
CONTINUOUS
 62
     4
 10
960.53615518723291
 20
-154.62867266293139
 30
0.0
 11
972.53615518723291
 21
-154.62867266293139
 31
0.0
  0
LINE
  8
NOTE
  6
CONTINUOUS
 62
     4
 10
972.53615518723291
 20
-154.62867266293139
 30
0.0
 11
1188.5635837586615
 21
-154.62867266293139
 31
0.0
  0
LINE
  8
NOTE
  6
CONTINUOUS
 62
     4
 10
825.86377221264195
 20
-193.41070124882305
 30
0.0
 11
827.09610431648491
 21
-197.45914430292146
 31
0.0
  0
LINE
  8
NOTE
  6
CONTINUOUS
 62
     4
 10
827.09610431648491
 20
-197.45914430292146
 30
0.0
 11
815.00000751933044
 21
-198.92937410400009
 31
0.0
  0
LINE
  8
NOTE
  6
CONTINUOUS
 62
     4
 10
815.00000751933044
 20
-198.92937410400009
 30
0.0
 11
825.86377221264195
 21
-193.41070124882305
 31
0.0
  0
TEXT
  8
NOTE
  6
CONTINUOUS
 62
     4
 10
997.53615518723291
 20
-97.628672662931422
 30
0.0
 40
64.0
  1
AH 4
 50
0.0
 41
0.9
 51
0.0
  7
STANDARD
 71
     0
 11
0.0
 21
0.0
 31
0.0
210
0.0
220
0.0
230
1.0
  0
CIRCLE
  8
FIX
  6
CONTINUOUS
 62
    11
 39
50.0
 10
-814.99999248067002
 20
-198.92937410400009
 30
0.0
 40
5.0
  0
LINE
  8
SIZE
  6
CONTINUOUS
 62
    30
 10
-920.67313341599947
 20
-41.478173403998881
 30
0.0
 11
-920.67313341599947
 21
192.57572193318401
 31
0.0
  0
LINE
  8
SIZE
  6
CONTINUOUS
 62
    30
 10
-840.90152573599994
 20
16.001419616000931
 30
0.0
 11
-840.90152573599994
 21
192.57572193318401
 31
0.0
  0
LINE
  8
SIZE
  6
CONTINUOUS
 62
    30
 10
-932.67313341599947
 20
172.57572193318401
 30
0.0
 11
-944.67313341599947
 21
172.57572193318401
 31
0.0
  0
LINE
  8
SIZE
  6
CONTINUOUS
 62
    30
 10
-828.90152573599994
 20
172.57572193318401
 30
0.0
 11
-816.90152573599994
 21
172.57572193318401
 31
0.0
  0
LINE
  8
SIZE
  6
CONTINUOUS
 62
    30
 10
-920.67313341599947
 20
172.57572193318401
 30
0.0
 11
-840.90152573599994
 21
172.57572193318401
 31
0.0
  0
CIRCLE
  8
SIZE
  6
CONTINUOUS
 62
    30
 10
-920.67313341599947
 20
172.57572193318401
 30
0.0
 40
6.0
  0
LINE
  8
SIZE
  6
CONTINUOUS
 62
    30
 10
-920.67313341599947
 20
172.57572193318401
 30
0.0
 11
-932.67313341599947
 21
172.57572193318401
 31
0.0
  0
CIRCLE
  8
SIZE
  6
CONTINUOUS
 62
    30
 10
-840.90152573599994
 20
172.57572193318401
 30
0.0
 40
6.0
  0
LINE
  8
SIZE
  6
CONTINUOUS
 62
    30
 10
-840.90152573599994
 20
172.57572193318401
 30
0.0
 11
-828.90152573599994
 21
172.57572193318401
 31
0.0
  0
TEXT
  8
SIZE
  6
CONTINUOUS
 62
    30
 10
-934.93132957599971
 20
197.57572193318401
 30
0.0
 40
64.0
  1
80
 50
0.0
 41
0.9
 51
0.0
  7
STANDARD
 71
     0
 72
     1
 11
-880.78732957599971
 21
197.57572193318401
 31
0.0
210
0.0
220
0.0
230
1.0
  0
POINT
  8
DEFPOINTS
  6
CONTINUOUS
 62
    30
 10
-920.67313341599947
 20
-61.478173403998881
 30
0.0
  0
POINT
  8
DEFPOINTS
  6
CONTINUOUS
 62
    30
 10
-840.90152573599994
 20
-3.998580383999069
 30
0.0
  0
POINT
  8
DEFPOINTS
  6
CONTINUOUS
 62
    30
 10
-840.90152573599994
 20
172.57572193318401
 30
0.0
  0
LINE
  8
SIZE
  6
CONTINUOUS
 62
    30
 10
-840.90152573600039
 20
16.001419616000931
 30
0.0
 11
-840.90152573600039
 21
192.57572193318401
 31
0.0
  0
LINE
  8
SIZE
  6
CONTINUOUS
 62
    30
 10
840.7015257360008
 20
16.001419616000931
 30
0.0
 11
840.7015257360008
 21
192.57572193318401
 31
0.0
  0
LINE
  8
SIZE
  6
CONTINUOUS
 62
    30
 10
-828.90152573600039
 20
172.57572193318401
 30
0.0
 11
828.7015257360008
 21
172.57572193318401
 31
0.0
  0
CIRCLE
  8
SIZE
  6
CONTINUOUS
 62
    30
 10
-840.90152573600039
 20
172.57572193318401
 30
0.0
 40
6.0
  0
LINE
  8
SIZE
  6
CONTINUOUS
 62
    30
 10
-840.90152573600039
 20
172.57572193318401
 30
0.0
 11
-828.90152573600039
 21
172.57572193318401
 31
0.0
  0
CIRCLE
  8
SIZE
  6
CONTINUOUS
 62
    30
 10
840.7015257360008
 20
172.57572193318401
 30
0.0
 40
6.0
  0
LINE
  8
SIZE
  6
CONTINUOUS
 62
    30
 10
840.7015257360008
 20
172.57572193318401
 30
0.0
 11
828.7015257360008
 21
172.57572193318401
 31
0.0
  0
TEXT
  8
SIZE
  6
CONTINUOUS
 62
    30
 10
-101.47599999999981
 20
197.57572193318401
 30
0.0
 40
64.0
  1
1682
 50
0.0
 41
0.9
 51
0.0
  7
STANDARD
 71
     0
 72
     1
 11
-0.0999999999997954
 21
197.57572193318401
 31
0.0
210
0.0
220
0.0
230
1.0
  0
POINT
  8
DEFPOINTS
  6
CONTINUOUS
 62
    30
 10
-840.90152573600039
 20
-3.998580383999069
 30
0.0
  0
POINT
  8
DEFPOINTS
  6
CONTINUOUS
 62
    30
 10
840.7015257360008
 20
-3.998580383999069
 30
0.0
  0
POINT
  8
DEFPOINTS
  6
CONTINUOUS
 62
    30
 10
840.7015257360008
 20
172.57572193318401
 30
0.0
  0
LINE
  8
SIZE
  6
CONTINUOUS
 62
    30
 10
840.7015257360008
 20
16.001419616000931
 30
0.0
 11
840.7015257360008
 21
192.57572193318401
 31
0.0
  0
LINE
  8
SIZE
  6
CONTINUOUS
 62
    30
 10
920.67313341600038
 20
-40.478528308000023
 30
0.0
 11
920.67313341600038
 21
192.57572193318401
 31
0.0
  0
LINE
  8
SIZE
  6
CONTINUOUS
 62
    30
 10
852.7015257360008
 20
172.57572193318401
 30
0.0
 11
908.67313341600038
 21
172.57572193318401
 31
0.0
  0
CIRCLE
  8
SIZE
  6
CONTINUOUS
 62
    30
 10
840.7015257360008
 20
172.57572193318401
 30
0.0
 40
6.0
  0
LINE
  8
SIZE
  6
CONTINUOUS
 62
    30
 10
840.7015257360008
 20
172.57572193318401
 30
0.0
 11
852.7015257360008
 21
172.57572193318401
 31
0.0
  0
CIRCLE
  8
SIZE
  6
CONTINUOUS
 62
    30
 10
920.67313341600038
 20
172.57572193318401
 30
0.0
 40
6.0
  0
LINE
  8
SIZE
  6
CONTINUOUS
 62
    30
 10
920.67313341600038
 20
172.57572193318401
 30
0.0
 11
908.67313341600038
 21
172.57572193318401
 31
0.0
  0
TEXT
  8
SIZE
  6
CONTINUOUS
 62
    30
 10
826.54332957600059
 20
197.57572193318401
 30
0.0
 40
64.0
  1
80
 50
0.0
 41
0.9
 51
0.0
  7
STANDARD
 71
     0
 72
     1
 11
880.68732957600059
 21
197.57572193318401
 31
0.0
210
0.0
220
0.0
230
1.0
  0
POINT
  8
DEFPOINTS
  6
CONTINUOUS
 62
    30
 10
840.7015257360008
 20
-3.998580383999069
 30
0.0
  0
POINT
  8
DEFPOINTS
  6
CONTINUOUS
 62
    30
 10
920.67313341600038
 20
-60.478528308000023
 30
0.0
  0
POINT
  8
DEFPOINTS
  6
CONTINUOUS
 62
    30
 10
920.67313341600038
 20
172.57572193318401
 30
0.0
  0
LINE
  8
NOTE
  6
CONTINUOUS
 62
     4
 39
50.0
 10
815.00000751933044
 20
-188.92937410400009
 30
0.0
 11
815.00000751933044
 21
-209.12937410400011
 31
0.0
  0
LINE
  8
NOTE
  6
CONTINUOUS
 62
     4
 39
50.0
 10
825.00000751933044
 20
-198.92937410400009
 30
0.0
 11
805.00000751933044
 21
-198.92937410400009
 31
0.0
  0
CIRCLE
  8
FIX
  6
CONTINUOUS
 62
    11
 39
50.0
 10
815.00000751933044
 20
-198.92937410400009
 30
0.0
 40
5.0
  0
LINE
  8
SIZE
  6
CONTINUOUS
 62
    30
 10
-814.99999248067002
 20
-229.12937410400011
 30
0.0
 11
-814.99999248067002
 21
-883.42671007373428
 31
0.0
  0
LINE
  8
SIZE
  6
CONTINUOUS
 62
    30
 10
815.00000751933044
 20
-229.12937410400011
 30
0.0
 11
815.00000751933044
 21
-883.42671007373428
 31
0.0
  0
LINE
  8
SIZE
  6
CONTINUOUS
 62
    30
 10
-802.99999248067002
 20
-863.42671007373428
 30
0.0
 11
803.00000751933044
 21
-863.42671007373428
 31
0.0
  0
CIRCLE
  8
SIZE
  6
CONTINUOUS
 62
    30
 10
-814.99999248067002
 20
-863.42671007373428
 30
0.0
 40
6.0
  0
LINE
  8
SIZE
  6
CONTINUOUS
 62
    30
 10
-814.99999248067002
 20
-863.42671007373428
 30
0.0
 11
-802.99999248067002
 21
-863.42671007373428
 31
0.0
  0
CIRCLE
  8
SIZE
  6
CONTINUOUS
 62
    30
 10
815.00000751933044
 20
-863.42671007373428
 30
0.0
 40
6.0
  0
LINE
  8
SIZE
  6
CONTINUOUS
 62
    30
 10
815.00000751933044
 20
-863.42671007373428
 30
0.0
 11
803.00000751933044
 21
-863.42671007373428
 31
0.0
  0
TEXT
  8
SIZE
  6
CONTINUOUS
 62
    30
 10
-101.95199248066979
 20
-838.42671007373428
 30
0.0
 40
64.0
  1
1630
 50
0.0
 41
0.9
 51
0.0
  7
STANDARD
 71
     0
 72
     1
 11
0.0000075193302109
 21
-838.42671007373428
 31
0.0
210
0.0
220
0.0
230
1.0
  0
POINT
  8
DEFPOINTS
  6
CONTINUOUS
 62
    30
 10
-814.99999248067002
 20
-209.12937410400011
 30
0.0
  0
POINT
  8
DEFPOINTS
  6
CONTINUOUS
 62
    30
 10
815.00000751933044
 20
-209.12937410400011
 30
0.0
  0
POINT
  8
DEFPOINTS
  6
CONTINUOUS
 62
    30
 10
815.00000751933044
 20
-863.42671007373428
 30
0.0
  0
LINE
  8
SIZE
  6
CONTINUOUS
 62
    30
 10
-844.99999964880044
 20
-288.90453082400018
 30
0.0
 11
-844.99999964880044
 21
-1006.5623687446659
 31
0.0
  0
LINE
  8
SIZE
  6
CONTINUOUS
 62
    30
 10
844.99999964880021
 20
-288.90453082400018
 30
0.0
 11
844.99999964880021
 21
-1006.5623687446659
 31
0.0
  0
LINE
  8
SIZE
  6
CONTINUOUS
 62
    30
 10
-832.99999964880044
 20
-986.56236874466595
 30
0.0
 11
832.99999964880021
 21
-986.56236874466595
 31
0.0
  0
CIRCLE
  8
SIZE
  6
CONTINUOUS
 62
    30
 10
-844.99999964880044
 20
-986.56236874466595
 30
0.0
 40
6.0
  0
LINE
  8
SIZE
  6
CONTINUOUS
 62
    30
 10
-844.99999964880044
 20
-986.56236874466595
 30
0.0
 11
-832.99999964880044
 21
-986.56236874466595
 31
0.0
  0
CIRCLE
  8
SIZE
  6
CONTINUOUS
 62
    30
 10
844.99999964880021
 20
-986.56236874466595
 30
0.0
 40
6.0
  0
LINE
  8
SIZE
  6
CONTINUOUS
 62
    30
 10
844.99999964880021
 20
-986.56236874466595
 30
0.0
 11
832.99999964880021
 21
-986.56236874466595
 31
0.0
  0
TEXT
  8
SIZE
  6
CONTINUOUS
 62
    30
 10
-101.95200000000011
 20
-961.56236874466595
 30
0.0
 40
64.0
  1
1690
 50
0.0
 41
0.9
 51
0.0
  7
STANDARD
 71
     0
 72
     1
 11
-0.0000000000001137
 21
-961.56236874466595
 31
0.0
210
0.0
220
0.0
230
1.0
  0
POINT
  8
DEFPOINTS
  6
CONTINUOUS
 62
    30
 10
-844.99999964880044
 20
-268.90453082400018
 30
0.0
  0
POINT
  8
DEFPOINTS
  6
CONTINUOUS
 62
    30
 10
844.99999964880021
 20
-268.90453082400018
 30
0.0
  0
POINT
  8
DEFPOINTS
  6
CONTINUOUS
 62
    30
 10
844.99999964880021
 20
-986.56236874466595
 30
0.0
  0
LINE
  8
SIZE
  6
CONTINUOUS
 62
    30
 10
815.00000751933044
 20
-229.12937410400011
 30
0.0
 11
815.00000751933044
 21
-609.79191360585719
 31
0.0
  0
LINE
  8
SIZE
  6
CONTINUOUS
 62
    30
 10
792.61859661840026
 20
-226.9265348719982
 30
0.0
 11
792.61859661840026
 21
-609.79191360585719
 31
0.0
  0
LINE
  8
SIZE
  6
CONTINUOUS
 62
    30
 10
827.00000751933044
 20
-589.79191360585719
 30
0.0
 11
839.00000751933044
 21
-589.79191360585719
 31
0.0
  0
LINE
  8
SIZE
  6
CONTINUOUS
 62
    30
 10
780.61859661840026
 20
-589.79191360585719
 30
0.0
 11
625.36145376125739
 21
-589.79191360585719
 31
0.0
  0
LINE
  8
SIZE
  6
CONTINUOUS
 62
    30
 10
815.00000751933044
 20
-589.79191360585719
 30
0.0
 11
792.61859661840026
 21
-589.79191360585719
 31
0.0
  0
CIRCLE
  8
SIZE
  6
CONTINUOUS
 62
    30
 10
815.00000751933044
 20
-589.79191360585719
 30
0.0
 40
6.0
  0
LINE
  8
SIZE
  6
CONTINUOUS
 62
    30
 10
815.00000751933044
 20
-589.79191360585719
 30
0.0
 11
827.00000751933044
 21
-589.79191360585719
 31
0.0
  0
CIRCLE
  8
SIZE
  6
CONTINUOUS
 62
    30
 10
792.61859661840026
 20
-589.79191360585719
 30
0.0
 40
6.0
  0
LINE
  8
SIZE
  6
CONTINUOUS
 62
    30
 10
792.61859661840026
 20
-589.79191360585719
 30
0.0
 11
780.61859661840026
 21
-589.79191360585719
 31
0.0
  0
TEXT
  8
SIZE
  6
CONTINUOUS
 62
    30
 10
643.4220251898289
 20
-564.79191360585719
 30
0.0
 40
64.0
  1
22
 50
0.0
 41
0.9
 51
0.0
  7
STANDARD
 71
     0
 72
     1
 11
696.99002518982888
 21
-564.79191360585719
 31
0.0
210
0.0
220
0.0
230
1.0
  0
POINT
  8
DEFPOINTS
  6
CONTINUOUS
 62
    30
 10
815.00000751933044
 20
-209.12937410400011
 30
0.0
  0
POINT
  8
DEFPOINTS
  6
CONTINUOUS
 62
    30
 10
792.61859661840026
 20
-206.9265348719982
 30
0.0
  0
POINT
  8
DEFPOINTS
  6
CONTINUOUS
 62
    30
 10
792.61859661840026
 20
-589.79191360585719
 30
0.0
  0
LINE
  8
SIZE
  6
CONTINUOUS
 62
    30
 10
792.61859661840026
 20
-226.9265348719982
 30
0.0
 11
792.61859661840026
 21
-776.25308393081832
 31
0.0
  0
LINE
  8
SIZE
  6
CONTINUOUS
 62
    30
 10
844.99999964879953
 20
-288.90453082400018
 30
0.0
 11
844.99999964879953
 21
-776.25308393081832
 31
0.0
  0
LINE
  8
SIZE
  6
CONTINUOUS
 62
    30
 10
856.99999964879953
 20
-756.25308393081832
 30
0.0
 11
868.99999964879953
 21
-756.25308393081832
 31
0.0
  0
LINE
  8
SIZE
  6
CONTINUOUS
 62
    30
 10
780.61859661840026
 20
-756.25308393081832
 30
0.0
 11
625.36145376125739
 21
-756.25308393081832
 31
0.0
  0
LINE
  8
SIZE
  6
CONTINUOUS
 62
    30
 10
844.99999964879953
 20
-756.25308393081832
 30
0.0
 11
792.61859661840026
 21
-756.25308393081832
 31
0.0
  0
CIRCLE
  8
SIZE
  6
CONTINUOUS
 62
    30
 10
844.99999964879953
 20
-756.25308393081832
 30
0.0
 40
6.0
  0
LINE
  8
SIZE
  6
CONTINUOUS
 62
    30
 10
844.99999964879953
 20
-756.25308393081832
 30
0.0
 11
856.99999964879953
 21
-756.25308393081832
 31
0.0
  0
CIRCLE
  8
SIZE
  6
CONTINUOUS
 62
    30
 10
792.61859661840026
 20
-756.25308393081832
 30
0.0
 40
6.0
  0
LINE
  8
SIZE
  6
CONTINUOUS
 62
    30
 10
792.61859661840026
 20
-756.25308393081832
 30
0.0
 11
780.61859661840026
 21
-756.25308393081832
 31
0.0
  0
TEXT
  8
SIZE
  6
CONTINUOUS
 62
    30
 10
643.4220251898289
 20
-731.25308393081832
 30
0.0
 40
64.0
  1
52
 50
0.0
 41
0.9
 51
0.0
  7
STANDARD
 71
     0
 72
     1
 11
696.99002518982888
 21
-731.25308393081832
 31
0.0
210
0.0
220
0.0
230
1.0
  0
POINT
  8
DEFPOINTS
  6
CONTINUOUS
 62
    30
 10
792.61859661840026
 20
-206.9265348719982
 30
0.0
  0
POINT
  8
DEFPOINTS
  6
CONTINUOUS
 62
    30
 10
844.99999964879953
 20
-268.90453082400018
 30
0.0
  0
POINT
  8
DEFPOINTS
  6
CONTINUOUS
 62
    30
 10
844.99999964879953
 20
-756.25308393081832
 30
0.0
  0
LINE
  8
SIZE
  6
CONTINUOUS
 62
    30
 10
772.61859661840026
 20
-206.9265348719982
 30
0.0
 11
696.58231539009194
 21
-206.9265348719982
 31
0.0
  0
LINE
  8
SIZE
  6
CONTINUOUS
 62
    30
 10
777.21696406000046
 20
-198.92937410400009
 30
0.0
 11
696.58231539009194
 21
-198.92937410400009
 31
0.0
  0
LINE
  8
SIZE
  6
CONTINUOUS
 62
    30
 10
716.58231539009194
 20
-218.9265348719982
 30
0.0
 11
716.58231539009194
 21
-230.9265348719982
 31
0.0
  0
LINE
  8
SIZE
  6
CONTINUOUS
 62
    30
 10
716.58231539009194
 20
-186.92937410400009
 30
0.0
 11
716.58231539009194
 21
-86.529374104000055
 31
0.0
  0
LINE
  8
SIZE
  6
CONTINUOUS
 62
    30
 10
716.58231539009194
 20
-206.9265348719982
 30
0.0
 11
716.58231539009194
 21
-198.92937410400009
 31
0.0
  0
CIRCLE
  8
SIZE
  6
CONTINUOUS
 62
    30
 10
716.58231539009194
 20
-206.9265348719982
 30
0.0
 40
6.0
  0
LINE
  8
SIZE
  6
CONTINUOUS
 62
    30
 10
716.58231539009194
 20
-206.9265348719982
 30
0.0
 11
716.58231539009194
 21
-218.9265348719982
 31
0.0
  0
CIRCLE
  8
SIZE
  6
CONTINUOUS
 62
    30
 10
716.58231539009194
 20
-198.92937410400009
 30
0.0
 40
6.0
  0
LINE
  8
SIZE
  6
CONTINUOUS
 62
    30
 10
716.58231539009194
 20
-198.92937410400009
 30
0.0
 11
716.58231539009194
 21
-186.92937410400009
 31
0.0
  0
TEXT
  8
SIZE
  6
CONTINUOUS
 62
    30
 10
691.58231539009194
 20
-157.51337410399989
 30
0.0
 40
64.0
  1
8
 50
90.0
 41
0.9
 51
0.0
  7
STANDARD
 71
     0
 72
     1
 11
691.58231539009194
 21
-130.7293741039999
 31
0.0
210
0.0
220
0.0
230
1.0
  0
POINT
  8
DEFPOINTS
  6
CONTINUOUS
 62
    30
 10
792.61859661840026
 20
-206.9265348719982
 30
0.0
  0
POINT
  8
DEFPOINTS
  6
CONTINUOUS
 62
    30
 10
797.21696406000046
 20
-198.92937410400009
 30
0.0
  0
POINT
  8
DEFPOINTS
  6
CONTINUOUS
 62
    30
 10
716.58231539009194
 20
-198.92937410400009
 30
0.0
  0
LINE
  8
SIZE
  6
CONTINUOUS
 62
    30
 10
-939.67348832000062
 20
-57.479593019999811
 30
0.0
 11
-1180.595796551489
 21
-57.47959301999974
 31
0.0
  0
LINE
  8
SIZE
  6
CONTINUOUS
 62
    30
 10
-939.67348830600349
 20
-355.37383162799961
 30
0.0
 11
-1180.595796551489
 21
-355.37383162799961
 31
0.0
  0
LINE
  8
SIZE
  6
CONTINUOUS
 62
    30
 10
-1160.595796551489
 20
-69.479593019999754
 30
0.0
 11
-1160.595796551489
 21
-343.37383162799961
 31
0.0
  0
CIRCLE
  8
SIZE
  6
CONTINUOUS
 62
    30
 10
-1160.595796551489
 20
-57.479593019999747
 30
0.0
 40
6.0
  0
LINE
  8
SIZE
  6
CONTINUOUS
 62
    30
 10
-1160.595796551489
 20
-57.479593019999747
 30
0.0
 11
-1160.595796551489
 21
-69.479593019999754
 31
0.0
  0
CIRCLE
  8
SIZE
  6
CONTINUOUS
 62
    30
 10
-1160.595796551489
 20
-355.37383162799961
 30
0.0
 40
6.0
  0
LINE
  8
SIZE
  6
CONTINUOUS
 62
    30
 10
-1160.595796551489
 20
-355.37383162799961
 30
0.0
 11
-1160.595796551489
 21
-343.37383162799961
 31
0.0
  0
TEXT
  8
SIZE
  6
CONTINUOUS
 62
    30
 10
-1185.595796551489
 20
-286.77871232399991
 30
0.0
 40
64.0
  1
298
 50
90.0
 41
0.9
 51
0.0
  7
STANDARD
 71
     0
 72
     1
 11
-1185.595796551489
 21
-206.42671232399979
 31
0.0
210
0.0
220
0.0
230
1.0
  0
POINT
  8
DEFPOINTS
  6
CONTINUOUS
 62
    30
 10
-919.67348832000062
 20
-57.479593019999811
 30
0.0
  0
POINT
  8
DEFPOINTS
  6
CONTINUOUS
 62
    30
 10
-919.67348830600349
 20
-355.37383162799961
 30
0.0
  0
POINT
  8
DEFPOINTS
  6
CONTINUOUS
 62
    30
 10
-1160.595796551489
 20
-355.37383162799961
 30
0.0
  0
LINE
  8
SIZE
  6
CONTINUOUS
 62
    30
 10
-780.72991805600032
 20
0.0000000000000057
 30
0.0
 11
-1311.217439149676
 21
0.0000000000001559
 31
0.0
  0
LINE
  8
SIZE
  6
CONTINUOUS
 62
    30
 10
-852.70436496799994
 20
-432.8463265679984
 30
0.0
 11
-1311.217439149676
 21
-432.84632656799818
 31
0.0
  0
LINE
  8
SIZE
  6
CONTINUOUS
 62
    30
 10
-1291.217439149676
 20
-11.999999999999851
 30
0.0
 11
-1291.217439149676
 21
-420.84632656799829
 31
0.0
  0
CIRCLE
  8
SIZE
  6
CONTINUOUS
 62
    30
 10
-1291.217439149676
 20
0.0000000000001503
 30
0.0
 40
6.0
  0
LINE
  8
SIZE
  6
CONTINUOUS
 62
    30
 10
-1291.217439149676
 20
0.0000000000001503
 30
0.0
 11
-1291.217439149676
 21
-11.999999999999849
 31
0.0
  0
CIRCLE
  8
SIZE
  6
CONTINUOUS
 62
    30
 10
-1291.217439149676
 20
-432.84632656799829
 30
0.0
 40
6.0
  0
LINE
  8
SIZE
  6
CONTINUOUS
 62
    30
 10
-1291.217439149676
 20
-432.84632656799829
 30
0.0
 11
-1291.217439149676
 21
-420.84632656799829
 31
0.0
  0
TEXT
  8
SIZE
  6
CONTINUOUS
 62
    30
 10
-1316.217439149676
 20
-297.3511632839992
 30
0.0
 40
64.0
  1
433
 50
90.0
 41
0.9
 51
0.0
  7
STANDARD
 71
     0
 72
     1
 11
-1316.217439149676
 21
-216.42316328399929
 31
0.0
210
0.0
220
0.0
230
1.0
  0
POINT
  8
DEFPOINTS
  6
CONTINUOUS
 62
    30
 10
-760.72991805600032
 20
0.0
 30
0.0
  0
POINT
  8
DEFPOINTS
  6
CONTINUOUS
 62
    30
 10
-832.70436496799994
 20
-432.8463265679984
 30
0.0
  0
POINT
  8
DEFPOINTS
  6
CONTINUOUS
 62
    30
 10
-1291.217439149676
 20
-432.84632656799829
 30
0.0
  0
LINE
  8
NOTE
  6
CONTINUOUS
 62
     4
 10
187.93327807149129
 20
-279.30083984589152
 30
0.0
 11
444.90235522638159
 21
-620.95895508855483
 31
0.0
  0
LINE
  8
NOTE
  6
CONTINUOUS
 62
     4
 10
444.90235522638159
 20
-620.95895508855483
 30
0.0
 11
456.90235522638159
 21
-620.95895508855483
 31
0.0
  0
LINE
  8
NOTE
  6
CONTINUOUS
 62
     4
 10
456.90235522638159
 20
-620.95895508855483
 30
0.0
 11
559.48521236923875
 21
-620.95895508855483
 31
0.0
  0
LINE
  8
NOTE
  6
CONTINUOUS
 62
     4
 10
196.83731844580271
 20
-287.61920497413286
 30
0.0
 11
193.45529067301518
 21
-290.1629073389023
 31
0.0
  0
LINE
  8
NOTE
  6
CONTINUOUS
 62
     4
 10
193.45529067301518
 20
-290.1629073389023
 30
0.0
 11
187.93327807149129
 21
-279.30083984589152
 31
0.0
  0
LINE
  8
NOTE
  6
CONTINUOUS
 62
     4
 10
187.93327807149129
 20
-279.30083984589152
 30
0.0
 11
196.83731844580271
 21
-287.61920497413286
 31
0.0
  0
TEXT
  8
NOTE
  6
CONTINUOUS
 62
     4
 10
481.90235522638159
 20
-563.95895508855483
 30
0.0
 40
64.0
  1
GE
 50
0.0
 41
0.9
 51
0.0
  7
STANDARD
 71
     0
 11
0.0
 21
0.0
 31
0.0
210
0.0
220
0.0
230
1.0
  0
TEXT
  8
NOTE
  6
CONTINUOUS
 62
     4
 10
-1136.8779349268329
 20
-248.92002966095521
 30
0.0
 40
64.0
  1
RA
 50
0.0
 41
0.9
 51
0.0
  7
STANDARD
 71
     0
 72
     1
 11
-1077.837934926833
 21
-248.92002966095521
 31
0.0
210
0.0
220
0.0
230
1.0
  0
TEXT
  8
NOTE
  6
CONTINUOUS
 62
     4
 10
1047.9737900023822
 20
-249.2742157419934
 30
0.0
 40
64.0
  1
EA
 50
0.0
 41
0.9
 51
0.0
  7
STANDARD
 71
     0
 72
     1
 11
1105.2857900023821
 21
-249.2742157419934
 31
0.0
210
0.0
220
0.0
230
1.0
  0
LINE
  8
BASIS
  6
DASHDOT
 62
     6
 39
50.0
 10
-1029.956366055538
 20
-216.5
 30
0.0
 11
1029.9563810941991
 21
-216.5
 31
0.0
  0
ENDSEC
  0
EOF
