  0
SECTION
  2
HEADER
  9
$ACADVER
  1
AC1009
  9
$DWGCODEPAGE
  3
dos932
  9
$INSBASE
 10
0.0
 20
0.0
 30
0.0
  9
$EXTMIN
 10
-1064.9871665693211
 20
-717.13255697061868
 30
-0.0015257624927045
  9
$EXTMAX
 10
1364.0899777809259
 20
707.5195394078255
 30
50.001525995323327
  9
$LIMMIN
 10
-2970.0
 20
-2100.0
  9
$LIMMAX
 10
2970.0
 20
2100.0
  9
$ORTHOMODE
 70
     1
  9
$REGENMODE
 70
     1
  9
$FILLMODE
 70
     1
  9
$QTEXTMODE
 70
     0
  9
$MIRRTEXT
 70
     0
  9
$LTSCALE
 40
20.0
  9
$ATTMODE
 70
     1
  9
$TEXTSIZE
 40
64.0
  9
$TRACEWID
 40
0.05
  9
$TEXTSTYLE
  7
STANDARD
  9
$CLAYER
  8
SIZE
  9
$CELTYPE
  6
CONTINUOUS
  9
$CECOLOR
 62
     7
  9
$DIMSCALE
 40
1.0
  9
$DIMASZ
 40
12.0
  9
$DIMEXO
 40
20.0
  9
$DIMDLI
 40
200.0
  9
$DIMRND
 40
0.0
  9
$DIMDLE
 40
0.0
  9
$DIMEXE
 40
20.0
  9
$DIMTP
 40
0.0
  9
$DIMTM
 40
0.0
  9
$DIMTXT
 40
64.0
  9
$DIMCEN
 40
0.09
  9
$DIMTSZ
 40
0.0
  9
$DIMTOL
 70
     0
  9
$DIMLIM
 70
     0
  9
$DIMTIH
 70
     0
  9
$DIMTOH
 70
     0
  9
$DIMSE1
 70
     0
  9
$DIMSE2
 70
     0
  9
$DIMTAD
 70
     1
  9
$DIMZIN
 70
     8
  9
$DIMBLK
  1

  9
$DIMASO
 70
     1
  9
$DIMSHO
 70
     0
  9
$DIMPOST
  1

  9
$DIMAPOST
  1

  9
$DIMALT
 70
     0
  9
$DIMALTD
 70
     2
  9
$DIMALTF
 40
25.399999999999999
  9
$DIMLFAC
 40
1.0
  9
$DIMTOFL
 70
     1
  9
$DIMTVP
 40
0.0
  9
$DIMTIX
 70
     1
  9
$DIMSOXD
 70
     0
  9
$DIMSAH
 70
     0
  9
$DIMBLK1
  1

  9
$DIMBLK2
  1

  9
$DIMSTYLE
  2
STANDARD
  9
$DIMCLRD
 70
     7
  9
$DIMCLRE
 70
     7
  9
$DIMCLRT
 70
     7
  9
$DIMTFAC
 40
1.0
  9
$DIMGAP
 40
25.0
  9
$LUNITS
 70
     2
  9
$LUPREC
 70
     4
  9
$SKETCHINC
 40
0.1
  9
$FILLETRAD
 40
3.0
  9
$AUNITS
 70
     1
  9
$AUPREC
 70
     3
  9
$MENU
  1
ACAD
  9
$ELEVATION
 40
0.0
  9
$PELEVATION
 40
0.0
  9
$THICKNESS
 40
50.0
  9
$LIMCHECK
 70
     0
  9
$CHAMFERA
 40
0.0
  9
$CHAMFERB
 40
0.0
  9
$SKPOLY
 70
     0
  9
$TDCREATE
 40
2453019.62301037
  9
$TDUPDATE
 40
2458659.688973958
  9
$TDINDWG
 40
1.727076169
  9
$TDUSRTIMER
 40
1.727076169
  9
$USRTIMER
 70
     1
  9
$ANGBASE
 50
0.0
  9
$ANGDIR
 70
     0
  9
$PDMODE
 70
     3
  9
$PDSIZE
 40
-2.0
  9
$PLINEWID
 40
0.0
  9
$SPLFRAME
 70
     0
  9
$SPLINETYPE
 70
     6
  9
$SPLINESEGS
 70
     8
  9
$SURFTAB1
 70
     6
  9
$SURFTAB2
 70
     6
  9
$SURFTYPE
 70
     6
  9
$SURFU
 70
     6
  9
$SURFV
 70
     6
  9
$UCSNAME
  2

  9
$UCSORG
 10
0.0
 20
0.0
 30
0.0
  9
$UCSXDIR
 10
1.0
 20
0.0
 30
0.0
  9
$UCSYDIR
 10
0.0
 20
1.0
 30
0.0
  9
$PUCSNAME
  2

  9
$PUCSORG
 10
0.0
 20
0.0
 30
0.0
  9
$PUCSXDIR
 10
1.0
 20
0.0
 30
0.0
  9
$PUCSYDIR
 10
0.0
 20
1.0
 30
0.0
  9
$USERI1
 70
     0
  9
$USERI2
 70
     0
  9
$USERI3
 70
     0
  9
$USERI4
 70
     0
  9
$USERI5
 70
     0
  9
$USERR1
 40
20.0
  9
$USERR2
 40
0.0
  9
$USERR3
 40
0.0
  9
$USERR4
 40
0.0
  9
$USERR5
 40
0.0
  9
$WORLDVIEW
 70
     1
  9
$SHADEDGE
 70
     3
  9
$SHADEDIF
 70
    70
  9
$TILEMODE
 70
     1
  9
$MAXACTVP
 70
    48
  9
$PINSBASE
 10
0.0
 20
0.0
 30
0.0
  9
$PLIMCHECK
 70
     0
  9
$PEXTMIN
 10
-100000000000000000000.0
 20
-100000000000000000000.0
 30
-100000000000000000000.0
  9
$PEXTMAX
 10
100000000000000000000.0
 20
100000000000000000000.0
 30
100000000000000000000.0
  9
$PLIMMIN
 10
0.0
 20
0.0
  9
$PLIMMAX
 10
12.0
 20
9.0
  9
$UNITMODE
 70
     0
  9
$VISRETAIN
 70
     0
  9
$PLINEGEN
 70
     0
  9
$PSLTSCALE
 70
     0
  9
$TREEDEPTH
 70
  3020
  9
$ATTDIA
 70
     0
  9
$ATTREQ
 70
     1
  9
$BLIPMODE
 70
     1
  9
$COORDS
 70
     1
  9
$DRAGMODE
 70
     2
  9
$OSMODE
 70
     0
  9
$HANDLING
 70
     0
  9
$HANDSEED
  5
ED5E
  0
ENDSEC
  0
SECTION
  2
TABLES
  0
TABLE
  2
LTYPE
 70
     2
  0
LTYPE
  2
CONTINUOUS
 70
     0
  3
実線
 72
    65
 73
     0
 40
0.0
  0
LTYPE
  2
DASHDOT
 70
     0
  3
____ _ ____ _ ____ _ ____ _ ____ _ ____ _ ____
 72
    65
 73
     4
 40
5.5
 49
4.0
 49
-0.6
 49
0.3
 49
-0.6
  0
ENDTAB
  0
TABLE
  2
LAYER
 70
    12
  0
LAYER
  2
0
 70
     0
 62
     7
  6
CONTINUOUS
  0
LAYER
  2
BASIS
 70
     0
 62
     6
  6
DASHDOT
  0
LAYER
  2
OUTLINE
 70
     0
 62
     3
  6
CONTINUOUS
  0
LAYER
  2
DETAIL
 70
     0
 62
     5
  6
CONTINUOUS
  0
LAYER
  2
SIZE
 70
     0
 62
    30
  6
CONTINUOUS
  0
LAYER
  2
ARRANGE
 70
     0
 62
     1
  6
CONTINUOUS
  0
LAYER
  2
DEFPOINTS
 70
     0
 62
     7
  6
CONTINUOUS
  0
LAYER
  2
ETC
 70
     0
 62
    61
  6
CONTINUOUS
  0
LAYER
  2
FIX
 70
     0
 62
    11
  6
CONTINUOUS
  0
LAYER
  2
NOTE
 70
     0
 62
     4
  6
CONTINUOUS
  0
LAYER
  2
SERVICESPACE
 70
    64
 62
     2
  6
DASHDOT
  0
LAYER
  2
SYMBOLLINE
 70
    64
 62
    15
  6
CONTINUOUS
  0
ENDTAB
  0
TABLE
  2
STYLE
 70
     1
  0
STYLE
  2
STANDARD
 70
     0
 40
64.0
 41
0.9
 50
0.0
 71
     0
 42
64.0
  3
SIMPLEX.shx
  4
BIGFONT.shx
  0
ENDTAB
  0
TABLE
  2
APPID
 70
    17
  0
APPID
  2
ACAD
 70
     0
  0
APPID
  2
AUTOCAD_POSTSCRIPT_FIGURE
 70
     0
  0
APPID
  2
ACAD_EXEMPT_FROM_CAD_STANDARDS
 70
     0
  0
APPID
  2
ACAD_PSEXT
 70
     0
  0
APPID
  2
ACAUTHENVIRON
 70
     0
  0
APPID
  2
GENIUS_GENOENT_13
 70
     0
  0
APPID
  2
GENIUS_GENCFG_13
 70
     0
  0
APPID
  2
GENIUS_GENCFG0_13
 70
     0
  0
APPID
  2
GENIUS_GENCFG1_13
 70
     0
  0
APPID
  2
GENIUS_GENCFG2_13
 70
     0
  0
APPID
  2
GENIUS_GENCFG3_13
 70
     0
  0
APPID
  2
GENIUS_GENCFG4_13
 70
     0
  0
APPID
  2
GENIUS_GEVCFG0_13
 70
     0
  0
APPID
  2
CONTENTBLOCKICON
 70
     0
  0
APPID
  2
CONTENTBLOCKDESCRIPTION
 70
     0
  0
APPID
  2
ACAD_NAV_VCDISPLAY
 70
     0
  0
APPID
  2
ACAD_MLEADERVER
 70
     0
  0
ENDTAB
  0
TABLE
  2
DIMSTYLE
 70
     1
  0
DIMSTYLE
  2
STANDARD
 70
     0
  3

  4

  5
_ORIGIN
  6

  7

 40
1.0
 41
12.0
 42
20.0
 43
200.0
 44
20.0
 45
0.0
 46
0.0
 47
0.0
 48
0.0
140
64.0
141
0.09
142
0.0
143
25.399999999999999
144
1.0
145
0.0
146
1.0
147
25.0
 71
     0
 72
     0
 73
     0
 74
     0
 75
     0
 76
     0
 77
     1
 78
     8
170
     0
171
     2
172
     1
173
     0
174
     1
175
     0
176
     7
177
     7
178
     7
  0
ENDTAB
  0
TABLE
  2
VIEW
 70
     1
  0
VIEW
  2
ALL
 70
     0
 40
4282.6198079999986
 10
0.0
 20
41.309904000000003
 41
5940.0
 11
0.0
 21
0.0
 31
1.0
 12
0.0
 22
0.0
 32
0.0
 42
50.0
 43
0.0
 44
0.0
 50
0.0
 71
     0
  0
ENDTAB
  0
TABLE
  2
UCS
 70
     0
  0
ENDTAB
  0
TABLE
  2
VPORT
 70
     1
  0
VPORT
  2
*ACTIVE
 70
     0
 10
0.0
 20
0.0
 11
1.0
 21
1.0
 12
149.55140560580281
 22
-4.8065087813965874
 13
0.0
 23
0.0
 14
1.0
 24
1.0
 15
0.0
 25
0.0
 16
0.0
 26
0.0
 36
1.0
 17
0.0
 27
0.0
 37
0.0
 40
1476.8641197723341
 41
1.650992685475444
 42
50.0
 43
0.0
 44
0.0
 50
0.0
 51
0.0
 71
     0
 72
  1000
 73
     1
 74
     3
 75
     0
 76
     0
 77
     0
 78
     0
  0
ENDTAB
  0
ENDSEC
  0
SECTION
  2
BLOCKS
  0
BLOCK
  8
0
  2
_ORIGIN
 70
     0
 10
0.0
 20
0.0
 30
0.0
  3
_ORIGIN
  1
_ORIGIN
  0
CIRCLE
  8
0
  6
CONTINUOUS
 62
     7
 10
0.0
 20
0.0
 30
0.0
 40
0.5
  0
LINE
  8
0
  6
CONTINUOUS
 62
     7
 10
0.0
 20
0.0
 30
0.0
 11
-1.0
 21
0.0
 31
0.0
  0
ENDBLK
  8
0
  0
ENDSEC
  0
SECTION
  2
ENTITIES
  0
CIRCLE
  8
ARRANGE
  6
CONTINUOUS
 62
     1
 10
0.0
 20
0.0
 30
0.0
 40
40.0
  0
TEXT
  8
ETC
  6
CONTINUOUS
 62
    61
 10
637.41920816887705
 20
643.45594124039258
 30
0.0
 40
64.0
  1
BFS-800TX2_2
 41
0.9
  0
TEXT
  8
ETC
  6
CONTINUOUS
 62
    61
 10
633.23321416887666
 20
525.50063122556139
 30
0.0
 40
64.0
  1
産業扇
 41
0.9
  0
LINE
  8
BASIS
  6
DASHDOT
 62
     6
 39
50.0
 10
0.0
 20
-542.01835559233314
 30
0.0
 11
0.0
 21
110.28540101431371
 31
0.0
  0
LINE
  8
BASIS
  6
DASHDOT
 62
     6
 39
50.0
 10
125.4561247050906
 20
0.0
 30
0.0
 11
-125.4561247050906
 21
0.0
 31
0.0
  0
TEXT
  8
ETC
  6
CONTINUOUS
 62
    61
 10
683.93461241743262
 20
417.3518583393361
 30
0.0
 40
40.0
  1
BFS-800TX2
 41
0.9
  0
LINE
  8
DETAIL
  6
CONTINUOUS
 62
     5
 10
-507.1190790147478
 20
-507.41698289080551
 30
0.0
 11
-507.12440226024711
 21
-507.31707823980543
 31
0.0
  0
LINE
  8
DETAIL
  6
CONTINUOUS
 62
     5
 10
-508.27182539474722
 20
-507.44325331880549
 30
0.0
 11
-507.7981762309908
 21
-528.20947862510582
 31
0.0
  0
LINE
  8
DETAIL
  6
CONTINUOUS
 62
     5
 10
-507.12440226024711
 20
-507.31707823980543
 30
0.0
 11
-507.222371353749
 21
-503.01819442480547
 31
0.0
  0
LINE
  8
DETAIL
  6
CONTINUOUS
 62
     5
 10
-485.43003509974852
 20
-506.82267607130541
 30
0.0
 11
-485.52800419324677
 21
-502.52379225580557
 31
0.0
  0
LINE
  8
DETAIL
  6
CONTINUOUS
 62
     5
 10
-484.27805526324778
 20
-506.89644907730531
 30
0.0
 11
-483.80149040823568
 21
-527.79061491600748
 31
0.0
  0
LINE
  8
DETAIL
  6
CONTINUOUS
 62
     5
 10
-515.81367010649819
 20
-503.21398518930027
 30
0.0
 11
-515.81367010649819
 21
-463.19999999999987
 31
0.0
  0
LINE
  8
DETAIL
  6
CONTINUOUS
 62
     5
 10
-505.19999999999891
 20
-463.19999999999987
 30
0.0
 11
-505.19999999999891
 21
-412.79999999999978
 31
0.0
  0
LINE
  8
DETAIL
  6
CONTINUOUS
 62
     5
 10
-556.0
 20
-0.9999999999995453
 30
0.0
 11
-484.0
 21
-0.9999999999995453
 31
0.0
  0
LINE
  8
DETAIL
  6
CONTINUOUS
 62
     5
 10
-484.0
 20
-0.9999999999995453
 30
0.0
 11
-480.59999999999991
 21
-0.9999999999995453
 31
0.0
  0
LINE
  8
DETAIL
  6
CONTINUOUS
 62
     5
 10
-480.59999999999991
 20
-3.3000000000006371
 30
0.0
 11
-484.0
 21
-3.3000000000006371
 31
0.0
  0
LINE
  8
DETAIL
  6
CONTINUOUS
 62
     5
 10
-476.0
 20
-5.5999999999999091
 30
0.0
 11
-478.30000000000018
 21
-5.5999999999999091
 31
0.0
  0
LINE
  8
DETAIL
  6
CONTINUOUS
 62
     5
 10
-471.00000156850001
 20
-7.3000000000006366
 30
0.0
 11
-482.0
 21
-7.3000000000006366
 31
0.0
  0
LINE
  8
DETAIL
  6
CONTINUOUS
 62
     5
 10
-492.60999999999882
 20
-70.999999999999545
 30
0.0
 11
-492.60999999999882
 21
-412.79999999999978
 31
0.0
  0
LINE
  8
DETAIL
  6
CONTINUOUS
 62
     5
 10
-481.0
 20
-27.500000000001361
 30
0.0
 11
-516.0
 21
-27.500000000001361
 31
0.0
  0
LINE
  8
DETAIL
  6
CONTINUOUS
 62
     5
 10
-481.0
 20
-29.80000000000064
 30
0.0
 11
-516.0
 21
-29.80000000000064
 31
0.0
  0
LINE
  8
DETAIL
  6
CONTINUOUS
 62
     5
 10
-516.0
 20
-42.200000000000273
 30
0.0
 11
-481.0
 21
-42.200000000000273
 31
0.0
  0
LINE
  8
DETAIL
  6
CONTINUOUS
 62
     5
 10
-516.0
 20
-44.500000000001357
 30
0.0
 11
-481.0
 21
-44.500000000001357
 31
0.0
  0
LINE
  8
DETAIL
  6
CONTINUOUS
 62
     5
 10
-485.43080164324721
 20
-506.92271950530539
 30
0.0
 11
-485.43003509974852
 21
-506.82267607130541
 31
0.0
  0
LINE
  8
DETAIL
  6
CONTINUOUS
 62
     5
 10
-517.71572875250013
 20
-70.999999999999545
 30
0.0
 11
-441.0
 21
-70.999999999999545
 31
0.0
  0
LINE
  8
DETAIL
  6
CONTINUOUS
 62
     5
 10
-439.13083891450009
 20
-48.047308806498677
 30
0.0
 11
-438.79942978249977
 21
-48.381273637001406
 31
0.0
  0
LINE
  8
DETAIL
  6
CONTINUOUS
 62
     5
 10
-438.79942978249977
 20
-48.381273637001406
 30
0.0
 11
-438.46509838050002
 21
-48.714991157999521
 31
0.0
  0
LINE
  8
DETAIL
  6
CONTINUOUS
 62
     5
 10
-438.46509838050002
 20
-48.714991157999521
 30
0.0
 11
-438.12786311599979
 21
-49.04846632950057
 31
0.0
  0
LINE
  8
DETAIL
  6
CONTINUOUS
 62
     5
 10
-438.12786311599979
 20
-49.04846632950057
 30
0.0
 11
-437.78766876700001
 21
-49.381684273000701
 31
0.0
  0
LINE
  8
DETAIL
  6
CONTINUOUS
 62
     5
 10
-437.78766876700001
 20
-49.381684273000701
 30
0.0
 11
-437.44446011150012
 21
-49.714630112500799
 31
0.0
  0
LINE
  8
DETAIL
  6
CONTINUOUS
 62
     5
 10
-437.44446011150012
 20
-49.714630112500799
 30
0.0
 11
-437.09825555650008
 21
-50.047308806500503
 31
0.0
  0
LINE
  8
DETAIL
  6
CONTINUOUS
 62
     5
 10
-399.19999999999891
 20
-355.29999999999978
 30
0.0
 11
-399.19999999999891
 21
-57.299999999999947
 31
0.0
  0
LINE
  8
DETAIL
  6
CONTINUOUS
 62
     5
 10
-550.14213562350005
 20
-46.857864376000627
 30
0.0
 11
-531.85786437649995
 21
-65.142135623501872
 31
0.0
  0
LINE
  8
DETAIL
  6
CONTINUOUS
 62
     5
 10
-437.09825555650008
 20
-50.047308806500503
 30
0.0
 11
-436.69213625700007
 21
-50.794635201001711
 31
0.0
  0
LINE
  8
DETAIL
  6
CONTINUOUS
 62
     5
 10
-436.69213625700007
 20
-50.794635201001711
 30
0.0
 11
-436.27055935750008
 21
-51.461479561501157
 31
0.0
  0
LINE
  8
DETAIL
  6
CONTINUOUS
 62
     5
 10
-436.27055935750008
 20
-51.461479561501157
 30
0.0
 11
-435.83773964000011
 21
-52.035551281001517
 31
0.0
  0
LINE
  8
DETAIL
  6
CONTINUOUS
 62
     5
 10
-435.83773964000011
 20
-52.035551281001517
 30
0.0
 11
-435.38103275700001
 21
-52.553722181999092
 31
0.0
  0
LINE
  8
DETAIL
  6
CONTINUOUS
 62
     5
 10
-435.38103275700001
 20
-52.553722181999092
 30
0.0
 11
-434.88779436200002
 21
-53.052864087999751
 31
0.0
  0
LINE
  8
DETAIL
  6
CONTINUOUS
 62
     5
 10
-434.88779436200002
 20
-53.052864087999751
 30
0.0
 11
-434.36223923749998
 21
-53.520686391000247
 31
0.0
  0
LINE
  8
DETAIL
  6
CONTINUOUS
 62
     5
 10
-461.63496633449989
 20
-13.793414133000169
 30
0.0
 11
-461.89170259150018
 21
-13.171913187000881
 31
0.0
  0
LINE
  8
DETAIL
  6
CONTINUOUS
 62
     5
 10
-461.89170259150018
 20
-13.171913187000881
 30
0.0
 11
-462.18924749149983
 21
-12.570239054000471
 31
0.0
  0
LINE
  8
DETAIL
  6
CONTINUOUS
 62
     5
 10
-462.18924749149983
 20
-12.570239054000471
 30
0.0
 11
-462.528839565
 21
-11.986384209499651
 31
0.0
  0
LINE
  8
DETAIL
  6
CONTINUOUS
 62
     5
 10
-462.528839565
 20
-11.986384209499651
 30
0.0
 11
-462.90676321950008
 21
-11.42637122550104
 31
0.0
  0
LINE
  8
DETAIL
  6
CONTINUOUS
 62
     5
 10
-462.90676321950008
 20
-11.42637122550104
 30
0.0
 11
-463.32007392899999
 21
-10.89540588599948
 31
0.0
  0
LINE
  8
DETAIL
  6
CONTINUOUS
 62
     5
 10
-463.32007392899999
 20
-10.89540588599948
 30
0.0
 11
-463.76769703050007
 21
-10.393931031499511
 31
0.0
  0
LINE
  8
DETAIL
  6
CONTINUOUS
 62
     5
 10
-463.76769703050007
 20
-10.393931031499511
 30
0.0
 11
-464.24811074599978
 21
-9.9235540139993645
 31
0.0
  0
LINE
  8
DETAIL
  6
CONTINUOUS
 62
     5
 10
-464.24811074599978
 20
-9.9235540139993645
 30
0.0
 11
-464.75971189450001
 21
-9.4859870849991239
 31
0.0
  0
LINE
  8
DETAIL
  6
CONTINUOUS
 62
     5
 10
-464.75971189450001
 20
-9.4859870849991239
 30
0.0
 11
-465.30204750749999
 21
-9.0824275050013057
 31
0.0
  0
LINE
  8
DETAIL
  6
CONTINUOUS
 62
     5
 10
-465.30204750749999
 20
-9.0824275050013057
 30
0.0
 11
-465.87014517350008
 21
-8.7160275985002045
 31
0.0
  0
LINE
  8
DETAIL
  6
CONTINUOUS
 62
     5
 10
-465.87014517350008
 20
-8.7160275985002045
 30
0.0
 11
-466.45930211299992
 21
-8.3903394610001669
 31
0.0
  0
LINE
  8
DETAIL
  6
CONTINUOUS
 62
     5
 10
-466.45930211299992
 20
-8.3903394610001669
 30
0.0
 11
-467.06825646349989
 21
-8.1053610395006217
 31
0.0
  0
LINE
  8
DETAIL
  6
CONTINUOUS
 62
     5
 10
-467.06825646349989
 20
-8.1053610395006217
 30
0.0
 11
-467.69486158400008
 21
-7.8619842655002694
 31
0.0
  0
LINE
  8
DETAIL
  6
CONTINUOUS
 62
     5
 10
-467.69486158400008
 20
-7.8619842655002694
 30
0.0
 11
-468.33706903050012
 21
-7.6610792780006696
 31
0.0
  0
LINE
  8
DETAIL
  6
CONTINUOUS
 62
     5
 10
-468.33706903050012
 20
-7.6610792780006696
 30
0.0
 11
-468.99408460150022
 21
-7.5035022210008719
 31
0.0
  0
LINE
  8
DETAIL
  6
CONTINUOUS
 62
     5
 10
-468.99408460150022
 20
-7.5035022210008719
 30
0.0
 11
-469.65999893150001
 21
-7.3901870080003391
 31
0.0
  0
LINE
  8
DETAIL
  6
CONTINUOUS
 62
     5
 10
-469.65999893150001
 20
-7.3901870080003391
 30
0.0
 11
-470.32786615799978
 21
-7.3225053460023446
 31
0.0
  0
LINE
  8
DETAIL
  6
CONTINUOUS
 62
     5
 10
-470.32786615799978
 20
-7.3225053460023446
 30
0.0
 11
-471.00000156850001
 21
-7.3000000000006366
 31
0.0
  0
LINE
  8
DETAIL
  6
CONTINUOUS
 62
     5
 10
-461.63329989350001
 20
-13.79467247550156
 30
0.0
 11
-460.51088965600002
 21
-16.65120798750058
 31
0.0
  0
LINE
  8
DETAIL
  6
CONTINUOUS
 62
     5
 10
-460.51088965600002
 20
-16.65120798750058
 30
0.0
 11
-459.31076780300009
 21
-19.447945684001301
 31
0.0
  0
LINE
  8
DETAIL
  6
CONTINUOUS
 62
     5
 10
-459.31076780300009
 20
-19.447945684001301
 30
0.0
 11
-458.03331025749998
 21
-22.183422765999691
 31
0.0
  0
LINE
  8
DETAIL
  6
CONTINUOUS
 62
     5
 10
-458.03331025749998
 20
-22.183422765999691
 30
0.0
 11
-456.677389253
 21
-24.862027631500951
 31
0.0
  0
LINE
  8
DETAIL
  6
CONTINUOUS
 62
     5
 10
-456.677389253
 20
-24.862027631500951
 30
0.0
 11
-455.24165986000031
 21
-27.48918087300035
 31
0.0
  0
LINE
  8
DETAIL
  6
CONTINUOUS
 62
     5
 10
-455.24165986000031
 20
-27.48918087300035
 30
0.0
 11
-453.72714949049993
 21
-30.060323110000809
 31
0.0
  0
LINE
  8
DETAIL
  6
CONTINUOUS
 62
     5
 10
-453.72714949049993
 20
-30.060323110000809
 30
0.0
 11
-452.13252392700002
 21
-32.575628441501522
 31
0.0
  0
LINE
  8
DETAIL
  6
CONTINUOUS
 62
     5
 10
-452.13252392700002
 20
-32.575628441501522
 30
0.0
 11
-450.46352313050011
 21
-35.026317019500773
 31
0.0
  0
LINE
  8
DETAIL
  6
CONTINUOUS
 62
     5
 10
-450.46352313050011
 20
-35.026317019500773
 30
0.0
 11
-448.72341297850022
 21
-37.405853873000069
 31
0.0
  0
LINE
  8
DETAIL
  6
CONTINUOUS
 62
     5
 10
-448.72341297850022
 20
-37.405853873000069
 30
0.0
 11
-446.91828149649967
 21
-39.707678465999827
 31
0.0
  0
LINE
  8
DETAIL
  6
CONTINUOUS
 62
     5
 10
-446.91828149649967
 20
-39.707678465999827
 30
0.0
 11
-445.05503324199981
 21
-41.922703059999087
 31
0.0
  0
LINE
  8
DETAIL
  6
CONTINUOUS
 62
     5
 10
-445.05503324199981
 20
-41.922703059999087
 30
0.0
 11
-443.13448449450021
 21
-44.051974288500332
 31
0.0
  0
LINE
  8
DETAIL
  6
CONTINUOUS
 62
     5
 10
-443.13448449450021
 20
-44.051974288500332
 30
0.0
 11
-441.16014277649992
 21
-46.093261710500428
 31
0.0
  0
LINE
  8
DETAIL
  6
CONTINUOUS
 62
     5
 10
-441.16014277649992
 20
-46.093261710500428
 30
0.0
 11
-439.13083891450009
 21
-48.047308806498677
 31
0.0
  0
LINE
  8
DETAIL
  6
CONTINUOUS
 62
     5
 10
-484.27805526324778
 20
-506.89644907730531
 30
0.0
 11
-508.27182539474722
 21
-507.44325331880549
 31
0.0
  0
LINE
  8
DETAIL
  6
CONTINUOUS
 62
     5
 10
-515.81367010649819
 20
-503.21398518930027
 30
0.0
 11
-75.813670106497284
 21
-493.18663787845247
 31
0.0
  0
LINE
  8
DETAIL
  6
CONTINUOUS
 62
     5
 10
-75.813670106497739
 20
-463.19999999999987
 30
0.0
 11
-515.81367010649819
 21
-463.19999999999987
 31
0.0
  0
LINE
  8
DETAIL
  6
CONTINUOUS
 62
     5
 10
-505.19999999999891
 20
-457.79999999999978
 30
0.0
 11
476.0
 21
-457.79999999999978
 31
0.0
  0
LINE
  8
DETAIL
  6
CONTINUOUS
 62
     5
 10
-75.813670106497739
 20
-457.79999999999978
 30
0.0
 11
-75.813670106497284
 21
-493.18663787845247
 31
0.0
  0
LINE
  8
DETAIL
  6
CONTINUOUS
 62
     5
 10
-505.19999999999891
 20
-412.79999999999978
 30
0.0
 11
476.0
 21
-412.79999999999978
 31
0.0
  0
LINE
  8
DETAIL
  6
CONTINUOUS
 62
     5
 10
-399.19999999999891
 20
-355.29999999999978
 30
0.0
 11
398.80000000000018
 21
-355.30000000000001
 31
0.0
  0
LINE
  8
DETAIL
  6
CONTINUOUS
 62
     5
 10
-556.0
 20
-0.9999999999995453
 30
0.0
 11
-556.0
 21
-32.715728752501953
 31
0.0
  0
LINE
  8
DETAIL
  6
CONTINUOUS
 62
     5
 10
555.60000000000036
 20
-32.715728752498308
 30
0.0
 11
555.60000000000036
 21
-0.9999999999995453
 31
0.0
  0
LINE
  8
DETAIL
  6
CONTINUOUS
 62
     5
 10
515.60000000000036
 20
-27.49999999999773
 30
0.0
 11
515.60000000000036
 21
-29.799999999998821
 31
0.0
  0
LINE
  8
DETAIL
  6
CONTINUOUS
 62
     5
 10
-516.0
 20
-44.500000000001357
 30
0.0
 11
-516.0
 21
-42.200000000000273
 31
0.0
  0
LINE
  8
DETAIL
  6
CONTINUOUS
 62
     5
 10
-516.0
 20
-27.500000000001361
 30
0.0
 11
-516.0
 21
-29.80000000000064
 31
0.0
  0
LINE
  8
DETAIL
  6
CONTINUOUS
 62
     5
 10
515.60000000000036
 20
-44.499999999997733
 30
0.0
 11
515.60000000000036
 21
-42.200000000000273
 31
0.0
  0
LINE
  8
DETAIL
  6
CONTINUOUS
 62
     5
 10
-484.0
 20
-5.3000000000006366
 30
0.0
 11
-484.0
 21
-0.9999999999995453
 31
0.0
  0
LINE
  8
DETAIL
  6
CONTINUOUS
 62
     5
 10
483.60000000000042
 20
-5.2999999999988177
 30
0.0
 11
483.60000000000042
 21
-0.9999999999995453
 31
0.0
  0
LINE
  8
DETAIL
  6
CONTINUOUS
 62
     5
 10
480.60000000000042
 20
-27.49999999999773
 30
0.0
 11
480.60000000000042
 21
-29.799999999998821
 31
0.0
  0
LINE
  8
DETAIL
  6
CONTINUOUS
 62
     5
 10
-481.0
 20
-44.500000000001357
 30
0.0
 11
-481.0
 21
-42.200000000000273
 31
0.0
  0
LINE
  8
DETAIL
  6
CONTINUOUS
 62
     5
 10
-481.0
 20
-27.500000000001361
 30
0.0
 11
-481.0
 21
-29.80000000000064
 31
0.0
  0
LINE
  8
DETAIL
  6
CONTINUOUS
 62
     5
 10
480.60000000000042
 20
-44.499999999997733
 30
0.0
 11
480.60000000000042
 21
-42.200000000000273
 31
0.0
  0
LINE
  8
DETAIL
  6
CONTINUOUS
 62
     5
 10
480.10000000000042
 20
-1.0010870849978351
 30
0.0
 11
480.10000000000042
 21
-3.302174941497924
 31
0.0
  0
LINE
  8
DETAIL
  6
CONTINUOUS
 62
     5
 10
-480.5
 20
-1.001087085001473
 30
0.0
 11
-480.5
 21
-3.3021749410013399
 31
0.0
  0
LINE
  8
DETAIL
  6
CONTINUOUS
 62
     5
 10
477.89999999999958
 20
-5.5999999999999091
 30
0.0
 11
477.89999999999958
 21
-7.2999999999988177
 31
0.0
  0
LINE
  8
DETAIL
  6
CONTINUOUS
 62
     5
 10
-478.30000000000018
 20
-5.5999999999999091
 30
0.0
 11
-478.30000000000018
 21
-7.3000000000006366
 31
0.0
  0
LINE
  8
DETAIL
  6
CONTINUOUS
 62
     5
 10
475.60000000000042
 20
-5.5999999999999091
 30
0.0
 11
475.60000000000042
 21
-7.2999999999988177
 31
0.0
  0
LINE
  8
DETAIL
  6
CONTINUOUS
 62
     5
 10
-476.0
 20
-5.5999999999999091
 30
0.0
 11
-476.0
 21
-7.3000000000006366
 31
0.0
  0
LINE
  8
DETAIL
  6
CONTINUOUS
 62
     5
 10
-399.19999999999891
 20
-57.299999999999947
 30
0.0
 11
398.80000000000109
 21
-57.299999999999947
 31
0.0
  0
LINE
  8
DETAIL
  6
CONTINUOUS
 62
     5
 10
-476.0
 20
0.0
 30
0.0
 11
476.0
 21
0.0
 31
0.0
  0
LINE
  8
DETAIL
  6
CONTINUOUS
 62
     5
 10
461.23329989349992
 20
-13.79467247599996
 30
0.0
 11
460.11088965599993
 21
-16.651207988000809
 31
0.0
  0
LINE
  8
DETAIL
  6
CONTINUOUS
 62
     5
 10
460.11088965599993
 20
-16.651207988000809
 30
0.0
 11
458.91076780300051
 21
-19.4479456844997
 31
0.0
  0
LINE
  8
DETAIL
  6
CONTINUOUS
 62
     5
 10
458.91076780300051
 20
-19.4479456844997
 30
0.0
 11
457.63331025749989
 21
-22.18342276649992
 31
0.0
  0
LINE
  8
DETAIL
  6
CONTINUOUS
 62
     5
 10
457.63331025749989
 20
-22.18342276649992
 30
0.0
 11
456.27738925300042
 21
-24.86202763199935
 31
0.0
  0
LINE
  8
DETAIL
  6
CONTINUOUS
 62
     5
 10
456.27738925300042
 20
-24.86202763199935
 30
0.0
 11
454.84165985999971
 21
-27.48918087349875
 31
0.0
  0
LINE
  8
DETAIL
  6
CONTINUOUS
 62
     5
 10
454.84165985999971
 20
-27.48918087349875
 30
0.0
 11
453.32714949050018
 21
-30.06032310999899
 31
0.0
  0
LINE
  8
DETAIL
  6
CONTINUOUS
 62
     5
 10
453.32714949050018
 20
-30.06032310999899
 30
0.0
 11
451.73252392700027
 21
-32.575628441998113
 31
0.0
  0
LINE
  8
DETAIL
  6
CONTINUOUS
 62
     5
 10
451.73252392700027
 20
-32.575628441998113
 30
0.0
 11
450.06352313050053
 21
-35.026317019498947
 31
0.0
  0
LINE
  8
DETAIL
  6
CONTINUOUS
 62
     5
 10
450.06352313050053
 20
-35.026317019498947
 30
0.0
 11
448.32341297849962
 21
-37.405853873500291
 31
0.0
  0
LINE
  8
DETAIL
  6
CONTINUOUS
 62
     5
 10
448.32341297849962
 20
-37.405853873500291
 30
0.0
 11
446.51828149650009
 21
-39.707678466500063
 31
0.0
  0
LINE
  8
DETAIL
  6
CONTINUOUS
 62
     5
 10
446.51828149650009
 20
-39.707678466500063
 30
0.0
 11
444.65503324200017
 21
-41.922703060499323
 31
0.0
  0
LINE
  8
DETAIL
  6
CONTINUOUS
 62
     5
 10
444.65503324200017
 20
-41.922703060499323
 30
0.0
 11
442.73448449450012
 21
-44.051974288496687
 31
0.0
  0
LINE
  8
DETAIL
  6
CONTINUOUS
 62
     5
 10
442.73448449450012
 20
-44.051974288496687
 30
0.0
 11
440.76014277650029
 21
-46.093261710998831
 31
0.0
  0
LINE
  8
DETAIL
  6
CONTINUOUS
 62
     5
 10
440.76014277650029
 20
-46.093261710998831
 30
0.0
 11
438.73083891450011
 21
-48.047308806498677
 31
0.0
  0
LINE
  8
DETAIL
  6
CONTINUOUS
 62
     5
 10
461.23496633450031
 20
-13.793414133498571
 30
0.0
 11
461.49170259150009
 21
-13.171913187499291
 31
0.0
  0
LINE
  8
DETAIL
  6
CONTINUOUS
 62
     5
 10
461.49170259150009
 20
-13.171913187499291
 30
0.0
 11
461.78924749149968
 21
-12.57023905449887
 31
0.0
  0
LINE
  8
DETAIL
  6
CONTINUOUS
 62
     5
 10
461.78924749149968
 20
-12.57023905449887
 30
0.0
 11
462.12883956499991
 21
-11.986384209999869
 31
0.0
  0
LINE
  8
DETAIL
  6
CONTINUOUS
 62
     5
 10
462.12883956499991
 20
-11.986384209999869
 30
0.0
 11
462.5067632195005
 21
-11.426371225997631
 31
0.0
  0
LINE
  8
DETAIL
  6
CONTINUOUS
 62
     5
 10
462.5067632195005
 20
-11.426371225997631
 30
0.0
 11
462.92007392900001
 21
-10.895405886499701
 31
0.0
  0
LINE
  8
DETAIL
  6
CONTINUOUS
 62
     5
 10
462.92007392900001
 20
-10.895405886499701
 30
0.0
 11
463.36769703050049
 21
-10.393931031499511
 31
0.0
  0
LINE
  8
DETAIL
  6
CONTINUOUS
 62
     5
 10
463.36769703050049
 20
-10.393931031499511
 30
0.0
 11
463.8481107460002
 21
-9.9235540144995866
 31
0.0
  0
LINE
  8
DETAIL
  6
CONTINUOUS
 62
     5
 10
463.8481107460002
 20
-9.9235540144995866
 30
0.0
 11
464.35971189449992
 21
-9.485987085497527
 31
0.0
  0
LINE
  8
DETAIL
  6
CONTINUOUS
 62
     5
 10
464.35971189449992
 20
-9.485987085497527
 30
0.0
 11
464.90204750750041
 21
-9.0824275054978898
 31
0.0
  0
LINE
  8
DETAIL
  6
CONTINUOUS
 62
     5
 10
464.90204750750041
 20
-9.0824275054978898
 30
0.0
 11
465.47014517349999
 21
-8.7160275989986076
 31
0.0
  0
LINE
  8
DETAIL
  6
CONTINUOUS
 62
     5
 10
465.47014517349999
 20
-8.7160275989986076
 30
0.0
 11
466.05930211299977
 21
-8.39033946149857
 31
0.0
  0
LINE
  8
DETAIL
  6
CONTINUOUS
 62
     5
 10
466.05930211299977
 20
-8.39033946149857
 30
0.0
 11
466.66825646350031
 21
-8.1053610400008438
 31
0.0
  0
LINE
  8
DETAIL
  6
CONTINUOUS
 62
     5
 10
466.66825646350031
 20
-8.1053610400008438
 30
0.0
 11
467.29486158399959
 21
-7.8619842659986716
 31
0.0
  0
LINE
  8
DETAIL
  6
CONTINUOUS
 62
     5
 10
467.29486158399959
 20
-7.8619842659986716
 30
0.0
 11
467.93706903050042
 21
-7.6610792784990744
 31
0.0
  0
LINE
  8
DETAIL
  6
CONTINUOUS
 62
     5
 10
467.93706903050042
 20
-7.6610792784990744
 30
0.0
 11
468.59408460150007
 21
-7.503502221501094
 31
0.0
  0
LINE
  8
DETAIL
  6
CONTINUOUS
 62
     5
 10
468.59408460150007
 20
-7.503502221501094
 30
0.0
 11
469.25999893150038
 21
-7.3901870084987422
 31
0.0
  0
LINE
  8
DETAIL
  6
CONTINUOUS
 62
     5
 10
469.25999893150038
 20
-7.3901870084987422
 30
0.0
 11
469.92786615800009
 21
-7.3225053464989287
 31
0.0
  0
LINE
  8
DETAIL
  6
CONTINUOUS
 62
     5
 10
469.92786615800009
 20
-7.3225053464989287
 30
0.0
 11
470.60000156850037
 21
-7.2999999999988177
 31
0.0
  0
LINE
  8
DETAIL
  6
CONTINUOUS
 62
     5
 10
436.69825555649999
 20
-50.047308806998899
 30
0.0
 11
436.29213625700049
 21
-50.794635200998073
 31
0.0
  0
LINE
  8
DETAIL
  6
CONTINUOUS
 62
     5
 10
436.29213625700049
 20
-50.794635200998073
 30
0.0
 11
435.87055935749959
 21
-51.461479561999568
 31
0.0
  0
LINE
  8
DETAIL
  6
CONTINUOUS
 62
     5
 10
435.87055935749959
 20
-51.461479561999568
 30
0.0
 11
435.43773964000047
 21
-52.035551280997879
 31
0.0
  0
LINE
  8
DETAIL
  6
CONTINUOUS
 62
     5
 10
435.43773964000047
 20
-52.035551280997879
 30
0.0
 11
434.98103275700032
 21
-52.553722182499307
 31
0.0
  0
LINE
  8
DETAIL
  6
CONTINUOUS
 62
     5
 10
434.98103275700032
 20
-52.553722182499307
 30
0.0
 11
434.48779436200039
 21
-53.052864088499973
 31
0.0
  0
LINE
  8
DETAIL
  6
CONTINUOUS
 62
     5
 10
434.48779436200039
 20
-53.052864088499973
 30
0.0
 11
433.9622392375004
 21
-53.520686391500483
 31
0.0
  0
LINE
  8
DETAIL
  6
CONTINUOUS
 62
     5
 10
549.74213562349996
 20
-46.857864376499037
 30
0.0
 11
531.45786437649986
 21
-65.142135623998456
 31
0.0
  0
LINE
  8
DETAIL
  6
CONTINUOUS
 62
     5
 10
398.80000000000018
 20
-355.30000000000001
 30
0.0
 11
398.80000000000109
 21
-57.299999999999947
 31
0.0
  0
LINE
  8
DETAIL
  6
CONTINUOUS
 62
     5
 10
517.31572875250004
 20
-70.999999999999545
 30
0.0
 11
440.60000000000042
 21
-70.999999999999545
 31
0.0
  0
LINE
  8
DETAIL
  6
CONTINUOUS
 62
     5
 10
438.73083891450011
 20
-48.047308806498677
 30
0.0
 11
438.39942978250019
 21
-48.381273637499817
 31
0.0
  0
LINE
  8
DETAIL
  6
CONTINUOUS
 62
     5
 10
438.39942978250019
 20
-48.381273637499817
 30
0.0
 11
438.06509838049988
 21
-48.714991158499743
 31
0.0
  0
LINE
  8
DETAIL
  6
CONTINUOUS
 62
     5
 10
438.06509838049988
 20
-48.714991158499743
 30
0.0
 11
437.72786311599981
 21
-49.048466329498751
 31
0.0
  0
LINE
  8
DETAIL
  6
CONTINUOUS
 62
     5
 10
437.72786311599981
 20
-49.048466329498751
 30
0.0
 11
437.38766876699992
 21
-49.381684273499097
 31
0.0
  0
LINE
  8
DETAIL
  6
CONTINUOUS
 62
     5
 10
437.38766876699992
 20
-49.381684273499097
 30
0.0
 11
437.04446011150048
 21
-49.714630112999203
 31
0.0
  0
LINE
  8
DETAIL
  6
CONTINUOUS
 62
     5
 10
437.04446011150048
 20
-49.714630112999203
 30
0.0
 11
436.69825555649999
 21
-50.047308806998899
 31
0.0
  0
LINE
  8
DETAIL
  6
CONTINUOUS
 62
     5
 10
515.60000000000036
 20
-44.499999999997733
 30
0.0
 11
480.60000000000042
 21
-44.499999999997733
 31
0.0
  0
LINE
  8
DETAIL
  6
CONTINUOUS
 62
     5
 10
515.60000000000036
 20
-42.200000000000273
 30
0.0
 11
480.60000000000042
 21
-42.200000000000273
 31
0.0
  0
LINE
  8
DETAIL
  6
CONTINUOUS
 62
     5
 10
480.60000000000042
 20
-29.799999999998821
 30
0.0
 11
515.60000000000036
 21
-29.799999999998821
 31
0.0
  0
LINE
  8
DETAIL
  6
CONTINUOUS
 62
     5
 10
480.60000000000042
 20
-27.49999999999773
 30
0.0
 11
515.60000000000036
 21
-27.49999999999773
 31
0.0
  0
LINE
  8
DETAIL
  6
CONTINUOUS
 62
     5
 10
476.0
 20
-457.79999999999978
 30
0.0
 11
476.0
 21
-70.999999999999432
 31
0.0
  0
LINE
  8
DETAIL
  6
CONTINUOUS
 62
     5
 10
470.60000156850037
 20
-7.2999999999988177
 30
0.0
 11
481.60000000000042
 21
-7.2999999999988177
 31
0.0
  0
LINE
  8
DETAIL
  6
CONTINUOUS
 62
     5
 10
475.60000000000042
 20
-5.5999999999999091
 30
0.0
 11
477.89999999999958
 21
-5.5999999999999091
 31
0.0
  0
LINE
  8
DETAIL
  6
CONTINUOUS
 62
     5
 10
480.19999999999982
 20
-3.2999999999988181
 30
0.0
 11
483.60000000000042
 21
-3.2999999999988181
 31
0.0
  0
LINE
  8
DETAIL
  6
CONTINUOUS
 62
     5
 10
555.60000000000036
 20
-0.9999999999995453
 30
0.0
 11
480.19999999999982
 21
-0.9999999999995453
 31
0.0
  0
ARC
  8
DETAIL
  6
CONTINUOUS
 62
     5
 10
-517.71572875250013
 20
-50.999999999999552
 30
0.0
 40
20.0
 50
224.99999999999051
 51
270.0
  0
ARC
  8
DETAIL
  6
CONTINUOUS
 62
     5
 10
-536.0
 20
-32.715728752501953
 30
0.0
 40
20.0
 50
180.0
 51
224.99999999999051
  0
ARC
  8
DETAIL
  6
CONTINUOUS
 62
     5
 10
-516.0
 20
-35.999999999999552
 30
0.0
 40
8.5
 50
90.0
 51
270.0
  0
ARC
  8
DETAIL
  6
CONTINUOUS
 62
     5
 10
-516.0
 20
-35.999999999999552
 30
0.0
 40
6.2000000000000002
 50
90.0
 51
270.0
  0
ARC
  8
DETAIL
  6
CONTINUOUS
 62
     5
 10
-441.0
 20
-60.999999999999552
 30
0.0
 40
10.0
 50
270.0
 51
48.411502322107211
  0
ARC
  8
DETAIL
  6
CONTINUOUS
 62
     5
 10
-481.0
 20
-35.999999999999552
 30
0.0
 40
8.5
 50
270.0
 51
90.0
  0
ARC
  8
DETAIL
  6
CONTINUOUS
 62
     5
 10
-481.0
 20
-35.999999999999552
 30
0.0
 40
6.2000000000000002
 50
270.0
 51
90.0
  0
ARC
  8
DETAIL
  6
CONTINUOUS
 62
     5
 10
-480.59999999999991
 20
-5.5999999999999091
 30
0.0
 40
4.6000000000000014
 50
0.0
 51
90.0
  0
ARC
  8
DETAIL
  6
CONTINUOUS
 62
     5
 10
-480.59999999999991
 20
-5.5999999999999091
 30
0.0
 40
2.2999999999999998
 50
0.0
 51
90.0
  0
ARC
  8
DETAIL
  6
CONTINUOUS
 62
     5
 10
-482.0
 20
-5.3000000000006366
 30
0.0
 40
2.0
 50
180.0
 51
270.0
  0
ARC
  8
DETAIL
  6
CONTINUOUS
 62
     5
 10
535.60000000000036
 20
-32.715728752498308
 30
0.0
 40
20.0
 50
315.00000000000949
 51
0.0
  0
ARC
  8
DETAIL
  6
CONTINUOUS
 62
     5
 10
517.31572875250004
 20
-50.999999999999552
 30
0.0
 40
20.0
 50
270.0
 51
315.00000000000949
  0
ARC
  8
DETAIL
  6
CONTINUOUS
 62
     5
 10
515.60000000000036
 20
-35.999999999999552
 30
0.0
 40
8.5
 50
270.0
 51
90.0
  0
ARC
  8
DETAIL
  6
CONTINUOUS
 62
     5
 10
515.60000000000036
 20
-35.999999999999552
 30
0.0
 40
6.2000000000000002
 50
270.0
 51
90.0
  0
ARC
  8
DETAIL
  6
CONTINUOUS
 62
     5
 10
440.60000000000042
 20
-60.999999999999552
 30
0.0
 40
10.0
 50
131.5884976779266
 51
270.0
  0
ARC
  8
DETAIL
  6
CONTINUOUS
 62
     5
 10
480.60000000000042
 20
-35.999999999999552
 30
0.0
 40
8.5
 50
90.0
 51
270.0
  0
ARC
  8
DETAIL
  6
CONTINUOUS
 62
     5
 10
480.60000000000042
 20
-35.999999999999552
 30
0.0
 40
6.2000000000000002
 50
90.0
 51
270.0
  0
ARC
  8
DETAIL
  6
CONTINUOUS
 62
     5
 10
480.19999999999982
 20
-5.5999999999999091
 30
0.0
 40
4.6000000000000014
 50
90.0
 51
180.0
  0
ARC
  8
DETAIL
  6
CONTINUOUS
 62
     5
 10
480.19999999999982
 20
-5.5999999999999091
 30
0.0
 40
2.2999999999999998
 50
90.0
 51
180.0
  0
ARC
  8
DETAIL
  6
CONTINUOUS
 62
     5
 10
481.60000000000042
 20
-5.2999999999988177
 30
0.0
 40
2.0
 50
270.0
 51
0.0
  0
LINE
  8
DETAIL
  6
CONTINUOUS
 62
     5
 39
50.0
 10
-515.1999999999889
 20
-211.99999999999989
 30
0.0
 11
-515.19999999999891
 21
-70.999999999999545
 31
0.0
  0
LINE
  8
DETAIL
  6
CONTINUOUS
 62
     5
 39
50.0
 10
-492.60999999999882
 20
-211.99999999999989
 30
0.0
 11
-515.1999999999889
 21
-211.99999999999989
 31
0.0
  0
LINE
  8
DETAIL
  6
CONTINUOUS
 62
     5
 39
50.0
 10
-476.0
 20
0.0
 30
0.0
 11
-476.0
 21
-5.6171881499740266
 31
0.0
  0
LINE
  8
DETAIL
  6
CONTINUOUS
 62
     5
 10
476.0
 20
-2.5016133230326432
 30
0.0
 11
476.0
 21
0.0
 31
0.0
  0
LINE
  8
OUTLINE
  6
CONTINUOUS
 62
     3
 10
-507.1190790147478
 20
-507.41698289080551
 30
0.0
 11
-507.12440226024711
 21
-507.31707823980543
 31
0.0
  0
LINE
  8
OUTLINE
  6
CONTINUOUS
 62
     3
 10
-508.27182539474722
 20
-507.44325331880549
 30
0.0
 11
-507.79817623099132
 21
-528.20947862510582
 31
0.0
  0
LINE
  8
OUTLINE
  6
CONTINUOUS
 62
     3
 10
-507.12212390923088
 20
-507.41705228223259
 30
0.0
 11
-507.222371353749
 21
-503.01819442480547
 31
0.0
  0
LINE
  8
OUTLINE
  6
CONTINUOUS
 62
     3
 10
-485.42775674872871
 20
-506.92265011387758
 30
0.0
 11
-485.52800419324677
 21
-502.52379225580557
 31
0.0
  0
LINE
  8
OUTLINE
  6
CONTINUOUS
 62
     3
 10
-484.27805526324778
 20
-506.89644907730531
 30
0.0
 11
-483.80149040823591
 21
-527.79061491600748
 31
0.0
  0
LINE
  8
OUTLINE
  6
CONTINUOUS
 62
     3
 10
-515.81367010649819
 20
-503.21398518930027
 30
0.0
 11
-515.81367010649819
 21
-463.19999999999987
 31
0.0
  0
LINE
  8
OUTLINE
  6
CONTINUOUS
 62
     3
 10
-505.19999999999891
 20
-463.19999999999987
 30
0.0
 11
-505.19999999999891
 21
-412.79999999999978
 31
0.0
  0
LINE
  8
OUTLINE
  6
CONTINUOUS
 62
     3
 10
-556.0
 20
-0.9999999999995453
 30
0.0
 11
-476.0
 21
-0.9999999999995453
 31
0.0
  0
LINE
  8
OUTLINE
  6
CONTINUOUS
 62
     3
 10
-492.60999999999882
 20
-211.99999999999989
 30
0.0
 11
-492.60999999999882
 21
-412.79999999999978
 31
0.0
  0
LINE
  8
OUTLINE
  6
CONTINUOUS
 62
     3
 10
-485.43080164324721
 20
-506.92271950530539
 30
0.0
 11
-485.43003509974852
 21
-506.82267607130541
 31
0.0
  0
LINE
  8
OUTLINE
  6
CONTINUOUS
 62
     3
 10
-517.71572875250013
 20
-70.999999999999545
 30
0.0
 11
-515.19999999999891
 21
-70.999999999999545
 31
0.0
  0
LINE
  8
OUTLINE
  6
CONTINUOUS
 62
     3
 10
-550.14213562350005
 20
-46.857864376000627
 30
0.0
 11
-531.85786437649995
 21
-65.142135623501872
 31
0.0
  0
LINE
  8
OUTLINE
  6
CONTINUOUS
 62
     3
 10
-484.27805526324778
 20
-506.89644907730531
 30
0.0
 11
-485.42775674872871
 21
-506.92265011387758
 31
0.0
  0
LINE
  8
OUTLINE
  6
CONTINUOUS
 62
     3
 10
-515.81367010649819
 20
-503.21398518930027
 30
0.0
 11
-507.22237135375218
 21
-503.01819442466149
 31
0.0
  0
LINE
  8
OUTLINE
  6
CONTINUOUS
 62
     3
 10
-75.813670106497739
 20
-457.80000000000001
 30
0.0
 11
476.0
 21
-457.79999999999978
 31
0.0
  0
LINE
  8
OUTLINE
  6
CONTINUOUS
 62
     3
 10
-75.813670106496829
 20
-457.80000000000001
 30
0.0
 11
-75.813670106497284
 21
-493.18663787845247
 31
0.0
  0
LINE
  8
OUTLINE
  6
CONTINUOUS
 62
     3
 10
-505.19999999999891
 20
-412.79999999999978
 30
0.0
 11
-492.60999999999882
 21
-412.79999999999978
 31
0.0
  0
LINE
  8
OUTLINE
  6
CONTINUOUS
 62
     3
 10
-556.0
 20
-0.9999999999995453
 30
0.0
 11
-556.0
 21
-32.715728752501953
 31
0.0
  0
LINE
  8
OUTLINE
  6
CONTINUOUS
 62
     3
 10
555.60000000000036
 20
-32.715728752498308
 30
0.0
 11
555.60000000000036
 21
-0.9999999999995453
 31
0.0
  0
LINE
  8
OUTLINE
  6
CONTINUOUS
 62
     3
 10
-476.0
 20
0.0
 30
0.0
 11
476.0
 21
0.0
 31
0.0
  0
LINE
  8
OUTLINE
  6
CONTINUOUS
 62
     3
 10
549.74213562349996
 20
-46.857864376499037
 30
0.0
 11
531.45786437649986
 21
-65.142135623998456
 31
0.0
  0
LINE
  8
OUTLINE
  6
CONTINUOUS
 62
     3
 10
517.31572875250004
 20
-70.999999999999545
 30
0.0
 11
476.0
 21
-70.999999999999432
 31
0.0
  0
LINE
  8
OUTLINE
  6
CONTINUOUS
 62
     3
 10
476.0
 20
-457.79999999999978
 30
0.0
 11
475.99999999999909
 21
-70.999999999999545
 31
0.0
  0
LINE
  8
OUTLINE
  6
CONTINUOUS
 62
     3
 10
476.0
 20
-0.9999999999995453
 30
0.0
 11
476.0
 21
0.0
 31
0.0
  0
LINE
  8
OUTLINE
  6
CONTINUOUS
 62
     3
 10
555.60000000000036
 20
-0.9999999999995453
 30
0.0
 11
476.0
 21
-0.9999999999995453
 31
0.0
  0
ARC
  8
OUTLINE
  6
CONTINUOUS
 62
     3
 10
-517.71572875250013
 20
-50.999999999999552
 30
0.0
 40
20.0
 50
224.99999999999051
 51
270.0
  0
ARC
  8
OUTLINE
  6
CONTINUOUS
 62
     3
 10
-536.0
 20
-32.715728752501953
 30
0.0
 40
20.0
 50
180.0
 51
224.99999999999051
  0
ARC
  8
OUTLINE
  6
CONTINUOUS
 62
     3
 10
535.60000000000036
 20
-32.715728752498308
 30
0.0
 40
20.0
 50
315.00000000000949
 51
0.0
  0
ARC
  8
OUTLINE
  6
CONTINUOUS
 62
     3
 10
517.31572875250004
 20
-50.999999999999552
 30
0.0
 40
20.0
 50
270.0
 51
315.00000000000949
  0
LINE
  8
OUTLINE
  6
CONTINUOUS
 62
     3
 39
50.0
 10
-515.1999999999889
 20
-211.99999999999989
 30
0.0
 11
-515.19999999999891
 21
-70.999999999999545
 31
0.0
  0
LINE
  8
OUTLINE
  6
CONTINUOUS
 62
     3
 39
50.0
 10
-492.60999999999882
 20
-211.99999999999989
 30
0.0
 11
-515.1999999999889
 21
-211.99999999999989
 31
0.0
  0
LINE
  8
OUTLINE
  6
CONTINUOUS
 62
     3
 39
50.0
 10
-476.0
 20
0.0
 30
0.0
 11
-476.0
 21
-0.9999999999995453
 31
0.0
  0
LINE
  8
OUTLINE
  6
CONTINUOUS
 62
     3
 39
50.0
 10
-515.81367010649819
 20
-463.19999999999987
 30
0.0
 11
-505.19999999999891
 21
-463.19999999999987
 31
0.0
  0
LINE
  8
OUTLINE
  6
CONTINUOUS
 62
     3
 10
-485.52800419324268
 20
-502.52379225600822
 30
0.0
 11
-75.813670106497284
 21
-493.18663787845247
 31
0.0
  0
LINE
  8
OUTLINE
  6
CONTINUOUS
 62
     3
 10
-507.12212390923088
 20
-507.41705228223259
 30
0.0
 11
-508.27182539474722
 21
-507.44325331880549
 31
0.0
  0
LINE
  8
NOTE
  6
CONTINUOUS
 62
     4
 10
509.0
 20
51.631926644668511
 30
0.0
 11
509.0
 21
-91.83469564511006
 31
0.0
  0
LINE
  8
NOTE
  6
CONTINUOUS
 62
     4
 10
-509.0
 20
41.002207029349393
 30
0.0
 11
-509.0
 21
-92.35648967185216
 31
0.0
  0
LINE
  8
SIZE
  6
CONTINUOUS
 62
    30
 10
-509.0
 20
61.002207029349393
 30
0.0
 11
-509.0
 21
379.77390009610639
 31
0.0
  0
LINE
  8
SIZE
  6
CONTINUOUS
 62
    30
 10
509.0
 20
71.631926644668511
 30
0.0
 11
509.0
 21
379.77390009610639
 31
0.0
  0
LINE
  8
SIZE
  6
CONTINUOUS
 62
    30
 10
-497.0
 20
359.77390009610639
 30
0.0
 11
497.0
 21
359.77390009610639
 31
0.0
  0
CIRCLE
  8
SIZE
  6
CONTINUOUS
 62
    30
 10
-509.0
 20
359.77390009610639
 30
0.0
 40
6.0
  0
LINE
  8
SIZE
  6
CONTINUOUS
 62
    30
 10
-509.0
 20
359.77390009610639
 30
0.0
 11
-497.0
 21
359.77390009610639
 31
0.0
  0
CIRCLE
  8
SIZE
  6
CONTINUOUS
 62
    30
 10
509.0
 20
359.77390009610639
 30
0.0
 40
6.0
  0
LINE
  8
SIZE
  6
CONTINUOUS
 62
    30
 10
509.0
 20
359.77390009610639
 30
0.0
 11
497.0
 21
359.77390009610639
 31
0.0
  0
TEXT
  8
SIZE
  6
CONTINUOUS
 62
    30
 10
-90.514285714285705
 20
384.77390009610639
 30
0.0
 40
64.0
  1
1018
 41
0.9
 72
     1
 11
0.0
 21
384.77390009610639
 31
0.0
  0
POINT
  8
DEFPOINTS
  6
CONTINUOUS
 62
    30
 10
-509.0
 20
41.002207029349393
 30
0.0
  0
POINT
  8
DEFPOINTS
  6
CONTINUOUS
 62
    30
 10
509.0
 20
51.631926644668511
 30
0.0
  0
POINT
  8
DEFPOINTS
  6
CONTINUOUS
 62
    30
 10
509.0
 20
359.77390009610639
 30
0.0
  0
CIRCLE
  8
FIX
  6
CONTINUOUS
 62
    11
 39
50.0
 10
-509.0
 20
-0.9999999999995453
 30
0.0
 40
10.0
  0
CIRCLE
  8
FIX
  6
CONTINUOUS
 62
    11
 39
50.0
 10
509.0
 20
-0.9999999999995453
 30
0.0
 40
10.0
  0
LINE
  8
SIZE
  6
CONTINUOUS
 62
    30
 10
-399.19999999999891
 20
-37.299999999999947
 30
0.0
 11
-399.19999999999891
 21
169.5268956388104
 31
0.0
  0
LINE
  8
SIZE
  6
CONTINUOUS
 62
    30
 10
398.80000000000109
 20
-37.299999999999947
 30
0.0
 11
398.80000000000109
 21
169.5268956388104
 31
0.0
  0
LINE
  8
SIZE
  6
CONTINUOUS
 62
    30
 10
-387.19999999999891
 20
149.5268956388104
 30
0.0
 11
386.80000000000109
 21
149.5268956388104
 31
0.0
  0
CIRCLE
  8
SIZE
  6
CONTINUOUS
 62
    30
 10
-399.19999999999891
 20
149.5268956388104
 30
0.0
 40
6.0
  0
LINE
  8
SIZE
  6
CONTINUOUS
 62
    30
 10
-399.19999999999891
 20
149.5268956388104
 30
0.0
 11
-387.19999999999891
 21
149.5268956388104
 31
0.0
  0
CIRCLE
  8
SIZE
  6
CONTINUOUS
 62
    30
 10
398.80000000000109
 20
149.5268956388104
 30
0.0
 40
6.0
  0
LINE
  8
SIZE
  6
CONTINUOUS
 62
    30
 10
398.80000000000109
 20
149.5268956388104
 30
0.0
 11
386.80000000000109
 21
149.5268956388104
 31
0.0
  0
TEXT
  8
SIZE
  6
CONTINUOUS
 62
    30
 10
-74.257142857141758
 20
174.5268956388104
 30
0.0
 40
64.0
  1
798
 41
0.9
 72
     1
 11
-0.1999999999989086
 21
174.5268956388104
 31
0.0
  0
POINT
  8
DEFPOINTS
  6
CONTINUOUS
 62
    30
 10
-399.19999999999891
 20
-57.299999999999947
 30
0.0
  0
POINT
  8
DEFPOINTS
  6
CONTINUOUS
 62
    30
 10
398.80000000000109
 20
-57.299999999999947
 30
0.0
  0
POINT
  8
DEFPOINTS
  6
CONTINUOUS
 62
    30
 10
398.80000000000109
 20
149.5268956388104
 30
0.0
  0
LINE
  8
SIZE
  6
CONTINUOUS
 62
    30
 10
-556.0
 20
19.000000000000451
 30
0.0
 11
-556.0
 21
487.3847272839721
 31
0.0
  0
LINE
  8
SIZE
  6
CONTINUOUS
 62
    30
 10
555.60000000000036
 20
19.000000000000451
 30
0.0
 11
555.60000000000036
 21
487.3847272839721
 31
0.0
  0
LINE
  8
SIZE
  6
CONTINUOUS
 62
    30
 10
-544.0
 20
467.3847272839721
 30
0.0
 11
543.60000000000036
 21
467.3847272839721
 31
0.0
  0
CIRCLE
  8
SIZE
  6
CONTINUOUS
 62
    30
 10
-556.0
 20
467.3847272839721
 30
0.0
 40
6.0
  0
LINE
  8
SIZE
  6
CONTINUOUS
 62
    30
 10
-556.0
 20
467.3847272839721
 30
0.0
 11
-544.0
 21
467.3847272839721
 31
0.0
  0
CIRCLE
  8
SIZE
  6
CONTINUOUS
 62
    30
 10
555.60000000000036
 20
467.3847272839721
 30
0.0
 40
6.0
  0
LINE
  8
SIZE
  6
CONTINUOUS
 62
    30
 10
555.60000000000036
 20
467.3847272839721
 30
0.0
 11
543.60000000000036
 21
467.3847272839721
 31
0.0
  0
TEXT
  8
SIZE
  6
CONTINUOUS
 62
    30
 10
-85.228571428571229
 20
492.3847272839721
 30
0.0
 40
64.0
  1
1112
 41
0.9
 72
     1
 11
-0.1999999999998181
 21
492.3847272839721
 31
0.0
  0
POINT
  8
DEFPOINTS
  6
CONTINUOUS
 62
    30
 10
-556.0
 20
-0.9999999999995453
 30
0.0
  0
POINT
  8
DEFPOINTS
  6
CONTINUOUS
 62
    30
 10
555.60000000000036
 20
-0.9999999999995453
 30
0.0
  0
POINT
  8
DEFPOINTS
  6
CONTINUOUS
 62
    30
 10
555.60000000000036
 20
467.3847272839721
 30
0.0
  0
LINE
  8
SIZE
  6
CONTINUOUS
 62
    30
 10
-515.81367010649819
 20
-523.19648518930023
 30
0.0
 11
-515.81367010649819
 21
-688.88503115248886
 31
0.0
  0
LINE
  8
SIZE
  6
CONTINUOUS
 62
    30
 10
-75.813670106497284
 20
-513.18663787845253
 30
0.0
 11
-75.813670106497284
 21
-688.88503115248886
 31
0.0
  0
LINE
  8
SIZE
  6
CONTINUOUS
 62
    30
 10
-503.81367010649819
 20
-668.88503115248886
 30
0.0
 11
-87.813670106497284
 21
-668.88503115248886
 31
0.0
  0
CIRCLE
  8
SIZE
  6
CONTINUOUS
 62
    30
 10
-515.81367010649819
 20
-668.88503115248886
 30
0.0
 40
6.0
  0
LINE
  8
SIZE
  6
CONTINUOUS
 62
    30
 10
-515.81367010649819
 20
-668.88503115248886
 30
0.0
 11
-503.81367010649819
 21
-668.88503115248886
 31
0.0
  0
CIRCLE
  8
SIZE
  6
CONTINUOUS
 62
    30
 10
-75.813670106497284
 20
-668.88503115248886
 30
0.0
 40
6.0
  0
LINE
  8
SIZE
  6
CONTINUOUS
 62
    30
 10
-75.813670106497284
 20
-668.88503115248886
 30
0.0
 11
-87.813670106497284
 21
-668.88503115248886
 31
0.0
  0
TEXT
  8
SIZE
  6
CONTINUOUS
 62
    30
 10
-369.87081296364062
 20
-643.88503115248886
 30
0.0
 40
64.0
  1
440
 41
0.9
 72
     1
 11
-295.81367010649768
 21
-643.88503115248886
 31
0.0
  0
POINT
  8
DEFPOINTS
  6
CONTINUOUS
 62
    30
 10
-515.81367010649819
 20
-503.21398518930027
 30
0.0
  0
POINT
  8
DEFPOINTS
  6
CONTINUOUS
 62
    30
 10
-75.813670106497284
 20
-493.18663787845247
 30
0.0
  0
POINT
  8
DEFPOINTS
  6
CONTINUOUS
 62
    30
 10
-75.813670106497284
 20
-668.88503115248886
 30
0.0
  0
LINE
  8
SIZE
  6
CONTINUOUS
 62
    30
 10
-419.19999999999891
 20
-57.299999999999947
 30
0.0
 11
-817.76284597477024
 21
-57.299999999999727
 31
0.0
  0
LINE
  8
SIZE
  6
CONTINUOUS
 62
    30
 10
-419.19999999999891
 20
-355.29999999999978
 30
0.0
 11
-817.76284597477024
 21
-355.29999999999978
 31
0.0
  0
LINE
  8
SIZE
  6
CONTINUOUS
 62
    30
 10
-797.76284597477024
 20
-69.299999999999841
 30
0.0
 11
-797.76284597477024
 21
-343.29999999999973
 31
0.0
  0
CIRCLE
  8
SIZE
  6
CONTINUOUS
 62
    30
 10
-797.76284597477024
 20
-57.299999999999841
 30
0.0
 40
6.0
  0
LINE
  8
SIZE
  6
CONTINUOUS
 62
    30
 10
-797.76284597477024
 20
-57.299999999999841
 30
0.0
 11
-797.76284597477024
 21
-69.299999999999727
 31
0.0
  0
CIRCLE
  8
SIZE
  6
CONTINUOUS
 62
    30
 10
-797.76284597477024
 20
-355.29999999999978
 30
0.0
 40
6.0
  0
LINE
  8
SIZE
  6
CONTINUOUS
 62
    30
 10
-797.76284597477024
 20
-355.29999999999978
 30
0.0
 11
-797.76284597477024
 21
-343.29999999999973
 31
0.0
  0
TEXT
  8
SIZE
  6
CONTINUOUS
 62
    30
 10
-822.76284597477024
 20
-280.35714285714272
 30
0.0
 40
64.0
  1
298
 50
90.0
 41
0.9
 72
     1
 11
-822.76284597477024
 21
-206.29999999999981
 31
0.0
  0
POINT
  8
DEFPOINTS
  6
CONTINUOUS
 62
    30
 10
-399.19999999999891
 20
-57.299999999999947
 30
0.0
  0
POINT
  8
DEFPOINTS
  6
CONTINUOUS
 62
    30
 10
-399.19999999999891
 20
-355.29999999999978
 30
0.0
  0
POINT
  8
DEFPOINTS
  6
CONTINUOUS
 62
    30
 10
-797.76284597477024
 20
-355.29999999999978
 30
0.0
  0
LINE
  8
DETAIL
  6
CONTINUOUS
 62
     5
 39
50.0
 10
-483.80149040823568
 20
-527.79061491600748
 30
0.0
 11
-507.7981762309908
 21
-528.20947862510582
 31
0.0
  0
LINE
  8
OUTLINE
  6
CONTINUOUS
 62
     3
 39
50.0
 10
-507.79817623099132
 20
-528.20947862510582
 30
0.0
 11
-483.80149040823591
 21
-527.79061491600748
 31
0.0
  0
LINE
  8
SIZE
  6
CONTINUOUS
 62
    30
 10
-535.81367010649819
 20
-503.21398518930027
 30
0.0
 11
-995.54965267766602
 21
-503.21398518930022
 31
0.0
  0
LINE
  8
SIZE
  6
CONTINUOUS
 62
    30
 10
-563.01413270426508
 20
-528.00004677055688
 30
0.0
 11
-995.54965267766602
 21
-528.19648518930012
 31
0.0
  0
LINE
  8
SIZE
  6
CONTINUOUS
 62
    30
 10
-975.54965267766602
 20
-491.21398518930022
 30
0.0
 11
-975.54965267766602
 21
-479.21398518930022
 31
0.0
  0
LINE
  8
SIZE
  6
CONTINUOUS
 62
    30
 10
-975.54965267766602
 20
-540.19648518930012
 30
0.0
 11
-975.54965267766602
 21
-695.47112804644303
 31
0.0
  0
LINE
  8
SIZE
  6
CONTINUOUS
 62
    30
 10
-975.54965267766602
 20
-503.21398518930022
 30
0.0
 11
-975.54965267766602
 21
-528.19648518930012
 31
0.0
  0
CIRCLE
  8
SIZE
  6
CONTINUOUS
 62
    30
 10
-975.54965267766602
 20
-503.21398518930022
 30
0.0
 40
6.0
  0
LINE
  8
SIZE
  6
CONTINUOUS
 62
    30
 10
-975.54965267766602
 20
-503.21398518930022
 30
0.0
 11
-975.54965267766602
 21
-491.21398518930022
 31
0.0
  0
CIRCLE
  8
SIZE
  6
CONTINUOUS
 62
    30
 10
-975.54965267766602
 20
-528.18740207775568
 30
0.0
 40
6.0
  0
LINE
  8
SIZE
  6
CONTINUOUS
 62
    30
 10
-975.54965267766602
 20
-528.19648518930012
 30
0.0
 11
-975.54965267766602
 21
-540.19648518930012
 31
0.0
  0
TEXT
  8
SIZE
  6
CONTINUOUS
 62
    30
 10
-1000.549652677666
 20
-670.47112804644303
 30
0.0
 40
64.0
  1
25
 50
90.0
 41
0.9
 72
     1
 11
-1000.549652677666
 21
-623.84255661787165
 31
0.0
  0
POINT
  8
DEFPOINTS
  6
CONTINUOUS
 62
    30
 10
-515.81367010649819
 20
-503.21398518930027
 30
0.0
  0
POINT
  8
DEFPOINTS
  6
CONTINUOUS
 62
    30
 10
-507.79817623099132
 20
-528.20947862510582
 30
0.0
  0
POINT
  8
DEFPOINTS
  6
CONTINUOUS
 62
    30
 10
-975.54965267766602
 20
-528.19648518930012
 30
0.0
  0
LINE
  8
SIZE
  6
CONTINUOUS
 62
    30
 10
-535.81367010649819
 20
-503.21398518930027
 30
0.0
 11
-995.54965267766602
 21
-503.21398518930022
 31
0.0
  0
LINE
  8
SIZE
  6
CONTINUOUS
 62
    30
 10
-576.0
 20
-0.9999999999995453
 30
0.0
 11
-995.54965267766602
 21
-0.9999999999994316
 31
0.0
  0
LINE
  8
SIZE
  6
CONTINUOUS
 62
    30
 10
-975.54965267766602
 20
-491.21398518930022
 30
0.0
 11
-975.54965267766602
 21
-12.99999999999943
 31
0.0
  0
CIRCLE
  8
SIZE
  6
CONTINUOUS
 62
    30
 10
-975.54965267766602
 20
-503.21398518930022
 30
0.0
 40
6.0
  0
LINE
  8
SIZE
  6
CONTINUOUS
 62
    30
 10
-975.54965267766602
 20
-503.21398518930022
 30
0.0
 11
-975.54965267766602
 21
-491.21398518930022
 31
0.0
  0
CIRCLE
  8
SIZE
  6
CONTINUOUS
 62
    30
 10
-975.54965267766602
 20
-0.9999999999994316
 30
0.0
 40
6.0
  0
LINE
  8
SIZE
  6
CONTINUOUS
 62
    30
 10
-975.54965267766602
 20
-0.9999999999994316
 30
0.0
 11
-975.54965267766602
 21
-12.99999999999943
 31
0.0
  0
TEXT
  8
SIZE
  6
CONTINUOUS
 62
    30
 10
-1000.549652677666
 20
-326.16413545179222
 30
0.0
 40
64.0
  1
502
 50
90.0
 41
0.9
 72
     1
 11
-1000.549652677666
 21
-252.1069925946494
 31
0.0
  0
POINT
  8
DEFPOINTS
  6
CONTINUOUS
 62
    30
 10
-515.81367010649819
 20
-503.21398518930027
 30
0.0
  0
POINT
  8
DEFPOINTS
  6
CONTINUOUS
 62
    30
 10
-556.0
 20
-0.9999999999995453
 30
0.0
  0
POINT
  8
DEFPOINTS
  6
CONTINUOUS
 62
    30
 10
-975.54965267766602
 20
-0.9999999999994316
 30
0.0
  0
TEXT
  8
NOTE
  6
CONTINUOUS
 62
     4
 10
-737.72840669126845
 20
-251.87505849898881
 30
0.0
 40
64.0
  1
EL
 41
0.9
  0
LINE
  8
NOTE
  6
CONTINUOUS
 62
     4
 10
-748.28263591954783
 20
-278.40631449898848
 30
0.0
 11
-640.32604526269643
 21
-278.40631449898848
 31
0.0
  0
LINE
  8
NOTE
  6
CONTINUOUS
 62
     4
 10
-515.9310211501197
 20
-137.30018602226349
 30
0.0
 11
-640.32604526269643
 21
-278.40631449898848
 31
0.0
  0
LINE
  8
NOTE
  6
CONTINUOUS
 62
     4
 10
-515.9310211501197
 20
-137.30018602226349
 30
0.0
 11
-529.52550931924816
 21
-175.93358379466719
 31
0.0
  0
LINE
  8
NOTE
  6
CONTINUOUS
 62
     4
 10
-550.33169726286906
 20
-156.592998738977
 30
0.0
 11
-515.9310211501197
 21
-137.30018602226349
 31
0.0
  0
LINE
  8
NOTE
  6
CONTINUOUS
 62
     4
 10
-571.02832671661781
 20
-279.19999999999999
 30
0.0
 11
-464.66063496118107
 21
-279.19999999999999
 31
0.0
  0
TEXT
  8
NOTE
  6
CONTINUOUS
 62
     4
 10
-715.13840669127285
 20
-441.59657264656198
 30
0.0
 40
64.0
  1
GE
 41
0.9
  0
LINE
  8
NOTE
  6
CONTINUOUS
 62
     4
 10
-725.69263591955223
 20
-468.12782864656168
 30
0.0
 11
-617.73604526270083
 21
-468.12782864656168
 31
0.0
  0
LINE
  8
NOTE
  6
CONTINUOUS
 62
     4
 10
-493.34102115012411
 20
-279.30018602226352
 30
0.0
 11
-617.73604526270083
 21
-468.12782864656168
 31
0.0
  0
LINE
  8
NOTE
  6
CONTINUOUS
 62
     4
 10
-493.34102115012411
 20
-279.30018602226352
 30
0.0
 11
-503.16647155708961
 21
-317.93358379466719
 31
0.0
  0
LINE
  8
NOTE
  6
CONTINUOUS
 62
     4
 10
-527.74169726287346
 20
-305.30419775673141
 30
0.0
 11
-493.34102115012411
 21
-279.30018602226352
 31
0.0
  0
TEXT
  8
NOTE
  6
CONTINUOUS
 62
     4
 10
645.76881283538478
 20
157.41258593902441
 30
0.0
 40
64.0
  1
AH 4-(13.5×22)
 41
0.9
  0
LINE
  8
NOTE
  6
CONTINUOUS
 62
     4
 10
1363.735188950719
 20
140.1061275630602
 30
0.0
 11
633.39502283538422
 21
140.1061275630602
 31
0.0
  0
LINE
  8
NOTE
  6
CONTINUOUS
 62
     4
 10
508.9999987228075
 20
-1.0000009136649619
 30
0.0
 11
633.39502283538422
 21
140.1061275630602
 31
0.0
  0
LINE
  8
NOTE
  6
CONTINUOUS
 62
     4
 10
508.9999987228075
 20
-1.0000009136649619
 30
0.0
 11
522.59448689193596
 21
37.633396858738926
 31
0.0
  0
LINE
  8
NOTE
  6
CONTINUOUS
 62
     4
 10
543.40067483555686
 20
18.292811803048831
 30
0.0
 11
508.9999987228075
 21
-1.0000009136649619
 31
0.0
  0
TEXT
  8
NOTE
  6
CONTINUOUS
 62
     4
 10
-913.25691745088261
 20
-690.30093995904963
 30
0.0
 40
64.0
  1
D R1/2
 41
0.9
  0
LINE
  8
NOTE
  6
CONTINUOUS
 62
     4
 10
-935.62807787994075
 20
-716.83219595904939
 30
0.0
 11
-619.62470546944144
 21
-716.83219595904939
 31
0.0
  0
LINE
  8
NOTE
  6
CONTINUOUS
 62
     4
 10
-495.80003331961319
 20
-528.00004677055665
 30
0.0
 11
-619.6249054694415
 21
-716.83219595904939
 31
0.0
  0
LINE
  8
NOTE
  6
CONTINUOUS
 62
     4
 10
-495.80003331961319
 20
-528.00004677055665
 30
0.0
 11
-505.05533176383022
 21
-566.63795110715489
 31
0.0
  0
LINE
  8
NOTE
  6
CONTINUOUS
 62
     4
 10
-529.63055746961413
 20
-554.008565069219
 30
0.0
 11
-495.80003331961319
 21
-528.00004677055665
 31
0.0
  0
POINT
  8
ARRANGE
  6
CONTINUOUS
 62
     1
 10
0.0
 20
0.0
 30
0.0
 39
50.0
  0
LINE
  8
SIZE
  6
CONTINUOUS
 62
    30
 10
-476.0
 20
20.0
 30
0.0
 11
-476.0
 21
272.83209699304228
 31
0.0
  0
LINE
  8
SIZE
  6
CONTINUOUS
 62
    30
 10
476.0
 20
20.0
 30
0.0
 11
476.0
 21
272.83209699304228
 31
0.0
  0
LINE
  8
SIZE
  6
CONTINUOUS
 62
    30
 10
-464.0
 20
252.83209699304231
 30
0.0
 11
464.0
 21
252.83209699304231
 31
0.0
  0
CIRCLE
  8
SIZE
  6
CONTINUOUS
 62
    30
 10
-476.0
 20
252.83209699304231
 30
0.0
 40
6.0
  0
LINE
  8
SIZE
  6
CONTINUOUS
 62
    30
 10
-476.0
 20
252.83209699304231
 30
0.0
 11
-464.0
 21
252.83209699304231
 31
0.0
  0
CIRCLE
  8
SIZE
  6
CONTINUOUS
 62
    30
 10
476.0
 20
252.83209699304231
 30
0.0
 40
6.0
  0
LINE
  8
SIZE
  6
CONTINUOUS
 62
    30
 10
476.0
 20
252.83209699304231
 30
0.0
 11
464.0
 21
252.83209699304231
 31
0.0
  0
TEXT
  8
SIZE
  6
CONTINUOUS
 62
    30
 10
-74.05714285714285
 20
277.83209699304228
 30
0.0
 40
64.0
  1
952
 41
0.9
 72
     1
 11
0.0
 21
277.83209699304228
 31
0.0
  0
POINT
  8
DEFPOINTS
  6
CONTINUOUS
 62
    30
 10
-476.0
 20
0.0
 30
0.0
  0
POINT
  8
DEFPOINTS
  6
CONTINUOUS
 62
    30
 10
476.0
 20
0.0
 30
0.0
  0
POINT
  8
DEFPOINTS
  6
CONTINUOUS
 62
    30
 10
476.0
 20
252.83209699304231
 30
0.0
  0
TEXT
  8
NOTE
  6
CONTINUOUS
 62
     4
 10
-41.595404965325542
 20
-246.07286023638559
 30
0.0
 40
64.0
  1
EA
 41
0.9
  0
LINE
  8
NOTE
  6
CONTINUOUS
 62
     4
 10
-495.80003331961319
 20
-461.33819841995592
 30
0.0
 11
-495.80003331961319
 21
-594.69689512115747
 31
0.0
  0
LINE
  8
NOTE
  6
CONTINUOUS
 62
     4
 10
-538.85014089976221
 20
-528.00005026156964
 30
0.0
 11
-452.74992573946429
 21
-528.00005026156964
 31
0.0
  0
ENDSEC
  0
EOF
