  0
SECTION
  2
HEADER
  9
$ACADVER
  1
AC1009
  9
$DWGCODEPAGE
  3
dos932
  9
$INSBASE
 10
0.0
 20
0.0
 30
0.0
  9
$EXTMIN
 10
-1974.0783541510809
 20
-1340.377796953984
 30
-0.0015257624927045
  9
$EXTMAX
 10
1584.338391123267
 20
1342.620858506556
 30
50.001525995323327
  9
$LIMMIN
 10
-2970.0
 20
-2100.0
  9
$LIMMAX
 10
2970.0
 20
2100.0
  9
$ORTHOMODE
 70
     1
  9
$REGENMODE
 70
     1
  9
$FILLMODE
 70
     1
  9
$QTEXTMODE
 70
     0
  9
$MIRRTEXT
 70
     0
  9
$LTSCALE
 40
20.0
  9
$ATTMODE
 70
     1
  9
$TEXTSIZE
 40
64.0
  9
$TRACEWID
 40
0.05
  9
$TEXTSTYLE
  7
STANDARD
  9
$CLAYER
  8
SIZE
  9
$CELTYPE
  6
CONTINUOUS
  9
$CECOLOR
 62
     7
  9
$DIMSCALE
 40
1.0
  9
$DIMASZ
 40
12.0
  9
$DIMEXO
 40
20.0
  9
$DIMDLI
 40
200.0
  9
$DIMRND
 40
0.0
  9
$DIMDLE
 40
0.0
  9
$DIMEXE
 40
20.0
  9
$DIMTP
 40
0.0
  9
$DIMTM
 40
0.0
  9
$DIMTXT
 40
64.0
  9
$DIMCEN
 40
0.09
  9
$DIMTSZ
 40
0.0
  9
$DIMTOL
 70
     0
  9
$DIMLIM
 70
     0
  9
$DIMTIH
 70
     0
  9
$DIMTOH
 70
     0
  9
$DIMSE1
 70
     0
  9
$DIMSE2
 70
     0
  9
$DIMTAD
 70
     1
  9
$DIMZIN
 70
     8
  9
$DIMBLK
  1

  9
$DIMASO
 70
     1
  9
$DIMSHO
 70
     0
  9
$DIMPOST
  1

  9
$DIMAPOST
  1

  9
$DIMALT
 70
     0
  9
$DIMALTD
 70
     2
  9
$DIMALTF
 40
25.399999999999999
  9
$DIMLFAC
 40
1.0
  9
$DIMTOFL
 70
     1
  9
$DIMTVP
 40
0.0
  9
$DIMTIX
 70
     1
  9
$DIMSOXD
 70
     0
  9
$DIMSAH
 70
     0
  9
$DIMBLK1
  1

  9
$DIMBLK2
  1

  9
$DIMSTYLE
  2
STANDARD
  9
$DIMCLRD
 70
     7
  9
$DIMCLRE
 70
     7
  9
$DIMCLRT
 70
     7
  9
$DIMTFAC
 40
1.0
  9
$DIMGAP
 40
25.0
  9
$LUNITS
 70
     2
  9
$LUPREC
 70
     4
  9
$SKETCHINC
 40
0.1
  9
$FILLETRAD
 40
3.0
  9
$AUNITS
 70
     1
  9
$AUPREC
 70
     3
  9
$MENU
  1
ACAD
  9
$ELEVATION
 40
0.0
  9
$PELEVATION
 40
0.0
  9
$THICKNESS
 40
50.0
  9
$LIMCHECK
 70
     0
  9
$CHAMFERA
 40
0.0
  9
$CHAMFERB
 40
0.0
  9
$SKPOLY
 70
     0
  9
$TDCREATE
 40
2453019.62301037
  9
$TDUPDATE
 40
2458659.688895532
  9
$TDINDWG
 40
1.7285345023
  9
$TDUSRTIMER
 40
1.7285345023
  9
$USRTIMER
 70
     1
  9
$ANGBASE
 50
0.0
  9
$ANGDIR
 70
     0
  9
$PDMODE
 70
     3
  9
$PDSIZE
 40
-2.0
  9
$PLINEWID
 40
0.0
  9
$SPLFRAME
 70
     0
  9
$SPLINETYPE
 70
     6
  9
$SPLINESEGS
 70
     8
  9
$SURFTAB1
 70
     6
  9
$SURFTAB2
 70
     6
  9
$SURFTYPE
 70
     6
  9
$SURFU
 70
     6
  9
$SURFV
 70
     6
  9
$UCSNAME
  2

  9
$UCSORG
 10
0.0
 20
0.0
 30
0.0
  9
$UCSXDIR
 10
1.0
 20
0.0
 30
0.0
  9
$UCSYDIR
 10
0.0
 20
1.0
 30
0.0
  9
$PUCSNAME
  2

  9
$PUCSORG
 10
0.0
 20
0.0
 30
0.0
  9
$PUCSXDIR
 10
1.0
 20
0.0
 30
0.0
  9
$PUCSYDIR
 10
0.0
 20
1.0
 30
0.0
  9
$USERI1
 70
     0
  9
$USERI2
 70
     0
  9
$USERI3
 70
     0
  9
$USERI4
 70
     0
  9
$USERI5
 70
     0
  9
$USERR1
 40
20.0
  9
$USERR2
 40
0.0
  9
$USERR3
 40
0.0
  9
$USERR4
 40
0.0
  9
$USERR5
 40
0.0
  9
$WORLDVIEW
 70
     1
  9
$SHADEDGE
 70
     3
  9
$SHADEDIF
 70
    70
  9
$TILEMODE
 70
     1
  9
$MAXACTVP
 70
    48
  9
$PINSBASE
 10
0.0
 20
0.0
 30
0.0
  9
$PLIMCHECK
 70
     0
  9
$PEXTMIN
 10
-100000000000000000000.0
 20
-100000000000000000000.0
 30
-100000000000000000000.0
  9
$PEXTMAX
 10
100000000000000000000.0
 20
100000000000000000000.0
 30
100000000000000000000.0
  9
$PLIMMIN
 10
0.0
 20
0.0
  9
$PLIMMAX
 10
12.0
 20
9.0
  9
$UNITMODE
 70
     0
  9
$VISRETAIN
 70
     0
  9
$PLINEGEN
 70
     0
  9
$PSLTSCALE
 70
     0
  9
$TREEDEPTH
 70
  3020
  9
$ATTDIA
 70
     0
  9
$ATTREQ
 70
     1
  9
$BLIPMODE
 70
     1
  9
$COORDS
 70
     1
  9
$DRAGMODE
 70
     2
  9
$OSMODE
 70
     0
  9
$HANDLING
 70
     0
  9
$HANDSEED
  5
F2C7
  0
ENDSEC
  0
SECTION
  2
TABLES
  0
TABLE
  2
LTYPE
 70
     2
  0
LTYPE
  2
CONTINUOUS
 70
     0
  3
実線
 72
    65
 73
     0
 40
0.0
  0
LTYPE
  2
DASHDOT
 70
     0
  3
____ _ ____ _ ____ _ ____ _ ____ _ ____ _ ____
 72
    65
 73
     4
 40
5.5
 49
4.0
 49
-0.6
 49
0.3
 49
-0.6
  0
ENDTAB
  0
TABLE
  2
LAYER
 70
    12
  0
LAYER
  2
0
 70
     0
 62
     7
  6
CONTINUOUS
  0
LAYER
  2
BASIS
 70
     0
 62
     6
  6
DASHDOT
  0
LAYER
  2
OUTLINE
 70
     0
 62
     3
  6
CONTINUOUS
  0
LAYER
  2
DETAIL
 70
     0
 62
     5
  6
CONTINUOUS
  0
LAYER
  2
SIZE
 70
     0
 62
    30
  6
CONTINUOUS
  0
LAYER
  2
ARRANGE
 70
     0
 62
     1
  6
CONTINUOUS
  0
LAYER
  2
DEFPOINTS
 70
     0
 62
     7
  6
CONTINUOUS
  0
LAYER
  2
ETC
 70
     0
 62
    61
  6
CONTINUOUS
  0
LAYER
  2
FIX
 70
     0
 62
    11
  6
CONTINUOUS
  0
LAYER
  2
NOTE
 70
     0
 62
     4
  6
CONTINUOUS
  0
LAYER
  2
SERVICESPACE
 70
     0
 62
     2
  6
DASHDOT
  0
LAYER
  2
SYMBOLLINE
 70
    64
 62
    15
  6
CONTINUOUS
  0
ENDTAB
  0
TABLE
  2
STYLE
 70
     1
  0
STYLE
  2
STANDARD
 70
     0
 40
64.0
 41
0.9
 50
0.0
 71
     0
 42
64.0
  3
SIMPLEX.shx
  4
BIGFONT.shx
  0
ENDTAB
  0
TABLE
  2
APPID
 70
    17
  0
APPID
  2
ACAD
 70
     0
  0
APPID
  2
AUTOCAD_POSTSCRIPT_FIGURE
 70
     0
  0
APPID
  2
ACAD_EXEMPT_FROM_CAD_STANDARDS
 70
     0
  0
APPID
  2
ACAD_PSEXT
 70
     0
  0
APPID
  2
ACAUTHENVIRON
 70
     0
  0
APPID
  2
GENIUS_GENOENT_13
 70
     0
  0
APPID
  2
GENIUS_GENCFG_13
 70
     0
  0
APPID
  2
GENIUS_GENCFG0_13
 70
     0
  0
APPID
  2
GENIUS_GENCFG1_13
 70
     0
  0
APPID
  2
GENIUS_GENCFG2_13
 70
     0
  0
APPID
  2
GENIUS_GENCFG3_13
 70
     0
  0
APPID
  2
GENIUS_GENCFG4_13
 70
     0
  0
APPID
  2
GENIUS_GEVCFG0_13
 70
     0
  0
APPID
  2
CONTENTBLOCKICON
 70
     0
  0
APPID
  2
CONTENTBLOCKDESCRIPTION
 70
     0
  0
APPID
  2
ACAD_NAV_VCDISPLAY
 70
     0
  0
APPID
  2
ACAD_MLEADERVER
 70
     0
  0
ENDTAB
  0
TABLE
  2
DIMSTYLE
 70
     1
  0
DIMSTYLE
  2
STANDARD
 70
     0
  3

  4

  5
_ORIGIN
  6

  7

 40
1.0
 41
12.0
 42
20.0
 43
200.0
 44
20.0
 45
0.0
 46
0.0
 47
0.0
 48
0.0
140
64.0
141
0.09
142
0.0
143
25.399999999999999
144
1.0
145
0.0
146
1.0
147
25.0
 71
     0
 72
     0
 73
     0
 74
     0
 75
     0
 76
     0
 77
     1
 78
     8
170
     0
171
     2
172
     1
173
     0
174
     1
175
     0
176
     7
177
     7
178
     7
  0
ENDTAB
  0
TABLE
  2
VIEW
 70
     1
  0
VIEW
  2
ALL
 70
     0
 40
4282.6198079999986
 10
0.0
 20
41.309904000000003
 41
5940.0
 11
0.0
 21
0.0
 31
1.0
 12
0.0
 22
0.0
 32
0.0
 42
50.0
 43
0.0
 44
0.0
 50
0.0
 71
     0
  0
ENDTAB
  0
TABLE
  2
UCS
 70
     0
  0
ENDTAB
  0
TABLE
  2
VPORT
 70
     1
  0
VPORT
  2
*ACTIVE
 70
     0
 10
0.0
 20
0.0
 11
1.0
 21
1.0
 12
-194.86998151390719
 22
1.1215307762859079
 13
0.0
 23
0.0
 14
1.0
 24
1.0
 15
0.0
 25
0.0
 16
0.0
 26
0.0
 36
1.0
 17
0.0
 27
0.0
 37
0.0
 40
2699.8024048684351
 41
1.650992685475444
 42
50.0
 43
0.0
 44
0.0
 50
0.0
 51
0.0
 71
     0
 72
  1000
 73
     1
 74
     3
 75
     0
 76
     0
 77
     0
 78
     0
  0
ENDTAB
  0
ENDSEC
  0
SECTION
  2
BLOCKS
  0
BLOCK
  8
0
  2
_ORIGIN
 70
     0
 10
0.0
 20
0.0
 30
0.0
  3
_ORIGIN
  1
_ORIGIN
  0
CIRCLE
  8
0
  6
CONTINUOUS
 62
     7
 10
0.0
 20
0.0
 30
0.0
 40
0.5
  0
LINE
  8
0
  6
CONTINUOUS
 62
     7
 10
0.0
 20
0.0
 30
0.0
 11
-1.0
 21
0.0
 31
0.0
  0
ENDBLK
  8
0
  0
ENDSEC
  0
SECTION
  2
ENTITIES
  0
CIRCLE
  8
ARRANGE
  6
CONTINUOUS
 62
     1
 10
0.0
 20
0.0
 30
0.0
 40
40.0
  0
TEXT
  8
ETC
  6
CONTINUOUS
 62
    61
 10
980.80609550119243
 20
289.07565229407032
 30
0.0
 40
64.0
  1
BFS-800TX2_6
 41
0.9
  0
TEXT
  8
ETC
  6
CONTINUOUS
 62
    61
 10
976.62010150119204
 20
171.12034227923911
 30
0.0
 40
64.0
  1
産業扇
 41
0.9
  0
TEXT
  8
ETC
  6
CONTINUOUS
 62
    61
 10
1027.321499749748
 20
62.971569393013851
 30
0.0
 40
40.0
  1
BFS-800TX2
 41
0.9
  0
LINE
  8
BASIS
  6
DASHDOT
 62
     6
 39
50.0
 10
-722.32166883889295
 20
0.0000000000002274
 30
0.0
 11
684.10973291061964
 21
0.0
 31
0.0
  0
LINE
  8
BASIS
  6
DASHDOT
 62
     6
 39
50.0
 10
0.0
 20
-1124.636661651803
 30
0.0
 11
0.0
 21
1017.443818676169
 31
0.0
  0
LINE
  8
DETAIL
  6
CONTINUOUS
 62
     5
 10
-516.21367010599988
 20
863.0
 30
0.0
 11
-516.21367010599988
 21
-863.0
 31
0.0
  0
LINE
  8
NOTE
  6
CONTINUOUS
 62
     4
 10
-524.1901857203211
 20
815.0
 30
0.0
 11
-492.30700920408799
 21
815.0
 31
0.0
  0
LINE
  8
NOTE
  6
CONTINUOUS
 62
     4
 10
-509.0
 20
799.10907249470074
 30
0.0
 11
-509.0
 21
830.65245020051225
 31
0.0
  0
CIRCLE
  8
FIX
  6
CONTINUOUS
 62
    11
 39
50.0
 10
-509.0
 20
815.0
 30
0.0
 40
10.0
  0
LINE
  8
NOTE
  6
CONTINUOUS
 62
     4
 10
493.93719945748131
 20
-815.00000000000011
 30
0.0
 11
520.69074337185884
 21
-815.00000000000011
 31
0.0
  0
LINE
  8
NOTE
  6
CONTINUOUS
 62
     4
 10
509.0
 20
-802.08193508300792
 30
0.0
 11
509.0
 21
-828.01203776347029
 31
0.0
  0
CIRCLE
  8
FIX
  6
CONTINUOUS
 62
    11
 39
50.0
 10
509.0
 20
-815.00000000000011
 30
0.0
 40
10.0
  0
LINE
  8
DETAIL
  6
CONTINUOUS
 62
     5
 39
50.0
 10
556.0
 20
793.0
 30
0.0
 11
556.0
 21
844.99999999999955
 31
0.0
  0
LINE
  8
DETAIL
  6
CONTINUOUS
 62
     5
 10
476.0
 20
793.0
 30
0.0
 11
502.25
 21
793.00000000000091
 31
0.0
  0
LINE
  8
DETAIL
  6
CONTINUOUS
 62
     5
 10
515.75
 20
793.0
 30
0.0
 11
556.0
 21
793.0
 31
0.0
  0
LINE
  8
DETAIL
  6
CONTINUOUS
 62
     5
 39
50.0
 10
-556.0
 20
793.0
 30
0.0
 11
-556.0
 21
845.0
 31
0.0
  0
LINE
  8
DETAIL
  6
CONTINUOUS
 62
     5
 10
-516.21367010599988
 20
793.0
 30
0.0
 11
-556.0
 21
793.0
 31
0.0
  0
LINE
  8
DETAIL
  6
CONTINUOUS
 62
     5
 39
50.0
 10
556.0
 20
-793.00000000000011
 30
0.0
 11
556.0
 21
-845.00000000000011
 31
0.0
  0
LINE
  8
DETAIL
  6
CONTINUOUS
 62
     5
 10
476.0
 20
-793.00000000000011
 30
0.0
 11
502.25
 21
-793.00000000000011
 31
0.0
  0
LINE
  8
DETAIL
  6
CONTINUOUS
 62
     5
 10
515.75
 20
-793.00000000000011
 30
0.0
 11
556.0
 21
-793.00000000000011
 31
0.0
  0
LINE
  8
DETAIL
  6
CONTINUOUS
 62
     5
 39
50.0
 10
-556.0
 20
-793.0
 30
0.0
 11
-556.0
 21
-845.0
 31
0.0
  0
LINE
  8
DETAIL
  6
CONTINUOUS
 62
     5
 10
-516.21367010599943
 20
-793.0
 30
0.0
 11
-556.0
 21
-793.0
 31
0.0
  0
LINE
  8
DETAIL
  6
CONTINUOUS
 62
     5
 39
50.0
 10
476.0
 20
-845.00000000000011
 30
0.0
 11
476.0
 21
844.99999999999955
 31
0.0
  0
LINE
  8
DETAIL
  6
CONTINUOUS
 62
     5
 39
50.0
 10
-556.0
 20
845.0
 30
0.0
 11
-516.21367010599988
 21
845.0
 31
0.0
  0
LINE
  8
DETAIL
  6
CONTINUOUS
 62
     5
 39
50.0
 10
-556.0
 20
-845.0
 30
0.0
 11
-516.21367010599988
 21
-845.0
 31
0.0
  0
LINE
  8
DETAIL
  6
CONTINUOUS
 62
     5
 39
50.0
 10
-399.0
 20
-925.0
 30
0.0
 11
399.0
 21
-925.0
 31
0.0
  0
LINE
  8
DETAIL
  6
CONTINUOUS
 62
     5
 39
50.0
 10
-399.0
 20
925.0
 30
0.0
 11
399.0
 21
925.0
 31
0.0
  0
LINE
  8
DETAIL
  6
CONTINUOUS
 62
     5
 39
50.0
 10
399.0
 20
-925.0
 30
0.0
 11
399.0
 21
-845.00000000000011
 31
0.0
  0
LINE
  8
DETAIL
  6
CONTINUOUS
 62
     5
 39
50.0
 10
399.0
 20
845.0
 30
0.0
 11
399.0
 21
925.0
 31
0.0
  0
LINE
  8
DETAIL
  6
CONTINUOUS
 62
     5
 39
50.0
 10
-399.0
 20
-925.0
 30
0.0
 11
-399.0
 21
-863.0
 31
0.0
  0
LINE
  8
DETAIL
  6
CONTINUOUS
 62
     5
 10
515.75
 20
-793.00000000000011
 30
0.0
 11
515.75
 21
-815.00000000000011
 31
0.0
  0
LINE
  8
DETAIL
  6
CONTINUOUS
 62
     5
 10
502.25
 20
-793.00000000000011
 30
0.0
 11
502.25
 21
-815.00000000000011
 31
0.0
  0
ARC
  8
DETAIL
  6
CONTINUOUS
 62
     5
 39
50.0
 10
509.0
 20
-815.00000000000011
 30
0.0
 40
6.75
 50
180.0
 51
0.0
  0
LINE
  8
NOTE
  6
CONTINUOUS
 62
     4
 10
-524.06280054251874
 20
-815.0
 30
0.0
 11
-497.30925662814121
 21
-815.0
 31
0.0
  0
LINE
  8
NOTE
  6
CONTINUOUS
 62
     4
 10
-509.0
 20
-802.08193508300781
 30
0.0
 11
-509.0
 21
-828.01203776347018
 31
0.0
  0
CIRCLE
  8
FIX
  6
CONTINUOUS
 62
    11
 39
50.0
 10
-509.0
 20
-815.0
 30
0.0
 40
10.0
  0
LINE
  8
NOTE
  6
CONTINUOUS
 62
     4
 10
493.93719945748131
 20
815.0
 30
0.0
 11
520.69074337185884
 21
815.0
 31
0.0
  0
LINE
  8
NOTE
  6
CONTINUOUS
 62
     4
 10
509.0
 20
827.91806491699208
 30
0.0
 11
509.0
 21
801.98796223652971
 31
0.0
  0
CIRCLE
  8
FIX
  6
CONTINUOUS
 62
    11
 39
50.0
 10
509.0
 20
815.0
 30
0.0
 40
10.0
  0
LINE
  8
DETAIL
  6
CONTINUOUS
 62
     5
 10
515.75
 20
793.0
 30
0.0
 11
515.75
 21
815.0
 31
0.0
  0
LINE
  8
DETAIL
  6
CONTINUOUS
 62
     5
 10
502.25
 20
793.0
 30
0.0
 11
502.25
 21
815.0
 31
0.0
  0
ARC
  8
DETAIL
  6
CONTINUOUS
 62
     5
 39
50.0
 10
509.0
 20
815.0
 30
0.0
 40
6.75
 50
0.0
 51
180.0
  0
LINE
  8
OUTLINE
  6
CONTINUOUS
 62
     3
 10
-516.21367010599988
 20
793.0
 30
0.0
 11
-516.21367010599988
 21
-793.0000000000008
 31
0.0
  0
LINE
  8
OUTLINE
  6
CONTINUOUS
 62
     3
 39
50.0
 10
556.0
 20
792.99999999999909
 30
0.0
 11
556.0
 21
844.99999999999909
 31
0.0
  0
LINE
  8
OUTLINE
  6
CONTINUOUS
 62
     3
 10
476.0
 20
792.99999999999818
 30
0.0
 11
502.25
 21
793.0
 31
0.0
  0
LINE
  8
OUTLINE
  6
CONTINUOUS
 62
     3
 10
515.75
 20
792.99999999999909
 30
0.0
 11
556.0
 21
792.99999999999909
 31
0.0
  0
LINE
  8
OUTLINE
  6
CONTINUOUS
 62
     3
 39
50.0
 10
-556.0
 20
792.99999999999909
 30
0.0
 11
-556.0
 21
844.99999999999909
 31
0.0
  0
LINE
  8
OUTLINE
  6
CONTINUOUS
 62
     3
 10
-516.21367010599988
 20
792.99999999999909
 30
0.0
 11
-556.0
 21
792.99999999999909
 31
0.0
  0
LINE
  8
OUTLINE
  6
CONTINUOUS
 62
     3
 39
50.0
 10
556.0
 20
-793.00000000000102
 30
0.0
 11
556.0
 21
-845.00000000000102
 31
0.0
  0
LINE
  8
OUTLINE
  6
CONTINUOUS
 62
     3
 10
476.0
 20
-793.00000000000011
 30
0.0
 11
502.25
 21
-793.00000000000102
 31
0.0
  0
LINE
  8
OUTLINE
  6
CONTINUOUS
 62
     3
 10
515.75
 20
-793.00000000000102
 30
0.0
 11
556.0
 21
-793.00000000000102
 31
0.0
  0
LINE
  8
OUTLINE
  6
CONTINUOUS
 62
     3
 39
50.0
 10
-556.0
 20
-793.0000000000008
 30
0.0
 11
-556.0
 21
-845.0000000000008
 31
0.0
  0
LINE
  8
OUTLINE
  6
CONTINUOUS
 62
     3
 10
-516.21367010599988
 20
-793.0000000000008
 30
0.0
 11
-556.0
 21
-793.0000000000008
 31
0.0
  0
LINE
  8
OUTLINE
  6
CONTINUOUS
 62
     3
 39
50.0
 10
476.0
 20
-793.00000000000011
 30
0.0
 11
476.0
 21
793.0
 31
0.0
  0
LINE
  8
OUTLINE
  6
CONTINUOUS
 62
     3
 39
50.0
 10
-556.0
 20
844.99999999999909
 30
0.0
 11
-516.21367010599988
 21
845.0
 31
0.0
  0
LINE
  8
OUTLINE
  6
CONTINUOUS
 62
     3
 39
50.0
 10
399.0
 20
844.99999999999909
 30
0.0
 11
556.0
 21
844.99999999999909
 31
0.0
  0
LINE
  8
OUTLINE
  6
CONTINUOUS
 62
     3
 39
50.0
 10
-556.0
 20
-845.0000000000008
 30
0.0
 11
-516.21367010599988
 21
-844.99999999999898
 31
0.0
  0
LINE
  8
OUTLINE
  6
CONTINUOUS
 62
     3
 39
50.0
 10
399.0
 20
-845.00000000000102
 30
0.0
 11
556.0
 21
-845.00000000000102
 31
0.0
  0
LINE
  8
OUTLINE
  6
CONTINUOUS
 62
     3
 39
50.0
 10
-399.0
 20
-925.0000000000008
 30
0.0
 11
399.0
 21
-925.00000000000102
 31
0.0
  0
LINE
  8
OUTLINE
  6
CONTINUOUS
 62
     3
 39
50.0
 10
-399.0
 20
924.99999999999909
 30
0.0
 11
399.0
 21
924.99999999999864
 31
0.0
  0
LINE
  8
OUTLINE
  6
CONTINUOUS
 62
     3
 39
50.0
 10
399.0
 20
-925.00000000000102
 30
0.0
 11
399.0
 21
-845.00000000000102
 31
0.0
  0
LINE
  8
OUTLINE
  6
CONTINUOUS
 62
     3
 39
50.0
 10
399.0
 20
844.99999999999909
 30
0.0
 11
399.0
 21
924.99999999999864
 31
0.0
  0
LINE
  8
OUTLINE
  6
CONTINUOUS
 62
     3
 39
50.0
 10
-399.0
 20
-925.0000000000008
 30
0.0
 11
-399.0
 21
-863.0
 31
0.0
  0
LINE
  8
OUTLINE
  6
CONTINUOUS
 62
     3
 39
50.0
 10
-399.0
 20
863.0
 30
0.0
 11
-399.0
 21
924.99999999999909
 31
0.0
  0
LINE
  8
OUTLINE
  6
CONTINUOUS
 62
     3
 10
515.75
 20
-793.00000000000102
 30
0.0
 11
515.75
 21
-815.00000000000102
 31
0.0
  0
LINE
  8
OUTLINE
  6
CONTINUOUS
 62
     3
 10
502.25
 20
-793.00000000000102
 30
0.0
 11
502.25
 21
-815.00000000000102
 31
0.0
  0
ARC
  8
OUTLINE
  6
CONTINUOUS
 62
     3
 39
50.0
 10
509.0
 20
-815.00000000000102
 30
0.0
 40
6.75
 50
180.0
 51
0.0
  0
LINE
  8
OUTLINE
  6
CONTINUOUS
 62
     3
 10
515.75
 20
792.99999999999909
 30
0.0
 11
515.75
 21
814.99999999999909
 31
0.0
  0
LINE
  8
OUTLINE
  6
CONTINUOUS
 62
     3
 10
502.25
 20
792.99999999999909
 30
0.0
 11
502.25
 21
814.99999999999909
 31
0.0
  0
ARC
  8
OUTLINE
  6
CONTINUOUS
 62
     3
 39
50.0
 10
509.0
 20
814.99999999999909
 30
0.0
 40
6.75
 50
0.0
 51
180.0
  0
LINE
  8
DETAIL
  6
CONTINUOUS
 62
     5
 39
50.0
 10
-516.21367010599988
 20
863.0
 30
0.0
 11
-76.213670105999881
 21
863.0
 31
0.0
  0
LINE
  8
DETAIL
  6
CONTINUOUS
 62
     5
 39
50.0
 10
-516.21367010599988
 20
844.99999999999909
 30
0.0
 11
-516.21367010599988
 21
863.0
 31
0.0
  0
LINE
  8
OUTLINE
  6
CONTINUOUS
 62
     3
 39
50.0
 10
-399.0
 20
863.0
 30
0.0
 11
-516.21367010599988
 21
863.0
 31
0.0
  0
LINE
  8
OUTLINE
  6
CONTINUOUS
 62
     3
 39
50.0
 10
-516.21367010599988
 20
863.0
 30
0.0
 11
-516.21367010599988
 21
845.0
 31
0.0
  0
LINE
  8
DETAIL
  6
CONTINUOUS
 62
     5
 39
50.0
 10
-516.21367010599988
 20
-863.0
 30
0.0
 11
-76.213670105999881
 21
-863.0
 31
0.0
  0
LINE
  8
DETAIL
  6
CONTINUOUS
 62
     5
 39
50.0
 10
-516.21367010599988
 20
-844.99999999999898
 30
0.0
 11
-516.21367010599988
 21
-863.0
 31
0.0
  0
LINE
  8
OUTLINE
  6
CONTINUOUS
 62
     3
 39
50.0
 10
-399.0
 20
-863.0
 30
0.0
 11
-516.21367010599988
 21
-863.0
 31
0.0
  0
LINE
  8
OUTLINE
  6
CONTINUOUS
 62
     3
 39
50.0
 10
-516.21367010599988
 20
-863.0
 30
0.0
 11
-516.21367010599988
 21
-845.0
 31
0.0
  0
LINE
  8
SIZE
  6
CONTINUOUS
 62
    30
 10
540.69074337185884
 20
815.0
 30
0.0
 11
814.30860214676613
 21
814.99999999999955
 31
0.0
  0
LINE
  8
SIZE
  6
CONTINUOUS
 62
    30
 10
540.69074337185884
 20
-815.00000000000011
 30
0.0
 11
814.30860214676613
 21
-815.00000000000011
 31
0.0
  0
LINE
  8
SIZE
  6
CONTINUOUS
 62
    30
 10
794.30860214676613
 20
802.99999999999955
 30
0.0
 11
794.30860214676613
 21
-803.00000000000011
 31
0.0
  0
CIRCLE
  8
SIZE
  6
CONTINUOUS
 62
    30
 10
794.30860214676613
 20
814.99999999999955
 30
0.0
 40
6.0
  0
LINE
  8
SIZE
  6
CONTINUOUS
 62
    30
 10
794.30860214676613
 20
814.99999999999955
 30
0.0
 11
794.30860214676613
 21
802.99999999999955
 31
0.0
  0
CIRCLE
  8
SIZE
  6
CONTINUOUS
 62
    30
 10
794.30860214676613
 20
-815.00000000000011
 30
0.0
 40
6.0
  0
LINE
  8
SIZE
  6
CONTINUOUS
 62
    30
 10
794.30860214676613
 20
-815.00000000000011
 30
0.0
 11
794.30860214676613
 21
-803.00000000000011
 31
0.0
  0
TEXT
  8
SIZE
  6
CONTINUOUS
 62
    30
 10
769.30860214676613
 20
-95.999999999999986
 30
0.0
 40
64.0
  1
1630
 50
90.0
 41
0.9
 72
     1
 11
769.30860214676613
 21
0.0
 31
0.0
  0
POINT
  8
DEFPOINTS
  6
CONTINUOUS
 62
    30
 10
520.69074337185884
 20
815.0
 30
0.0
  0
POINT
  8
DEFPOINTS
  6
CONTINUOUS
 62
    30
 10
520.69074337185884
 20
-815.00000000000011
 30
0.0
  0
POINT
  8
DEFPOINTS
  6
CONTINUOUS
 62
    30
 10
794.30860214676613
 20
-815.00000000000011
 30
0.0
  0
LINE
  8
SIZE
  6
CONTINUOUS
 62
    30
 10
576.0
 20
845.0
 30
0.0
 11
931.6988881726561
 21
844.99999999999955
 31
0.0
  0
LINE
  8
SIZE
  6
CONTINUOUS
 62
    30
 10
576.0
 20
-845.00000000000102
 30
0.0
 11
931.69888817265519
 21
-845.00000000000102
 31
0.0
  0
LINE
  8
SIZE
  6
CONTINUOUS
 62
    30
 10
911.6988881726561
 20
832.99999999999955
 30
0.0
 11
911.69888817265519
 21
-833.00000000000102
 31
0.0
  0
CIRCLE
  8
SIZE
  6
CONTINUOUS
 62
    30
 10
911.6988881726561
 20
844.99999999999955
 30
0.0
 40
6.0
  0
LINE
  8
SIZE
  6
CONTINUOUS
 62
    30
 10
911.6988881726561
 20
844.99999999999955
 30
0.0
 11
911.6988881726561
 21
832.99999999999955
 31
0.0
  0
CIRCLE
  8
SIZE
  6
CONTINUOUS
 62
    30
 10
911.69888817265519
 20
-845.00000000000102
 30
0.0
 40
6.0
  0
LINE
  8
SIZE
  6
CONTINUOUS
 62
    30
 10
911.69888817265519
 20
-845.00000000000102
 30
0.0
 11
911.69888817265519
 21
-833.00000000000102
 31
0.0
  0
TEXT
  8
SIZE
  6
CONTINUOUS
 62
    30
 10
886.69888817265564
 20
-96.000000000001137
 30
0.0
 40
64.0
  1
1690
 50
90.0
 41
0.9
 72
     1
 11
886.69888817265564
 21
-0.0000000000011369
 31
0.0
  0
POINT
  8
DEFPOINTS
  6
CONTINUOUS
 62
    30
 10
556.0
 20
845.0
 30
0.0
  0
POINT
  8
DEFPOINTS
  6
CONTINUOUS
 62
    30
 10
556.0
 20
-845.00000000000102
 30
0.0
  0
POINT
  8
DEFPOINTS
  6
CONTINUOUS
 62
    30
 10
911.69888817265519
 20
-845.00000000000102
 30
0.0
  0
LINE
  8
SIZE
  6
CONTINUOUS
 62
    30
 10
399.0
 20
-945.0
 30
0.0
 11
399.0
 21
-1340.1219890388959
 31
0.0
  0
LINE
  8
SIZE
  6
CONTINUOUS
 62
    30
 10
-399.0
 20
-945.0
 30
0.0
 11
-399.0
 21
-1340.1219890388959
 31
0.0
  0
LINE
  8
SIZE
  6
CONTINUOUS
 62
    30
 10
387.0
 20
-1320.1219890388959
 30
0.0
 11
-387.0
 21
-1320.1219890388959
 31
0.0
  0
CIRCLE
  8
SIZE
  6
CONTINUOUS
 62
    30
 10
399.0
 20
-1320.1219890388959
 30
0.0
 40
6.0
  0
LINE
  8
SIZE
  6
CONTINUOUS
 62
    30
 10
399.0
 20
-1320.1219890388959
 30
0.0
 11
387.0
 21
-1320.1219890388959
 31
0.0
  0
CIRCLE
  8
SIZE
  6
CONTINUOUS
 62
    30
 10
-399.0
 20
-1320.1219890388959
 30
0.0
 40
6.0
  0
LINE
  8
SIZE
  6
CONTINUOUS
 62
    30
 10
-399.0
 20
-1320.1219890388959
 30
0.0
 11
-387.0
 21
-1320.1219890388959
 31
0.0
  0
TEXT
  8
SIZE
  6
CONTINUOUS
 62
    30
 10
-74.05714285714285
 20
-1295.1219890388959
 30
0.0
 40
64.0
  1
798
 41
0.9
 72
     1
 11
0.0
 21
-1295.1219890388959
 31
0.0
  0
POINT
  8
DEFPOINTS
  6
CONTINUOUS
 62
    30
 10
399.0
 20
-925.0
 30
0.0
  0
POINT
  8
DEFPOINTS
  6
CONTINUOUS
 62
    30
 10
-399.0
 20
-925.0
 30
0.0
  0
POINT
  8
DEFPOINTS
  6
CONTINUOUS
 62
    30
 10
-399.0
 20
-1320.1219890388959
 30
0.0
  0
LINE
  8
SIZE
  6
CONTINUOUS
 62
    30
 10
-509.0
 20
850.65245020051225
 30
0.0
 11
-509.0
 21
1145.831690932238
 31
0.0
  0
LINE
  8
SIZE
  6
CONTINUOUS
 62
    30
 10
509.0
 20
847.91806491699208
 30
0.0
 11
509.0
 21
1145.831690932238
 31
0.0
  0
LINE
  8
SIZE
  6
CONTINUOUS
 62
    30
 10
-497.0
 20
1125.831690932238
 30
0.0
 11
497.0
 21
1125.831690932238
 31
0.0
  0
CIRCLE
  8
SIZE
  6
CONTINUOUS
 62
    30
 10
-509.0
 20
1125.831690932238
 30
0.0
 40
6.0
  0
LINE
  8
SIZE
  6
CONTINUOUS
 62
    30
 10
-509.0
 20
1125.831690932238
 30
0.0
 11
-497.0
 21
1125.831690932238
 31
0.0
  0
CIRCLE
  8
SIZE
  6
CONTINUOUS
 62
    30
 10
509.0
 20
1125.831690932238
 30
0.0
 40
6.0
  0
LINE
  8
SIZE
  6
CONTINUOUS
 62
    30
 10
509.0
 20
1125.831690932238
 30
0.0
 11
497.0
 21
1125.831690932238
 31
0.0
  0
TEXT
  8
SIZE
  6
CONTINUOUS
 62
    30
 10
-90.514285714285705
 20
1150.831690932238
 30
0.0
 40
64.0
  1
1018
 41
0.9
 72
     1
 11
0.0
 21
1150.831690932238
 31
0.0
  0
POINT
  8
DEFPOINTS
  6
CONTINUOUS
 62
    30
 10
-509.0
 20
830.65245020051225
 30
0.0
  0
POINT
  8
DEFPOINTS
  6
CONTINUOUS
 62
    30
 10
509.0
 20
827.91806491699208
 30
0.0
  0
POINT
  8
DEFPOINTS
  6
CONTINUOUS
 62
    30
 10
509.0
 20
1125.831690932238
 30
0.0
  0
LINE
  8
SIZE
  6
CONTINUOUS
 62
    30
 10
556.0
 20
864.99999999999909
 30
0.0
 11
556.0
 21
1273.3921094194741
 31
0.0
  0
LINE
  8
SIZE
  6
CONTINUOUS
 62
    30
 10
-556.0
 20
865.0
 30
0.0
 11
-556.0
 21
1273.3921094194741
 31
0.0
  0
LINE
  8
SIZE
  6
CONTINUOUS
 62
    30
 10
544.0
 20
1253.3921094194741
 30
0.0
 11
-544.0
 21
1253.3921094194741
 31
0.0
  0
CIRCLE
  8
SIZE
  6
CONTINUOUS
 62
    30
 10
556.0
 20
1253.3921094194741
 30
0.0
 40
6.0
  0
LINE
  8
SIZE
  6
CONTINUOUS
 62
    30
 10
556.0
 20
1253.3921094194741
 30
0.0
 11
544.0
 21
1253.3921094194741
 31
0.0
  0
CIRCLE
  8
SIZE
  6
CONTINUOUS
 62
    30
 10
-556.0
 20
1253.3921094194741
 30
0.0
 40
6.0
  0
LINE
  8
SIZE
  6
CONTINUOUS
 62
    30
 10
-556.0
 20
1253.3921094194741
 30
0.0
 11
-544.0
 21
1253.3921094194741
 31
0.0
  0
TEXT
  8
SIZE
  6
CONTINUOUS
 62
    30
 10
-85.028571428570956
 20
1278.3921094194741
 30
0.0
 40
64.0
  1
1112
 41
0.9
 72
     1
 11
0.0000000000004547
 21
1278.3921094194741
 31
0.0
  0
POINT
  8
DEFPOINTS
  6
CONTINUOUS
 62
    30
 10
556.0
 20
844.99999999999909
 30
0.0
  0
POINT
  8
DEFPOINTS
  6
CONTINUOUS
 62
    30
 10
-556.0
 20
845.0
 30
0.0
  0
POINT
  8
DEFPOINTS
  6
CONTINUOUS
 62
    30
 10
-556.0
 20
1253.3921094194741
 30
0.0
  0
LINE
  8
SERVICESPACE
  6
DASHDOT
 62
     2
 39
50.0
 10
-516.21367010599988
 20
875.0
 30
0.0
 11
-1616.213670105999
 21
875.00000000000045
 31
0.0
  0
LINE
  8
SERVICESPACE
  6
DASHDOT
 62
     2
 10
-1616.213670105999
 20
875.00000000000045
 30
0.0
 11
-1616.2136701060001
 21
-874.99999999999966
 31
0.0
  0
LINE
  8
SERVICESPACE
  6
DASHDOT
 62
     2
 39
50.0
 10
-516.21367010599988
 20
-875.0
 30
0.0
 11
-1616.2136701060001
 21
-874.99999999999966
 31
0.0
  0
LINE
  8
SIZE
  6
CONTINUOUS
 62
    30
 10
-516.21367010599988
 20
-644.85596183129189
 30
0.0
 11
-516.21367010599988
 21
-692.63801161164474
 31
0.0
  0
LINE
  8
SIZE
  6
CONTINUOUS
 62
    30
 10
-1616.2136701060001
 20
-565.1145946656867
 30
0.0
 11
-1616.2136701060001
 21
-692.63801161164474
 31
0.0
  0
LINE
  8
SIZE
  6
CONTINUOUS
 62
    30
 10
-528.21367010599988
 20
-672.63801161164474
 30
0.0
 11
-1604.2136701060001
 21
-672.63801161164474
 31
0.0
  0
CIRCLE
  8
SIZE
  6
CONTINUOUS
 62
    30
 10
-516.21367010599988
 20
-672.63801161164474
 30
0.0
 40
6.0
  0
LINE
  8
SIZE
  6
CONTINUOUS
 62
    30
 10
-516.21367010599988
 20
-672.63801161164474
 30
0.0
 11
-528.21367010599988
 21
-672.63801161164474
 31
0.0
  0
CIRCLE
  8
SIZE
  6
CONTINUOUS
 62
    30
 10
-1616.2136701060001
 20
-672.63801161164474
 30
0.0
 40
6.0
  0
LINE
  8
SIZE
  6
CONTINUOUS
 62
    30
 10
-1616.2136701060001
 20
-672.63801161164474
 30
0.0
 11
-1604.2136701060001
 21
-672.63801161164474
 31
0.0
  0
TEXT
  8
SIZE
  6
CONTINUOUS
 62
    30
 10
-1449.363087130137
 20
-647.63801161164474
 30
0.0
 40
64.0
  1
1100以上
 41
0.9
 72
     1
 11
-1289.18022998728
 21
-647.63801161164474
 31
0.0
  0
POINT
  8
DEFPOINTS
  6
CONTINUOUS
 62
    30
 10
-516.21367010599988
 20
-624.85596183129189
 30
0.0
  0
POINT
  8
DEFPOINTS
  6
CONTINUOUS
 62
    30
 10
-1616.2136701060001
 20
-545.1145946656867
 30
0.0
  0
POINT
  8
DEFPOINTS
  6
CONTINUOUS
 62
    30
 10
-1616.2136701060001
 20
-672.63801161164474
 30
0.0
  0
LINE
  8
SIZE
  6
CONTINUOUS
 62
    30
 10
-1636.213670105999
 20
875.00000000000045
 30
0.0
 11
-1904.706432981076
 21
875.00000000000045
 31
0.0
  0
LINE
  8
SIZE
  6
CONTINUOUS
 62
    30
 10
-1636.2136701060001
 20
-874.99999999999966
 30
0.0
 11
-1904.7064329810769
 21
-874.99999999999955
 31
0.0
  0
LINE
  8
SIZE
  6
CONTINUOUS
 62
    30
 10
-1884.706432981076
 20
863.00000000000045
 30
0.0
 11
-1884.7064329810769
 21
-862.99999999999955
 31
0.0
  0
CIRCLE
  8
SIZE
  6
CONTINUOUS
 62
    30
 10
-1884.706432981076
 20
875.00000000000045
 30
0.0
 40
6.0
  0
LINE
  8
SIZE
  6
CONTINUOUS
 62
    30
 10
-1884.706432981076
 20
875.00000000000045
 30
0.0
 11
-1884.706432981076
 21
863.00000000000045
 31
0.0
  0
CIRCLE
  8
SIZE
  6
CONTINUOUS
 62
    30
 10
-1884.7064329810769
 20
-874.99999999999955
 30
0.0
 40
6.0
  0
LINE
  8
SIZE
  6
CONTINUOUS
 62
    30
 10
-1884.7064329810769
 20
-874.99999999999955
 30
0.0
 11
-1884.7064329810769
 21
-862.99999999999955
 31
0.0
  0
TEXT
  8
SIZE
  6
CONTINUOUS
 62
    30
 10
-1909.706432981076
 20
-165.6685714285712
 30
0.0
 40
64.0
  1
1750以上
 50
90.0
 41
0.9
 72
     1
 11
-1909.706432981076
 21
0.0000000000002274
 31
0.0
  0
POINT
  8
DEFPOINTS
  6
CONTINUOUS
 62
    30
 10
-1616.213670105999
 20
875.00000000000045
 30
0.0
  0
POINT
  8
DEFPOINTS
  6
CONTINUOUS
 62
    30
 10
-1616.2136701060001
 20
-874.99999999999966
 30
0.0
  0
POINT
  8
DEFPOINTS
  6
CONTINUOUS
 62
    30
 10
-1884.7064329810769
 20
-874.99999999999955
 30
0.0
  0
LINE
  8
SIZE
  6
CONTINUOUS
 62
    30
 10
-536.21367010599988
 20
-863.0
 30
0.0
 11
-1009.060604428469
 21
-862.99999999999966
 31
0.0
  0
LINE
  8
SIZE
  6
CONTINUOUS
 62
    30
 10
-536.21367010599988
 20
863.0
 30
0.0
 11
-1009.060604428468
 21
863.0
 31
0.0
  0
LINE
  8
SIZE
  6
CONTINUOUS
 62
    30
 10
-989.06060442846865
 20
-850.99999999999966
 30
0.0
 11
-989.06060442846842
 21
851.0
 31
0.0
  0
CIRCLE
  8
SIZE
  6
CONTINUOUS
 62
    30
 10
-989.06060442846865
 20
-862.99999999999966
 30
0.0
 40
6.0
  0
LINE
  8
SIZE
  6
CONTINUOUS
 62
    30
 10
-989.06060442846865
 20
-862.99999999999966
 30
0.0
 11
-989.06060442846865
 21
-850.99999999999966
 31
0.0
  0
CIRCLE
  8
SIZE
  6
CONTINUOUS
 62
    30
 10
-989.06060442846842
 20
863.0
 30
0.0
 40
6.0
  0
LINE
  8
SIZE
  6
CONTINUOUS
 62
    30
 10
-989.06060442846842
 20
863.0
 30
0.0
 11
-989.06060442846842
 21
851.0
 31
0.0
  0
TEXT
  8
SIZE
  6
CONTINUOUS
 62
    30
 10
-1014.060604428469
 20
-94.628571428571192
 30
0.0
 40
64.0
  1
1726
 50
90.0
 41
0.9
 72
     1
 11
-1014.060604428469
 21
0.0000000000002274
 31
0.0
  0
POINT
  8
DEFPOINTS
  6
CONTINUOUS
 62
    30
 10
-516.21367010599988
 20
-863.0
 30
0.0
  0
POINT
  8
DEFPOINTS
  6
CONTINUOUS
 62
    30
 10
-516.21367010599988
 20
863.0
 30
0.0
  0
POINT
  8
DEFPOINTS
  6
CONTINUOUS
 62
    30
 10
-989.06060442846842
 20
863.0
 30
0.0
  0
LINE
  8
DETAIL
  6
CONTINUOUS
 62
     5
 10
-76.213670105999881
 20
863.0
 30
0.0
 11
-76.213670105999881
 21
-863.0
 31
0.0
  0
LINE
  8
DETAIL
  6
CONTINUOUS
 62
     5
 39
50.0
 10
-76.213670105999881
 20
-845.0
 30
0.0
 11
556.0
 21
-845.00000000000011
 31
0.0
  0
LINE
  8
DETAIL
  6
CONTINUOUS
 62
     5
 39
50.0
 10
-399.0
 20
863.0
 30
0.0
 11
-399.0
 21
925.0
 31
0.0
  0
LINE
  8
DETAIL
  6
CONTINUOUS
 62
     5
 39
50.0
 10
-76.213670105999881
 20
845.0
 30
0.0
 11
556.0
 21
844.99999999999955
 31
0.0
  0
LINE
  8
SIZE
  6
CONTINUOUS
 62
    30
 10
-516.21367010599988
 20
-883.0
 30
0.0
 11
-516.21367010599988
 21
-1093.4390531104359
 31
0.0
  0
LINE
  8
SIZE
  6
CONTINUOUS
 62
    30
 10
-76.213670105999881
 20
-883.0
 30
0.0
 11
-76.213670105999881
 21
-1093.4390531104359
 31
0.0
  0
LINE
  8
SIZE
  6
CONTINUOUS
 62
    30
 10
-504.21367010599988
 20
-1073.4390531104359
 30
0.0
 11
-88.213670105999881
 21
-1073.4390531104359
 31
0.0
  0
CIRCLE
  8
SIZE
  6
CONTINUOUS
 62
    30
 10
-516.21367010599988
 20
-1073.4390531104359
 30
0.0
 40
6.0
  0
LINE
  8
SIZE
  6
CONTINUOUS
 62
    30
 10
-516.21367010599988
 20
-1073.4390531104359
 30
0.0
 11
-504.21367010599988
 21
-1073.4390531104359
 31
0.0
  0
CIRCLE
  8
SIZE
  6
CONTINUOUS
 62
    30
 10
-76.213670105999881
 20
-1073.4390531104359
 30
0.0
 40
6.0
  0
LINE
  8
SIZE
  6
CONTINUOUS
 62
    30
 10
-76.213670105999881
 20
-1073.4390531104359
 30
0.0
 11
-88.213670105999881
 21
-1073.4390531104359
 31
0.0
  0
TEXT
  8
SIZE
  6
CONTINUOUS
 62
    30
 10
-370.2708129631427
 20
-1048.4390531104359
 30
0.0
 40
64.0
  1
440
 41
0.9
 72
     1
 11
-296.21367010599988
 21
-1048.4390531104359
 31
0.0
  0
POINT
  8
DEFPOINTS
  6
CONTINUOUS
 62
    30
 10
-516.21367010599988
 20
-863.0
 30
0.0
  0
POINT
  8
DEFPOINTS
  6
CONTINUOUS
 62
    30
 10
-76.213670105999881
 20
-863.0
 30
0.0
  0
POINT
  8
DEFPOINTS
  6
CONTINUOUS
 62
    30
 10
-76.213670105999881
 20
-1073.4390531104359
 30
0.0
  0
LINE
  8
NOTE
  6
CONTINUOUS
 62
     4
 10
-495.79997010599971
 20
54.802577214919438
 30
0.0
 11
-495.79997010599971
 21
-65.913066103392339
 31
0.0
  0
CIRCLE
  8
DETAIL
  6
CONTINUOUS
 62
     5
 39
50.0
 10
-495.79997010599971
 20
-0.0000000000009095
 30
0.0
 40
12.0
  0
POINT
  8
ARRANGE
  6
CONTINUOUS
 62
     1
 10
0.0
 20
0.0
 30
0.0
 39
50.0
 50
270.0
  0
LINE
  8
SIZE
  6
CONTINUOUS
 62
    30
 10
419.0
 20
924.99999999999864
 30
0.0
 11
931.6988881726561
 21
924.99999999999864
 31
0.0
  0
LINE
  8
SIZE
  6
CONTINUOUS
 62
    30
 10
576.0
 20
844.99999999999909
 30
0.0
 11
931.6988881726561
 21
844.99999999999864
 31
0.0
  0
LINE
  8
SIZE
  6
CONTINUOUS
 62
    30
 10
911.6988881726561
 20
856.99999999999864
 30
0.0
 11
911.6988881726561
 21
912.99999999999864
 31
0.0
  0
LINE
  8
SIZE
  6
CONTINUOUS
 62
    30
 10
911.6988881726561
 20
924.99999999999864
 30
0.0
 11
911.6988881726561
 21
1080.2571428571421
 31
0.0
  0
CIRCLE
  8
SIZE
  6
CONTINUOUS
 62
    30
 10
911.6988881726561
 20
844.99999999999864
 30
0.0
 40
6.0
  0
LINE
  8
SIZE
  6
CONTINUOUS
 62
    30
 10
911.6988881726561
 20
844.99999999999864
 30
0.0
 11
911.6988881726561
 21
856.99999999999864
 31
0.0
  0
CIRCLE
  8
SIZE
  6
CONTINUOUS
 62
    30
 10
911.6988881726561
 20
924.99999999999864
 30
0.0
 40
6.0
  0
LINE
  8
SIZE
  6
CONTINUOUS
 62
    30
 10
911.6988881726561
 20
924.99999999999864
 30
0.0
 11
911.6988881726561
 21
912.99999999999864
 31
0.0
  0
TEXT
  8
SIZE
  6
CONTINUOUS
 62
    30
 10
886.6988881726561
 20
961.99999999999864
 30
0.0
 40
64.0
  1
80
 50
90.0
 41
0.9
 72
     1
 11
886.6988881726561
 21
1008.62857142857
 31
0.0
  0
POINT
  8
DEFPOINTS
  6
CONTINUOUS
 62
    30
 10
399.0
 20
924.99999999999864
 30
0.0
  0
POINT
  8
DEFPOINTS
  6
CONTINUOUS
 62
    30
 10
556.0
 20
844.99999999999909
 30
0.0
  0
POINT
  8
DEFPOINTS
  6
CONTINUOUS
 62
    30
 10
911.6988881726561
 20
844.99999999999864
 30
0.0
  0
LINE
  8
SIZE
  6
CONTINUOUS
 62
    30
 10
576.0
 20
-845.00000000000102
 30
0.0
 11
931.69888817265519
 21
-845.00000000000102
 31
0.0
  0
LINE
  8
SIZE
  6
CONTINUOUS
 62
    30
 10
419.0
 20
-925.00000000000102
 30
0.0
 11
931.69888817265519
 21
-925.00000000000125
 31
0.0
  0
LINE
  8
SIZE
  6
CONTINUOUS
 62
    30
 10
911.69888817265519
 20
-857.00000000000102
 30
0.0
 11
911.69888817265519
 21
-913.00000000000125
 31
0.0
  0
LINE
  8
SIZE
  6
CONTINUOUS
 62
    30
 10
911.69888817265519
 20
-925.00000000000125
 30
0.0
 11
911.69888817265519
 21
-1080.2571428571439
 31
0.0
  0
CIRCLE
  8
SIZE
  6
CONTINUOUS
 62
    30
 10
911.69888817265519
 20
-845.00000000000102
 30
0.0
 40
6.0
  0
LINE
  8
SIZE
  6
CONTINUOUS
 62
    30
 10
911.69888817265519
 20
-845.00000000000102
 30
0.0
 11
911.69888817265519
 21
-857.00000000000102
 31
0.0
  0
CIRCLE
  8
SIZE
  6
CONTINUOUS
 62
    30
 10
911.69888817265519
 20
-925.00000000000125
 30
0.0
 40
6.0
  0
LINE
  8
SIZE
  6
CONTINUOUS
 62
    30
 10
911.69888817265519
 20
-925.00000000000125
 30
0.0
 11
911.69888817265519
 21
-913.00000000000125
 31
0.0
  0
TEXT
  8
SIZE
  6
CONTINUOUS
 62
    30
 10
886.69888817265519
 20
-1055.257142857143
 30
0.0
 40
64.0
  1
80
 50
90.0
 41
0.9
 72
     1
 11
886.69888817265519
 21
-1008.6285714285719
 31
0.0
  0
POINT
  8
DEFPOINTS
  6
CONTINUOUS
 62
    30
 10
556.0
 20
-845.00000000000102
 30
0.0
  0
POINT
  8
DEFPOINTS
  6
CONTINUOUS
 62
    30
 10
399.0
 20
-925.00000000000102
 30
0.0
  0
POINT
  8
DEFPOINTS
  6
CONTINUOUS
 62
    30
 10
911.69888817265519
 20
-925.00000000000125
 30
0.0
  0
TEXT
  8
NOTE
  6
CONTINUOUS
 62
     4
 10
-928.51866550595605
 20
-125.3553927654027
 30
0.0
 40
64.0
  1
D R1/2
 41
0.9
  0
LINE
  8
NOTE
  6
CONTINUOUS
 62
     4
 10
-956.47177600447048
 20
-156.3054855829705
 30
0.0
 11
-620.19499421857643
 21
-156.3054855829705
 31
0.0
  0
LINE
  8
NOTE
  6
CONTINUOUS
 62
     4
 10
-495.79997010599971
 20
-0.0000000000009095
 30
0.0
 11
-620.19499421857643
 21
-156.3054855829705
 31
0.0
  0
LINE
  8
NOTE
  6
CONTINUOUS
 62
     4
 10
-495.79997010599971
 20
-0.0000000000009095
 30
0.0
 11
-510.16878876245022
 21
-36.78466365719396
 31
0.0
  0
LINE
  8
NOTE
  6
CONTINUOUS
 62
     4
 10
-530.05515138999169
 20
-19.946934286630491
 30
0.0
 11
-495.79997010599971
 21
-0.0000000000009095
 31
0.0
  0
TEXT
  8
NOTE
  6
CONTINUOUS
 62
     4
 10
-46.693347448755958
 20
-1201.4050209081929
 30
0.0
 40
64.0
  1
EA
 41
0.9
  0
TEXT
  8
NOTE
  6
CONTINUOUS
 62
     4
 10
-48.165085387779982
 20
1033.7299679282969
 30
0.0
 40
64.0
  1
RA
 41
0.9
  0
TEXT
  8
NOTE
  6
CONTINUOUS
 62
     4
 10
645.76881411257682
 20
-1276.0676685569849
 30
0.0
 40
64.0
  1
AH 4-(13.5×22)
 41
0.9
  0
LINE
  8
NOTE
  6
CONTINUOUS
 62
     4
 10
1486.3380535242361
 20
-1300.980948612741
 30
0.0
 11
633.39502411257672
 21
-1300.980948612741
 31
0.0
  0
LINE
  8
NOTE
  6
CONTINUOUS
 62
     4
 10
509.0
 20
-815.00000000000011
 30
0.0
 11
633.39502411257672
 21
-1300.980948612741
 31
0.0
  0
LINE
  8
NOTE
  6
CONTINUOUS
 62
     4
 10
509.0
 20
-815.00000000000011
 30
0.0
 11
511.1802333116575
 21
-856.44908220204695
 31
0.0
  0
LINE
  8
NOTE
  6
CONTINUOUS
 62
     4
 10
528.03956890831614
 20
-852.61321645731186
 30
0.0
 11
509.0
 21
-815.00000000000011
 31
0.0
  0
TEXT
  8
NOTE
  6
CONTINUOUS
 62
     4
 10
-1395.651498387404
 20
309.74733970178198
 30
0.0
 40
64.0
  1
メンテナンススペース
 41
0.9
  0
ENDSEC
  0
EOF
