  0
SECTION
  2
HEADER
  9
$ACADVER
  1
AC1009
  9
$DWGCODEPAGE
  3
dos932
  9
$INSBASE
 10
0.0
 20
0.0
 30
0.0
  9
$EXTMIN
 10
-684.2829126460432
 20
-766.64712166245852
 30
0.0
  9
$EXTMAX
 10
1123.7528583341621
 20
430.20938093992692
 30
0.0
  9
$LIMMIN
 10
-2970.0
 20
-2100.0
  9
$LIMMAX
 10
2970.0
 20
2100.0
  9
$ORTHOMODE
 70
     1
  9
$REGENMODE
 70
     1
  9
$FILLMODE
 70
     1
  9
$QTEXTMODE
 70
     0
  9
$MIRRTEXT
 70
     0
  9
$LTSCALE
 40
20.0
  9
$ATTMODE
 70
     1
  9
$TEXTSIZE
 40
64.0
  9
$TRACEWID
 40
0.05
  9
$TEXTSTYLE
  7
STANDARD
  9
$CLAYER
  8
SIZE
  9
$CELTYPE
  6
CONTINUOUS
  9
$CECOLOR
 62
     7
  9
$DIMSCALE
 40
1.0
  9
$DIMASZ
 40
12.0
  9
$DIMEXO
 40
20.0
  9
$DIMDLI
 40
200.0
  9
$DIMRND
 40
0.0
  9
$DIMDLE
 40
0.0
  9
$DIMEXE
 40
20.0
  9
$DIMTP
 40
0.0
  9
$DIMTM
 40
0.0
  9
$DIMTXT
 40
64.0
  9
$DIMCEN
 40
0.09
  9
$DIMTSZ
 40
0.0
  9
$DIMTOL
 70
     0
  9
$DIMLIM
 70
     0
  9
$DIMTIH
 70
     0
  9
$DIMTOH
 70
     0
  9
$DIMSE1
 70
     0
  9
$DIMSE2
 70
     0
  9
$DIMTAD
 70
     1
  9
$DIMZIN
 70
     8
  9
$DIMBLK
  1

  9
$DIMASO
 70
     1
  9
$DIMSHO
 70
     0
  9
$DIMPOST
  1

  9
$DIMAPOST
  1

  9
$DIMALT
 70
     0
  9
$DIMALTD
 70
     2
  9
$DIMALTF
 40
25.399999999999999
  9
$DIMLFAC
 40
1.0
  9
$DIMTOFL
 70
     1
  9
$DIMTVP
 40
0.0
  9
$DIMTIX
 70
     1
  9
$DIMSOXD
 70
     0
  9
$DIMSAH
 70
     0
  9
$DIMBLK1
  1

  9
$DIMBLK2
  1

  9
$DIMSTYLE
  2
STANDARD
  9
$DIMCLRD
 70
     7
  9
$DIMCLRE
 70
     7
  9
$DIMCLRT
 70
     7
  9
$DIMTFAC
 40
1.0
  9
$DIMGAP
 40
25.0
  9
$LUNITS
 70
     2
  9
$LUPREC
 70
     4
  9
$SKETCHINC
 40
0.1
  9
$FILLETRAD
 40
3.0
  9
$AUNITS
 70
     1
  9
$AUPREC
 70
     3
  9
$MENU
  1
ACAD
  9
$ELEVATION
 40
0.0
  9
$PELEVATION
 40
0.0
  9
$THICKNESS
 40
50.0
  9
$LIMCHECK
 70
     0
  9
$CHAMFERA
 40
0.0
  9
$CHAMFERB
 40
0.0
  9
$SKPOLY
 70
     0
  9
$TDCREATE
 40
2453019.623009259
  9
$TDUPDATE
 40
2459292.390751204
  9
$TDINDWG
 40
1.7193794097
  9
$TDUSRTIMER
 40
1.7193794097
  9
$USRTIMER
 70
     1
  9
$ANGBASE
 50
0.0
  9
$ANGDIR
 70
     0
  9
$PDMODE
 70
     3
  9
$PDSIZE
 40
-2.0
  9
$PLINEWID
 40
0.0
  9
$SPLFRAME
 70
     0
  9
$SPLINETYPE
 70
     6
  9
$SPLINESEGS
 70
     8
  9
$SURFTAB1
 70
     6
  9
$SURFTAB2
 70
     6
  9
$SURFTYPE
 70
     6
  9
$SURFU
 70
     6
  9
$SURFV
 70
     6
  9
$UCSNAME
  2

  9
$UCSORG
 10
0.0
 20
0.0
 30
0.0
  9
$UCSXDIR
 10
1.0
 20
0.0
 30
0.0
  9
$UCSYDIR
 10
0.0
 20
1.0
 30
0.0
  9
$PUCSNAME
  2

  9
$PUCSORG
 10
0.0
 20
0.0
 30
0.0
  9
$PUCSXDIR
 10
1.0
 20
0.0
 30
0.0
  9
$PUCSYDIR
 10
0.0
 20
1.0
 30
0.0
  9
$USERI1
 70
     0
  9
$USERI2
 70
     0
  9
$USERI3
 70
     0
  9
$USERI4
 70
     0
  9
$USERI5
 70
     0
  9
$USERR1
 40
20.0
  9
$USERR2
 40
0.0
  9
$USERR3
 40
0.0
  9
$USERR4
 40
0.0
  9
$USERR5
 40
0.0
  9
$WORLDVIEW
 70
     1
  9
$SHADEDGE
 70
     3
  9
$SHADEDIF
 70
    70
  9
$TILEMODE
 70
     1
  9
$MAXACTVP
 70
    48
  9
$PINSBASE
 10
0.0
 20
0.0
 30
0.0
  9
$PLIMCHECK
 70
     0
  9
$PEXTMIN
 10
-100000000000000000000.0
 20
-100000000000000000000.0
 30
-100000000000000000000.0
  9
$PEXTMAX
 10
100000000000000000000.0
 20
100000000000000000000.0
 30
100000000000000000000.0
  9
$PLIMMIN
 10
0.0
 20
0.0
  9
$PLIMMAX
 10
12.0
 20
9.0
  9
$UNITMODE
 70
     0
  9
$VISRETAIN
 70
     0
  9
$PLINEGEN
 70
     0
  9
$PSLTSCALE
 70
     0
  9
$TREEDEPTH
 70
  3020
  9
$ATTDIA
 70
     0
  9
$ATTREQ
 70
     1
  9
$BLIPMODE
 70
     1
  9
$COORDS
 70
     1
  9
$DRAGMODE
 70
     2
  9
$OSMODE
 70
     0
  9
$HANDLING
 70
     0
  9
$HANDSEED
  5
366
  0
ENDSEC
  0
SECTION
  2
TABLES
  0
TABLE
  2
LTYPE
 70
     2
  0
LTYPE
  2
CONTINUOUS
 70
     0
  3
実線
 72
    65
 73
     0
 40
0.0
  0
LTYPE
  2
DASHDOT
 70
     0
  3
____ _ ____ _ ____ _ ____ _ ____ _ ____ _ ____
 72
    65
 73
     4
 40
5.5
 49
4.0
 49
-0.6
 49
0.3
 49
-0.6
  0
ENDTAB
  0
TABLE
  2
LAYER
 70
    12
  0
LAYER
  2
SIZE
 70
     0
 62
    30
  6
CONTINUOUS
  0
LAYER
  2
BASIS
 70
     0
 62
     6
  6
DASHDOT
  0
LAYER
  2
OUTLINE
 70
     0
 62
     3
  6
CONTINUOUS
  0
LAYER
  2
DETAIL
 70
     0
 62
     5
  6
CONTINUOUS
  0
LAYER
  2
ARRANGE
 70
     0
 62
     1
  6
CONTINUOUS
  0
LAYER
  2
DEFPOINTS
 70
     0
 62
     7
  6
CONTINUOUS
  0
LAYER
  2
ETC
 70
     0
 62
    61
  6
CONTINUOUS
  0
LAYER
  2
FIX
 70
     0
 62
    11
  6
CONTINUOUS
  0
LAYER
  2
NOTE
 70
     0
 62
     4
  6
CONTINUOUS
  0
LAYER
  2
0
 70
    64
 62
     7
  6
CONTINUOUS
  0
LAYER
  2
SERVICESPACE
 70
    64
 62
     2
  6
DASHDOT
  0
LAYER
  2
SYMBOLLINE
 70
    64
 62
    15
  6
CONTINUOUS
  0
ENDTAB
  0
TABLE
  2
STYLE
 70
     1
  0
STYLE
  2
STANDARD
 70
     0
 40
64.0
 41
0.9
 50
0.0
 71
     0
 42
64.0
  3
SIMPLEX.shx
  4
BIGFONT.shx
  0
ENDTAB
  0
TABLE
  2
APPID
 70
    21
  0
APPID
  2
ACAD
 70
     0
  0
APPID
  2
ACADANNOTATIVE
 70
     0
  0
APPID
  2
AUTOCAD_POSTSCRIPT_FIGURE
 70
     0
  0
APPID
  2
ACAD_EXEMPT_FROM_CAD_STANDARDS
 70
     0
  0
APPID
  2
ACAD_PSEXT
 70
     0
  0
APPID
  2
ACAUTHENVIRON
 70
     0
  0
APPID
  2
GENIUS_GENOENT_13
 70
     0
  0
APPID
  2
GENIUS_GENCFG_13
 70
     0
  0
APPID
  2
GENIUS_GENCFG0_13
 70
     0
  0
APPID
  2
GENIUS_GENCFG1_13
 70
     0
  0
APPID
  2
GENIUS_GENCFG2_13
 70
     0
  0
APPID
  2
GENIUS_GENCFG3_13
 70
     0
  0
APPID
  2
GENIUS_GENCFG4_13
 70
     0
  0
APPID
  2
GENIUS_GEVCFG0_13
 70
     0
  0
APPID
  2
CONTENTBLOCKICON
 70
     0
  0
APPID
  2
CONTENTBLOCKDESCRIPTION
 70
     0
  0
APPID
  2
ACAD_NAV_VCDISPLAY
 70
     0
  0
APPID
  2
ACAD_MLEADERVER
 70
     0
  0
APPID
  2
ACDBDYNAMICBLOCKTRUENAME
 70
     0
  0
APPID
  2
ACDBDYNAMICBLOCKGUID
 70
     0
  0
APPID
  2
ACAD_DSTYLE_DIMRADIAL_EXTENSION
 70
     0
  0
ENDTAB
  0
TABLE
  2
DIMSTYLE
 70
     1
  0
DIMSTYLE
  2
STANDARD
 70
     0
  3

  4

  5

  6

  7

 40
1.0
 41
12.0
 42
20.0
 43
200.0
 44
20.0
 45
0.0
 46
0.0
 47
0.0
 48
0.0
140
64.0
141
0.09
142
0.0
143
25.399999999999999
144
1.0
145
0.0
146
1.0
147
25.0
 71
     0
 72
     0
 73
     0
 74
     0
 75
     0
 76
     0
 77
     1
 78
     8
170
     0
171
     2
172
     1
173
     0
174
     1
175
     0
176
     7
177
     7
178
     7
  0
ENDTAB
  0
TABLE
  2
VIEW
 70
     1
  0
VIEW
  2
ALL
 70
     0
 40
4282.6198079999986
 10
0.0
 20
41.309904000000003
 41
5940.0
 11
0.0
 21
0.0
 31
1.0
 12
0.0
 22
0.0
 32
0.0
 42
50.0
 43
0.0
 44
0.0
 50
0.0
 71
     0
  0
ENDTAB
  0
TABLE
  2
UCS
 70
     0
  0
ENDTAB
  0
TABLE
  2
VPORT
 70
     1
  0
VPORT
  2
*ACTIVE
 70
     0
 10
0.0
 20
0.0
 11
1.0
 21
1.0
 12
231.5750208811389
 22
-168.22813983101881
 13
0.0
 23
0.0
 14
1.0
 24
1.0
 15
0.0
 25
0.0
 16
0.0
 26
0.0
 36
1.0
 17
0.0
 27
0.0
 37
0.0
 40
1205.080414514533
 41
1.767337807606264
 42
50.0
 43
0.0
 44
0.0
 50
0.0
 51
0.0
 71
     0
 72
  1000
 73
     1
 74
     3
 75
     0
 76
     0
 77
     0
 78
     0
  0
ENDTAB
  0
ENDSEC
  0
SECTION
  2
BLOCKS
  0
ENDSEC
  0
SECTION
  2
ENTITIES
  0
LINE
  8
DETAIL
  6
CONTINUOUS
 62
     5
 10
387.0
 20
-247.4000000001997
 30
0.0
 11
387.0
 21
-57.600000000099499
 31
0.0
  0
LINE
  8
DETAIL
  6
CONTINUOUS
 62
     5
 10
378.39999999989959
 20
-56.499999999999091
 30
0.0
 11
378.39999999989959
 21
-248.49999999999909
 31
0.0
  0
LINE
  8
DETAIL
  6
CONTINUOUS
 62
     5
 10
186.13553390579909
 20
-308.25698375449969
 30
0.0
 11
185.89670642219971
 21
-308.37878644729972
 31
0.0
  0
LINE
  8
DETAIL
  6
CONTINUOUS
 62
     5
 10
186.3591732062996
 20
-308.12690898439911
 30
0.0
 11
186.13553390579909
 21
-308.25698375449969
 31
0.0
  0
LINE
  8
DETAIL
  6
CONTINUOUS
 62
     5
 10
186.56676670139851
 20
-307.98917016589797
 30
0.0
 11
186.3591732062996
 21
-308.12690898439911
 31
0.0
  0
LINE
  8
DETAIL
  6
CONTINUOUS
 62
     5
 10
186.7573194944998
 20
-307.84430976170012
 30
0.0
 11
186.56676670139851
 21
-307.98917016589797
 31
0.0
  0
LINE
  8
DETAIL
  6
CONTINUOUS
 62
     5
 10
186.9301270188007
 20
-307.69299156709889
 30
0.0
 11
186.7573194944998
 21
-307.84430976170012
 31
0.0
  0
LINE
  8
DETAIL
  6
CONTINUOUS
 62
     5
 10
302.199999999998
 20
-176.93725830029871
 30
0.0
 11
301.99999999989888
 21
-177.13725830039951
 31
0.0
  0
LINE
  8
DETAIL
  6
CONTINUOUS
 62
     5
 10
187.08433289369901
 20
-307.5358241306003
 30
0.0
 11
186.9301270188007
 21
-307.69299156709889
 31
0.0
  0
LINE
  8
DETAIL
  6
CONTINUOUS
 62
     5
 10
187.21939766249849
 20
-307.37351565619969
 30
0.0
 11
187.08433289369901
 21
-307.5358241306003
 31
0.0
  0
LINE
  8
DETAIL
  6
CONTINUOUS
 62
     5
 10
187.33461811380039
 20
-307.20673036580052
 30
0.0
 11
187.21939766249849
 21
-307.37351565619969
 31
0.0
  0
LINE
  8
DETAIL
  6
CONTINUOUS
 62
     5
 10
187.42962913140039
 20
-307.03620875450002
 30
0.0
 11
187.33461811380039
 21
-307.20673036580052
 31
0.0
  0
LINE
  8
DETAIL
  6
CONTINUOUS
 62
     5
 10
309.19999999989977
 20
-48.500000000199194
 30
0.0
 11
309.19999999989977
 21
-256.50000000009908
 31
0.0
  0
LINE
  8
DETAIL
  6
CONTINUOUS
 62
     5
 10
304.99999999989808
 20
-192.0
 30
0.0
 11
304.99999999989808
 21
-146.09999999999951
 31
0.0
  0
LINE
  8
DETAIL
  6
CONTINUOUS
 62
     5
 10
302.199999999998
 20
-192.0
 30
0.0
 11
302.199999999998
 21
-146.09999999999951
 31
0.0
  0
LINE
  8
DETAIL
  6
CONTINUOUS
 62
     5
 10
301.99999999989888
 20
-302.20000000009901
 30
0.0
 11
301.99999999989888
 21
-149.26678155659829
 31
0.0
  0
LINE
  8
DETAIL
  6
CONTINUOUS
 62
     5
 10
301.99999999989888
 20
-142.90625611537141
 30
0.0
 11
301.99999999989888
 21
-2.8000000001993608
 31
0.0
  0
LINE
  8
DETAIL
  6
CONTINUOUS
 62
     5
 10
301.19999999979967
 20
-303.79999999999922
 30
0.0
 11
301.19999999979967
 21
-302.20000000009901
 31
0.0
  0
LINE
  8
DETAIL
  6
CONTINUOUS
 62
     5
 10
301.19999999979967
 20
-2.8000000001993608
 30
0.0
 11
301.19999999979967
 21
-2.0000000000991349
 31
0.0
  0
LINE
  8
DETAIL
  6
CONTINUOUS
 62
     5
 10
300.39999999999873
 20
-302.20000000009901
 30
0.0
 11
300.39999999999873
 21
-303.79999999999922
 31
0.0
  0
LINE
  8
DETAIL
  6
CONTINUOUS
 62
     5
 10
300.39999999999873
 20
-2.8000000001993608
 30
0.0
 11
300.39999999999873
 21
-2.0000000000991349
 31
0.0
  0
LINE
  8
DETAIL
  6
CONTINUOUS
 62
     5
 10
299.59999999989941
 20
-302.20000000009901
 30
0.0
 11
299.59999999989941
 21
-146.86678155659959
 31
0.0
  0
LINE
  8
DETAIL
  6
CONTINUOUS
 62
     5
 10
299.59999999989941
 20
-142.90000000019879
 30
0.0
 11
299.59999999989941
 21
-2.8000000001993608
 31
0.0
  0
LINE
  8
DETAIL
  6
CONTINUOUS
 62
     5
 10
299.199999999998
 20
-305.0
 30
0.0
 11
299.199999999998
 21
-302.20000000009901
 31
0.0
  0
LINE
  8
DETAIL
  6
CONTINUOUS
 62
     5
 10
299.199999999998
 20
-2.8000000001993608
 30
0.0
 11
299.199999999998
 21
0.0
 31
0.0
  0
LINE
  8
DETAIL
  6
CONTINUOUS
 62
     5
 10
298.69999999989977
 20
-158.30000000009929
 30
0.0
 11
298.69999999989977
 21
-145.96678155659899
 31
0.0
  0
LINE
  8
DETAIL
  6
CONTINUOUS
 62
     5
 10
185.09999999999849
 20
-308.68975018069801
 30
0.0
 11
184.8114282551978
 21
-308.77373671970048
 31
0.0
  0
LINE
  8
DETAIL
  6
CONTINUOUS
 62
     5
 10
185.37783207719991
 20
-308.59563245749803
 30
0.0
 11
185.09999999999849
 21
-308.68975018069801
 31
0.0
  0
LINE
  8
DETAIL
  6
CONTINUOUS
 62
     5
 10
185.6438071449011
 20
-308.49184996819889
 30
0.0
 11
185.37783207719991
 21
-308.59563245749803
 31
0.0
  0
LINE
  8
DETAIL
  6
CONTINUOUS
 62
     5
 10
185.89670642219971
 20
-308.37878644729972
 30
0.0
 11
185.6438071449011
 21
-308.49184996819889
 31
0.0
  0
LINE
  8
DETAIL
  6
CONTINUOUS
 62
     5
 10
187.50389270489899
 20
-306.86265935269881
 30
0.0
 11
187.42962913140039
 21
-307.03620875450002
 31
0.0
  0
LINE
  8
DETAIL
  6
CONTINUOUS
 62
     5
 10
187.55722430669809
 20
-306.68684227640011
 30
0.0
 11
187.50389270489899
 21
-306.86265935269881
 31
0.0
  0
LINE
  8
DETAIL
  6
CONTINUOUS
 62
     5
 10
266.99999999979718
 20
-158.30000000009929
 30
0.0
 11
266.99999999979718
 21
-144.50000000009911
 31
0.0
  0
LINE
  8
DETAIL
  6
CONTINUOUS
 62
     5
 10
264.39999999999873
 20
-149.90000000009971
 30
0.0
 11
264.39999999999873
 21
-146.09999999999951
 31
0.0
  0
LINE
  8
DETAIL
  6
CONTINUOUS
 62
     5
 10
262.79999999980009
 20
-146.09999999999951
 30
0.0
 11
262.79999999980009
 21
-149.90000000009971
 31
0.0
  0
LINE
  8
DETAIL
  6
CONTINUOUS
 62
     5
 10
183.8940952253979
 20
-308.96179852939889
 30
0.0
 11
183.57544490729919
 21
-309.00224537029862
 31
0.0
  0
LINE
  8
DETAIL
  6
CONTINUOUS
 62
     5
 10
184.20718628279971
 20
-308.91005182039947
 30
0.0
 11
183.8940952253979
 21
-308.96179852939889
 31
0.0
  0
LINE
  8
DETAIL
  6
CONTINUOUS
 62
     5
 10
184.51341716159911
 20
-308.84729826500012
 30
0.0
 11
184.20718628279971
 21
-308.91005182039947
 31
0.0
  0
LINE
  8
DETAIL
  6
CONTINUOUS
 62
     5
 10
184.8114282551978
 20
-308.77373671970048
 30
0.0
 11
184.51341716159911
 21
-308.84729826500012
 31
0.0
  0
LINE
  8
DETAIL
  6
CONTINUOUS
 62
     5
 10
187.58921458859911
 20
-306.50987835559857
 30
0.0
 11
187.55722430669809
 21
-306.68684227640011
 31
0.0
  0
LINE
  8
DETAIL
  6
CONTINUOUS
 62
     5
 10
187.59999999990029
 20
-306.33139397959889
 30
0.0
 11
187.58921458859911
 21
-306.50987835559857
 31
0.0
  0
LINE
  8
DETAIL
  6
CONTINUOUS
 62
     5
 10
187.59999999990029
 20
-306.33139397959889
 30
0.0
 11
187.59999999990029
 21
-305.00000000000091
 31
0.0
  0
LINE
  8
DETAIL
  6
CONTINUOUS
 62
     5
 10
187.59999999990029
 20
0.0
 30
0.0
 11
187.59999999990029
 21
1.331393979599852
 31
0.0
  0
LINE
  8
DETAIL
  6
CONTINUOUS
 62
     5
 10
187.58921458859911
 20
1.5098783553003161
 30
0.0
 11
187.59999999990029
 21
1.331393979599852
 31
0.0
  0
LINE
  8
DETAIL
  6
CONTINUOUS
 62
     5
 10
-84.027711317699868
 20
-309.04871499890032
 30
0.0
 11
-84.352630961100672
 21
-309.03129184249877
 31
0.0
  0
LINE
  8
DETAIL
  6
CONTINUOUS
 62
     5
 10
-83.700000000000728
 20
-309.05458915459889
 30
0.0
 11
-84.027711317699868
 21
-309.04871499890032
 31
0.0
  0
LINE
  8
DETAIL
  6
CONTINUOUS
 62
     5
 10
-83.700000000000728
 20
-309.05458915459889
 30
0.0
 11
182.59999999979851
 21
-309.05458915459889
 31
0.0
  0
LINE
  8
DETAIL
  6
CONTINUOUS
 62
     5
 10
299.99999999979718
 20
-305.0
 30
0.0
 11
187.59999999990029
 21
-305.0
 31
0.0
  0
LINE
  8
DETAIL
  6
CONTINUOUS
 62
     5
 10
-88.700000000100772
 20
-305.0
 30
0.0
 11
-158.20000000020079
 21
-305.0
 31
0.0
  0
LINE
  8
DETAIL
  6
CONTINUOUS
 62
     5
 10
299.199999999998
 20
-304.200000000199
 30
0.0
 11
299.99999999979718
 21
-304.200000000199
 31
0.0
  0
LINE
  8
DETAIL
  6
CONTINUOUS
 62
     5
 10
301.19999999979967
 20
-303.79999999999922
 30
0.0
 11
300.39999999999873
 21
-303.79999999999922
 31
0.0
  0
LINE
  8
DETAIL
  6
CONTINUOUS
 62
     5
 10
299.199999999998
 20
-302.59999999999849
 30
0.0
 11
-158.60000000010041
 21
-302.59999999999849
 31
0.0
  0
LINE
  8
DETAIL
  6
CONTINUOUS
 62
     5
 10
301.99999999989888
 20
-302.20000000009901
 30
0.0
 11
299.199999999998
 21
-302.20000000009901
 31
0.0
  0
LINE
  8
DETAIL
  6
CONTINUOUS
 62
     5
 10
-158.20000000020079
 20
-304.70000000009901
 30
0.0
 11
-161.00000000010189
 21
-304.70000000009901
 31
0.0
  0
LINE
  8
DETAIL
  6
CONTINUOUS
 62
     5
 10
-161.00000000010189
 20
-304.00000000019838
 30
0.0
 11
-300.80000000019942
 21
-304.00000000019838
 31
0.0
  0
LINE
  8
DETAIL
  6
CONTINUOUS
 62
     5
 10
182.92771131749939
 20
-309.04871499890032
 30
0.0
 11
182.59999999979851
 21
-309.05458915459889
 31
0.0
  0
LINE
  8
DETAIL
  6
CONTINUOUS
 62
     5
 10
183.25263096089839
 20
-309.03129184249877
 30
0.0
 11
182.92771131749939
 21
-309.04871499890032
 31
0.0
  0
LINE
  8
DETAIL
  6
CONTINUOUS
 62
     5
 10
183.57544490729919
 20
-309.00224537029862
 30
0.0
 11
183.25263096089839
 21
-309.03129184249877
 31
0.0
  0
LINE
  8
DETAIL
  6
CONTINUOUS
 62
     5
 10
378.39999999989959
 20
-248.49999999999909
 30
0.0
 11
309.19999999989977
 21
-256.50000000009908
 31
0.0
  0
LINE
  8
DETAIL
  6
CONTINUOUS
 62
     5
 10
187.55722430669809
 20
1.686842276400057
 30
0.0
 11
187.58921458859911
 21
1.5098783553003161
 31
0.0
  0
LINE
  8
DETAIL
  6
CONTINUOUS
 62
     5
 10
187.50389270489899
 20
1.862659352400442
 30
0.0
 11
187.55722430669809
 21
1.686842276400057
 31
0.0
  0
LINE
  8
DETAIL
  6
CONTINUOUS
 62
     5
 10
-85.613417161799589
 20
-308.84729826500012
 30
0.0
 11
-85.911428255401901
 21
-308.77373671970048
 31
0.0
  0
LINE
  8
DETAIL
  6
CONTINUOUS
 62
     5
 10
-85.307186283000178
 20
-308.91005182039947
 30
0.0
 11
-85.613417161799589
 21
-308.84729826500012
 31
0.0
  0
LINE
  8
DETAIL
  6
CONTINUOUS
 62
     5
 10
-84.994095225601981
 20
-308.96179852939889
 30
0.0
 11
-85.307186283000178
 21
-308.91005182039947
 31
0.0
  0
LINE
  8
DETAIL
  6
CONTINUOUS
 62
     5
 10
-84.6754449075015
 20
-309.00224537029862
 30
0.0
 11
-84.994095225601981
 21
-308.96179852939889
 31
0.0
  0
LINE
  8
DETAIL
  6
CONTINUOUS
 62
     5
 10
-378.39999999999958
 20
-248.49999999999909
 30
0.0
 11
-310.0
 21
-256.50000000009908
 31
0.0
  0
LINE
  8
DETAIL
  6
CONTINUOUS
 62
     5
 10
-84.352630961100672
 20
-309.03129184249877
 30
0.0
 11
-84.6754449075015
 21
-309.00224537029862
 31
0.0
  0
LINE
  8
DETAIL
  6
CONTINUOUS
 62
     5
 10
-302.00000000020009
 20
-288.10000000019858
 30
0.0
 11
-302.02500000009968
 21
-288.10000000019858
 31
0.0
  0
LINE
  8
DETAIL
  6
CONTINUOUS
 62
     5
 10
-302.00000000020009
 20
-277.29999999999927
 30
0.0
 11
-302.02500000009968
 21
-277.29999999999927
 31
0.0
  0
LINE
  8
DETAIL
  6
CONTINUOUS
 62
     5
 10
-302.00000000020009
 20
-269.99989297539918
 30
0.0
 11
-302.60000000020051
 21
-269.99989297539918
 31
0.0
  0
LINE
  8
DETAIL
  6
CONTINUOUS
 62
     5
 10
-310.0
 20
-256.50000000009908
 30
0.0
 11
-303.20000000020082
 21
-256.50000000009908
 31
0.0
  0
LINE
  8
DETAIL
  6
CONTINUOUS
 62
     5
 10
309.19999999989977
 20
-256.50000000009908
 30
0.0
 11
302.39999999979852
 21
-256.50000000009908
 31
0.0
  0
LINE
  8
DETAIL
  6
CONTINUOUS
 62
     5
 10
-385.89999999999958
 20
-248.49999999999909
 30
0.0
 11
-378.39999999999958
 21
-248.49999999999909
 31
0.0
  0
LINE
  8
DETAIL
  6
CONTINUOUS
 62
     5
 10
385.89999999989959
 20
-248.49999999999909
 30
0.0
 11
378.39999999989959
 21
-248.49999999999909
 31
0.0
  0
LINE
  8
DETAIL
  6
CONTINUOUS
 62
     5
 10
-302.00000000020009
 20
-302.39999999999958
 30
0.0
 11
-301.99679602720062
 21
-302.39899853879967
 31
0.0
  0
LINE
  8
DETAIL
  6
CONTINUOUS
 62
     5
 10
-301.99679602720062
 20
-302.39899853879967
 30
0.0
 11
-301.94682195280262
 21
-302.3822910197996
 31
0.0
  0
LINE
  8
DETAIL
  6
CONTINUOUS
 62
     5
 10
187.42962913140039
 20
2.036208754199833
 30
0.0
 11
187.50389270489899
 21
1.862659352400442
 31
0.0
  0
LINE
  8
DETAIL
  6
CONTINUOUS
 62
     5
 10
-302.60000000020051
 20
-201.05099883640011
 30
0.0
 11
-302.00000000020009
 21
-201.05099883640011
 31
0.0
  0
LINE
  8
DETAIL
  6
CONTINUOUS
 62
     5
 10
301.99999999989888
 20
-192.0
 30
0.0
 11
304.99999999989808
 21
-192.0
 31
0.0
  0
LINE
  8
DETAIL
  6
CONTINUOUS
 62
     5
 10
-161.00000000010189
 20
-192.0
 30
0.0
 11
-164.00000000010101
 21
-192.0
 31
0.0
  0
LINE
  8
DETAIL
  6
CONTINUOUS
 62
     5
 10
187.33461811380039
 20
2.206730365500333
 30
0.0
 11
187.42962913140039
 21
2.036208754199833
 31
0.0
  0
LINE
  8
DETAIL
  6
CONTINUOUS
 62
     5
 10
187.21939766249849
 20
2.3735156562006519
 30
0.0
 11
187.33461811380039
 21
2.206730365500333
 31
0.0
  0
LINE
  8
DETAIL
  6
CONTINUOUS
 62
     5
 10
268.99999999989899
 20
-160.30000000019939
 30
0.0
 11
296.69999999979967
 21
-160.30000000019939
 31
0.0
  0
LINE
  8
DETAIL
  6
CONTINUOUS
 62
     5
 10
-128.00000000010189
 20
-160.30000000019939
 30
0.0
 11
-155.7000000000007
 21
-160.30000000019939
 31
0.0
  0
LINE
  8
DETAIL
  6
CONTINUOUS
 62
     5
 10
-161.20000000020079
 20
-155.50000000020009
 30
0.0
 11
-161.00000000010189
 21
-155.50000000020009
 31
0.0
  0
LINE
  8
DETAIL
  6
CONTINUOUS
 62
     5
 10
-123.4000000002015
 20
-149.90000000009971
 30
0.0
 11
-121.80000000000111
 21
-149.90000000009971
 31
0.0
  0
LINE
  8
DETAIL
  6
CONTINUOUS
 62
     5
 10
264.39999999999873
 20
-149.90000000009971
 30
0.0
 11
262.79999999980009
 21
-149.90000000009971
 31
0.0
  0
LINE
  8
DETAIL
  6
CONTINUOUS
 62
     5
 10
-159.59999999999849
 20
-144.50000000009911
 30
0.0
 11
-125.00000000010191
 21
-144.50000000009911
 31
0.0
  0
LINE
  8
DETAIL
  6
CONTINUOUS
 62
     5
 10
300.59999999979942
 20
-144.50000000009911
 30
0.0
 11
265.99999999989899
 21
-144.50000000009911
 31
0.0
  0
LINE
  8
DETAIL
  6
CONTINUOUS
 62
     5
 10
-160.79999999999839
 20
-142.90000000019879
 30
0.0
 11
-125.00000000010191
 21
-142.90000000019879
 31
0.0
  0
LINE
  8
DETAIL
  6
CONTINUOUS
 62
     5
 10
301.79999999979918
 20
-142.90000000019879
 30
0.0
 11
265.99999999989899
 21
-142.90000000019879
 31
0.0
  0
LINE
  8
DETAIL
  6
CONTINUOUS
 62
     5
 10
-161.20000000020079
 20
-149.4667815563989
 30
0.0
 11
-156.2332184436018
 21
-144.50000000009911
 31
0.0
  0
LINE
  8
DETAIL
  6
CONTINUOUS
 62
     5
 10
187.08433289369901
 20
2.5358241306003042
 30
0.0
 11
187.21939766249849
 21
2.3735156562006519
 31
0.0
  0
LINE
  8
DETAIL
  6
CONTINUOUS
 62
     5
 10
186.9301270188007
 20
2.692991567100762
 30
0.0
 11
187.08433289369901
 21
2.5358241306003042
 31
0.0
  0
LINE
  8
DETAIL
  6
CONTINUOUS
 62
     5
 10
-302.60000000020051
 20
-103.9490011635999
 30
0.0
 11
-302.00000000020009
 21
-103.9490011635999
 31
0.0
  0
LINE
  8
DETAIL
  6
CONTINUOUS
 62
     5
 10
-86.996706422400152
 20
3.3787864469995839
 30
0.0
 11
-86.743807145099694
 21
3.491849967900635
 31
0.0
  0
LINE
  8
DETAIL
  6
CONTINUOUS
 62
     5
 10
-87.235533906001365
 20
3.2569837542014279
 30
0.0
 11
-86.996706422400152
 21
3.3787864469995839
 31
0.0
  0
LINE
  8
DETAIL
  6
CONTINUOUS
 62
     5
 10
-87.459173206501887
 20
3.1269089841007371
 30
0.0
 11
-87.235533906001365
 21
3.2569837542014279
 31
0.0
  0
LINE
  8
DETAIL
  6
CONTINUOUS
 62
     5
 10
-87.666766701600864
 20
2.9891701656006262
 30
0.0
 11
-87.459173206501887
 21
3.1269089841007371
 31
0.0
  0
LINE
  8
DETAIL
  6
CONTINUOUS
 62
     5
 10
-87.857319494700292
 20
2.8443097613999271
 30
0.0
 11
-87.666766701600864
 21
2.9891701656006262
 31
0.0
  0
LINE
  8
DETAIL
  6
CONTINUOUS
 62
     5
 10
-88.030127018999323
 20
2.692991567100762
 30
0.0
 11
-87.857319494700292
 21
2.8443097613999271
 31
0.0
  0
LINE
  8
DETAIL
  6
CONTINUOUS
 62
     5
 10
-88.184332893899409
 20
2.5358241306003042
 30
0.0
 11
-88.030127018999323
 21
2.692991567100762
 31
0.0
  0
LINE
  8
DETAIL
  6
CONTINUOUS
 62
     5
 10
-88.31939766270078
 20
2.3735156562006519
 30
0.0
 11
-88.184332893899409
 21
2.5358241306003042
 31
0.0
  0
LINE
  8
DETAIL
  6
CONTINUOUS
 62
     5
 10
-88.434618114000841
 20
2.206730365500333
 30
0.0
 11
-88.31939766270078
 21
2.3735156562006519
 31
0.0
  0
LINE
  8
DETAIL
  6
CONTINUOUS
 62
     5
 10
-88.529629131600814
 20
2.036208754199833
 30
0.0
 11
-88.434618114000841
 21
2.206730365500333
 31
0.0
  0
LINE
  8
DETAIL
  6
CONTINUOUS
 62
     5
 10
-88.603892705101316
 20
1.862659352400442
 30
0.0
 11
-88.529629131600814
 21
2.036208754199833
 31
0.0
  0
LINE
  8
DETAIL
  6
CONTINUOUS
 62
     5
 10
-88.657224306902194
 20
1.686842276400057
 30
0.0
 11
-88.603892705101316
 21
1.862659352400442
 31
0.0
  0
LINE
  8
DETAIL
  6
CONTINUOUS
 62
     5
 10
-88.700000000100772
 20
1.331393979599852
 30
0.0
 11
-88.689214588801406
 21
1.5098783553003161
 31
0.0
  0
LINE
  8
DETAIL
  6
CONTINUOUS
 62
     5
 10
-88.700000000100772
 20
-306.33139397959889
 30
0.0
 11
-88.700000000100772
 21
-305.0
 31
0.0
  0
LINE
  8
DETAIL
  6
CONTINUOUS
 62
     5
 10
-88.700000000100772
 20
0.0
 30
0.0
 11
-88.700000000100772
 21
1.331393979599852
 31
0.0
  0
LINE
  8
DETAIL
  6
CONTINUOUS
 62
     5
 10
-88.689214588801406
 20
-306.50987835559857
 30
0.0
 11
-88.700000000100772
 21
-306.33139397959889
 31
0.0
  0
LINE
  8
DETAIL
  6
CONTINUOUS
 62
     5
 10
297.23321844339893
 20
-144.50000000009911
 30
0.0
 11
302.199999999998
 21
-149.4667815563989
 31
0.0
  0
LINE
  8
DETAIL
  6
CONTINUOUS
 62
     5
 10
186.7573194944998
 20
2.8443097613999271
 30
0.0
 11
186.9301270188007
 21
2.692991567100762
 31
0.0
  0
LINE
  8
DETAIL
  6
CONTINUOUS
 62
     5
 10
-385.89999999999958
 20
-56.499999999999091
 30
0.0
 11
-378.39999999999958
 21
-56.499999999999091
 31
0.0
  0
LINE
  8
DETAIL
  6
CONTINUOUS
 62
     5
 10
385.89999999989959
 20
-56.499999999999091
 30
0.0
 11
378.39999999989959
 21
-56.499999999999091
 31
0.0
  0
LINE
  8
DETAIL
  6
CONTINUOUS
 62
     5
 10
-310.0
 20
-48.500000000199194
 30
0.0
 11
-303.20000000020082
 21
-48.500000000199194
 31
0.0
  0
LINE
  8
DETAIL
  6
CONTINUOUS
 62
     5
 10
309.19999999989977
 20
-48.500000000199194
 30
0.0
 11
302.39999999979852
 21
-48.500000000199194
 31
0.0
  0
LINE
  8
DETAIL
  6
CONTINUOUS
 62
     5
 10
-302.60000000020051
 20
-35.00010702489908
 30
0.0
 11
-302.00000000020009
 21
-35.00010702489908
 31
0.0
  0
LINE
  8
DETAIL
  6
CONTINUOUS
 62
     5
 10
-300.80000000019942
 20
-30.999999999999091
 30
0.0
 11
-161.00000000010189
 21
-30.999999999999091
 31
0.0
  0
LINE
  8
DETAIL
  6
CONTINUOUS
 62
     5
 10
-84.352630961100672
 20
4.0312918422005168
 30
0.0
 11
-84.027711317699868
 21
4.0487149986001896
 31
0.0
  0
LINE
  8
DETAIL
  6
CONTINUOUS
 62
     5
 10
-84.6754449075015
 20
4.002245370300443
 30
0.0
 11
-84.352630961100672
 21
4.0312918422005168
 31
0.0
  0
LINE
  8
DETAIL
  6
CONTINUOUS
 62
     5
 10
-378.39999999999958
 20
-56.499999999999091
 30
0.0
 11
-310.0
 21
-48.500000000199194
 31
0.0
  0
LINE
  8
DETAIL
  6
CONTINUOUS
 62
     5
 10
-84.994095225601981
 20
3.961798529100633
 30
0.0
 11
-84.6754449075015
 21
4.002245370300443
 31
0.0
  0
LINE
  8
DETAIL
  6
CONTINUOUS
 62
     5
 10
-85.307186283000178
 20
3.910051820101216
 30
0.0
 11
-84.994095225601981
 21
3.961798529100633
 31
0.0
  0
LINE
  8
DETAIL
  6
CONTINUOUS
 62
     5
 10
-85.613417161799589
 20
3.847298264699929
 30
0.0
 11
-85.307186283000178
 21
3.910051820101216
 31
0.0
  0
LINE
  8
DETAIL
  6
CONTINUOUS
 62
     5
 10
-85.911428255401901
 20
3.7737367194004041
 30
0.0
 11
-85.613417161799589
 21
3.847298264699929
 31
0.0
  0
LINE
  8
DETAIL
  6
CONTINUOUS
 62
     5
 10
-86.200000000200802
 20
3.6897501807006852
 30
0.0
 11
-85.911428255401901
 21
3.7737367194004041
 31
0.0
  0
LINE
  8
DETAIL
  6
CONTINUOUS
 62
     5
 10
-86.477832077402113
 20
3.5956324572007361
 30
0.0
 11
-86.200000000200802
 21
3.6897501807006852
 31
0.0
  0
LINE
  8
DETAIL
  6
CONTINUOUS
 62
     5
 10
-86.743807145099694
 20
3.491849967900635
 30
0.0
 11
-86.477832077402113
 21
3.5956324572007361
 31
0.0
  0
LINE
  8
DETAIL
  6
CONTINUOUS
 62
     5
 10
-88.689214588801406
 20
1.5098783553003161
 30
0.0
 11
-88.657224306902194
 21
1.686842276400057
 31
0.0
  0
LINE
  8
DETAIL
  6
CONTINUOUS
 62
     5
 10
-121.80000000000111
 20
-146.09999999999951
 30
0.0
 11
-121.80000000000111
 21
-149.90000000009971
 31
0.0
  0
LINE
  8
DETAIL
  6
CONTINUOUS
 62
     5
 10
-123.4000000002015
 20
-149.90000000009971
 30
0.0
 11
-123.4000000002015
 21
-146.09999999999951
 31
0.0
  0
LINE
  8
DETAIL
  6
CONTINUOUS
 62
     5
 10
-126.0
 20
-158.30000000009929
 30
0.0
 11
-126.0
 21
-144.50000000009911
 31
0.0
  0
LINE
  8
DETAIL
  6
CONTINUOUS
 62
     5
 10
-157.7000000001008
 20
-158.30000000009929
 30
0.0
 11
-157.7000000001008
 21
-145.96678155659899
 31
0.0
  0
LINE
  8
DETAIL
  6
CONTINUOUS
 62
     5
 10
-158.20000000020079
 20
-305.0
 30
0.0
 11
-158.20000000020079
 21
-304.70000000009901
 31
0.0
  0
LINE
  8
DETAIL
  6
CONTINUOUS
 62
     5
 10
-158.20000000020079
 20
-2.8000000001993608
 30
0.0
 11
-158.20000000020079
 21
0.0
 31
0.0
  0
LINE
  8
DETAIL
  6
CONTINUOUS
 62
     5
 10
-158.60000000010041
 20
-2.8000000001993608
 30
0.0
 11
-158.60000000010041
 21
-142.90000000019879
 31
0.0
  0
LINE
  8
DETAIL
  6
CONTINUOUS
 62
     5
 10
-158.60000000010041
 20
-146.86678155659959
 30
0.0
 11
-158.60000000010041
 21
-304.70000000009901
 31
0.0
  0
LINE
  8
DETAIL
  6
CONTINUOUS
 62
     5
 10
-159.40000000020149
 20
-2.8000000001993608
 30
0.0
 11
-159.40000000020149
 21
-1.1999999999989091
 31
0.0
  0
LINE
  8
DETAIL
  6
CONTINUOUS
 62
     5
 10
-160.2000000000007
 20
-1.1999999999989091
 30
0.0
 11
-160.2000000000007
 21
-2.8000000001993608
 31
0.0
  0
LINE
  8
DETAIL
  6
CONTINUOUS
 62
     5
 10
-161.00000000010189
 20
-2.8000000001993608
 30
0.0
 11
-161.00000000010189
 21
-142.90625611537141
 31
0.0
  0
LINE
  8
DETAIL
  6
CONTINUOUS
 62
     5
 10
-161.00000000010189
 20
-149.26678155659829
 30
0.0
 11
-161.00000000010189
 21
-304.70000000009901
 31
0.0
  0
LINE
  8
DETAIL
  6
CONTINUOUS
 62
     5
 10
-161.20000000020079
 20
-192.0
 30
0.0
 11
-161.20000000020079
 21
-146.09999999999951
 31
0.0
  0
LINE
  8
DETAIL
  6
CONTINUOUS
 62
     5
 10
-164.00000000010101
 20
-192.0
 30
0.0
 11
-164.00000000010101
 21
-146.09999999999951
 31
0.0
  0
LINE
  8
DETAIL
  6
CONTINUOUS
 62
     5
 10
-88.657224306902194
 20
-306.68684227640011
 30
0.0
 11
-88.689214588801406
 21
-306.50987835559857
 31
0.0
  0
LINE
  8
DETAIL
  6
CONTINUOUS
 62
     5
 10
186.56676670139851
 20
2.9891701656006262
 30
0.0
 11
186.7573194944998
 21
2.8443097613999271
 31
0.0
  0
LINE
  8
DETAIL
  6
CONTINUOUS
 62
     5
 10
186.3591732062996
 20
3.1269089841007371
 30
0.0
 11
186.56676670139851
 21
2.9891701656006262
 31
0.0
  0
LINE
  8
DETAIL
  6
CONTINUOUS
 62
     5
 10
378.39999999989959
 20
-56.499999999999091
 30
0.0
 11
309.19999999989977
 21
-48.500000000199194
 31
0.0
  0
LINE
  8
DETAIL
  6
CONTINUOUS
 62
     5
 10
183.25263096089839
 20
4.0312918422005168
 30
0.0
 11
183.57544490729919
 21
4.002245370300443
 31
0.0
  0
LINE
  8
DETAIL
  6
CONTINUOUS
 62
     5
 10
182.92771131749939
 20
4.0487149986001896
 30
0.0
 11
183.25263096089839
 21
4.0312918422005168
 31
0.0
  0
LINE
  8
DETAIL
  6
CONTINUOUS
 62
     5
 10
182.59999999979851
 20
4.0545891546007624
 30
0.0
 11
182.92771131749939
 21
4.0487149986001896
 31
0.0
  0
LINE
  8
DETAIL
  6
CONTINUOUS
 62
     5
 10
301.99999999989888
 20
-2.8000000001993608
 30
0.0
 11
299.199999999998
 21
-2.8000000001993608
 31
0.0
  0
LINE
  8
DETAIL
  6
CONTINUOUS
 62
     5
 10
-158.20000000020079
 20
-2.8000000001993608
 30
0.0
 11
-161.00000000010189
 21
-2.8000000001993608
 31
0.0
  0
LINE
  8
DETAIL
  6
CONTINUOUS
 62
     5
 10
299.199999999998
 20
-2.3999999999996362
 30
0.0
 11
-158.20000000020079
 21
-2.3999999999996362
 31
0.0
  0
LINE
  8
DETAIL
  6
CONTINUOUS
 62
     5
 10
299.99999999979718
 20
-1.6000000001986341
 30
0.0
 11
299.199999999998
 21
-1.6000000001986341
 31
0.0
  0
LINE
  8
DETAIL
  6
CONTINUOUS
 62
     5
 10
-160.2000000000007
 20
-1.1999999999989091
 30
0.0
 11
-159.40000000020149
 21
-1.1999999999989091
 31
0.0
  0
LINE
  8
DETAIL
  6
CONTINUOUS
 62
     5
 10
299.99999999979718
 20
-0.8000000000993168
 30
0.0
 11
299.199999999998
 21
-0.8000000000993168
 31
0.0
  0
LINE
  8
DETAIL
  6
CONTINUOUS
 62
     5
 10
-158.20000000020079
 20
-0.8000000000993168
 30
0.0
 11
-159.0
 21
-0.8000000000993168
 31
0.0
  0
LINE
  8
DETAIL
  6
CONTINUOUS
 62
     5
 10
299.199999999998
 20
0.0
 30
0.0
 11
187.59999999990029
 21
0.0
 31
0.0
  0
LINE
  8
DETAIL
  6
CONTINUOUS
 62
     5
 10
-88.700000000100772
 20
0.0
 30
0.0
 11
-159.0
 21
0.0
 31
0.0
  0
LINE
  8
DETAIL
  6
CONTINUOUS
 62
     5
 10
182.59999999979851
 20
4.0545891546007624
 30
0.0
 11
-83.700000000000728
 21
4.0545891546007624
 31
0.0
  0
LINE
  8
DETAIL
  6
CONTINUOUS
 62
     5
 10
-84.027711317699868
 20
4.0487149986001896
 30
0.0
 11
-83.700000000000728
 21
4.0545891546007624
 31
0.0
  0
LINE
  8
DETAIL
  6
CONTINUOUS
 62
     5
 10
-88.603892705101316
 20
-306.86265935269881
 30
0.0
 11
-88.657224306902194
 21
-306.68684227640011
 31
0.0
  0
LINE
  8
DETAIL
  6
CONTINUOUS
 62
     5
 10
186.13553390579909
 20
3.2569837542014279
 30
0.0
 11
186.3591732062996
 21
3.1269089841007371
 31
0.0
  0
LINE
  8
DETAIL
  6
CONTINUOUS
 62
     5
 10
185.89670642219971
 20
3.3787864469995839
 30
0.0
 11
186.13553390579909
 21
3.2569837542014279
 31
0.0
  0
LINE
  8
DETAIL
  6
CONTINUOUS
 62
     5
 10
184.20718628279971
 20
3.910051820101216
 30
0.0
 11
184.51341716159911
 21
3.847298264699929
 31
0.0
  0
LINE
  8
DETAIL
  6
CONTINUOUS
 62
     5
 10
183.8940952253979
 20
3.961798529100633
 30
0.0
 11
184.20718628279971
 21
3.910051820101216
 31
0.0
  0
LINE
  8
DETAIL
  6
CONTINUOUS
 62
     5
 10
183.57544490729919
 20
4.002245370300443
 30
0.0
 11
183.8940952253979
 21
3.961798529100633
 31
0.0
  0
LINE
  8
DETAIL
  6
CONTINUOUS
 62
     5
 10
-88.529629131600814
 20
-307.03620875450002
 30
0.0
 11
-88.603892705101316
 21
-306.86265935269881
 31
0.0
  0
LINE
  8
DETAIL
  6
CONTINUOUS
 62
     5
 10
185.6438071449011
 20
3.491849967900635
 30
0.0
 11
185.89670642219971
 21
3.3787864469995839
 31
0.0
  0
LINE
  8
DETAIL
  6
CONTINUOUS
 62
     5
 10
185.37783207719991
 20
3.5956324572007361
 30
0.0
 11
185.6438071449011
 21
3.491849967900635
 31
0.0
  0
LINE
  8
DETAIL
  6
CONTINUOUS
 62
     5
 10
185.09999999999849
 20
3.6897501807006852
 30
0.0
 11
185.37783207719991
 21
3.5956324572007361
 31
0.0
  0
LINE
  8
DETAIL
  6
CONTINUOUS
 62
     5
 10
184.51341716159911
 20
3.847298264699929
 30
0.0
 11
184.8114282551978
 21
3.7737367194004041
 31
0.0
  0
LINE
  8
DETAIL
  6
CONTINUOUS
 62
     5
 10
-302.00000000020009
 20
-302.80000000019942
 30
0.0
 11
-302.00000000020009
 21
-32.199999999999811
 31
0.0
  0
LINE
  8
DETAIL
  6
CONTINUOUS
 62
     5
 10
-302.60000000020051
 20
-269.99897139099897
 30
0.0
 11
-302.60000000020051
 21
-35.001028609299283
 31
0.0
  0
LINE
  8
DETAIL
  6
CONTINUOUS
 62
     5
 10
-310.0
 20
-256.50000000009908
 30
0.0
 11
-310.0
 21
-48.500000000199194
 31
0.0
  0
LINE
  8
DETAIL
  6
CONTINUOUS
 62
     5
 10
-88.434618114000841
 20
-307.20673036580052
 30
0.0
 11
-88.529629131600814
 21
-307.03620875450002
 31
0.0
  0
LINE
  8
DETAIL
  6
CONTINUOUS
 62
     5
 10
184.8114282551978
 20
3.7737367194004041
 30
0.0
 11
185.09999999999849
 21
3.6897501807006852
 31
0.0
  0
LINE
  8
DETAIL
  6
CONTINUOUS
 62
     5
 10
-378.39999999999958
 20
-248.49999999999909
 30
0.0
 11
-378.39999999999958
 21
-56.499999999999091
 31
0.0
  0
LINE
  8
DETAIL
  6
CONTINUOUS
 62
     5
 10
-387.00000000009999
 20
-247.4000000001997
 30
0.0
 11
-387.00000000009999
 21
-57.600000000099499
 31
0.0
  0
LINE
  8
DETAIL
  6
CONTINUOUS
 62
     5
 10
-88.31939766270078
 20
-307.37351565619969
 30
0.0
 11
-88.434618114000841
 21
-307.20673036580052
 31
0.0
  0
LINE
  8
DETAIL
  6
CONTINUOUS
 62
     5
 10
-88.184332893899409
 20
-307.5358241306003
 30
0.0
 11
-88.31939766270078
 21
-307.37351565619969
 31
0.0
  0
LINE
  8
DETAIL
  6
CONTINUOUS
 62
     5
 10
-161.20000000020079
 20
-176.93725830029871
 30
0.0
 11
-161.00000000010189
 21
-177.13725830039951
 31
0.0
  0
LINE
  8
DETAIL
  6
CONTINUOUS
 62
     5
 10
-88.030127018999323
 20
-307.69299156709889
 30
0.0
 11
-88.184332893899409
 21
-307.5358241306003
 31
0.0
  0
LINE
  8
DETAIL
  6
CONTINUOUS
 62
     5
 10
-87.857319494700292
 20
-307.84430976170012
 30
0.0
 11
-88.030127018999323
 21
-307.69299156709889
 31
0.0
  0
LINE
  8
DETAIL
  6
CONTINUOUS
 62
     5
 10
-87.666766701600864
 20
-307.98917016589797
 30
0.0
 11
-87.857319494700292
 21
-307.84430976170012
 31
0.0
  0
LINE
  8
DETAIL
  6
CONTINUOUS
 62
     5
 10
-87.459173206501887
 20
-308.12690898439911
 30
0.0
 11
-87.666766701600864
 21
-307.98917016589797
 31
0.0
  0
LINE
  8
DETAIL
  6
CONTINUOUS
 62
     5
 10
-87.235533906001365
 20
-308.25698375449969
 30
0.0
 11
-87.459173206501887
 21
-308.12690898439911
 31
0.0
  0
LINE
  8
DETAIL
  6
CONTINUOUS
 62
     5
 10
-86.996706422400152
 20
-308.37878644729972
 30
0.0
 11
-87.235533906001365
 21
-308.25698375449969
 31
0.0
  0
LINE
  8
DETAIL
  6
CONTINUOUS
 62
     5
 10
-86.743807145099694
 20
-308.49184996819889
 30
0.0
 11
-86.996706422400152
 21
-308.37878644729972
 31
0.0
  0
LINE
  8
DETAIL
  6
CONTINUOUS
 62
     5
 10
-86.477832077402113
 20
-308.59563245749803
 30
0.0
 11
-86.743807145099694
 21
-308.49184996819889
 31
0.0
  0
LINE
  8
DETAIL
  6
CONTINUOUS
 62
     5
 10
-86.200000000200802
 20
-308.68975018069801
 30
0.0
 11
-86.477832077402113
 21
-308.59563245749803
 31
0.0
  0
LINE
  8
DETAIL
  6
CONTINUOUS
 62
     5
 10
-85.911428255401901
 20
-308.77373671970048
 30
0.0
 11
-86.200000000200802
 21
-308.68975018069801
 31
0.0
  0
ARC
  8
DETAIL
  6
CONTINUOUS
 62
     5
 10
296.69999999979967
 20
-158.30000000009929
 30
0.0
 40
2.0000000001
 50
270.0
 51
0.0
  0
ARC
  8
DETAIL
  6
CONTINUOUS
 62
     5
 10
268.99999999989899
 20
-158.30000000009929
 30
0.0
 40
2.0000000001
 50
180.0
 51
270.0
  0
ARC
  8
DETAIL
  6
CONTINUOUS
 62
     5
 10
299.99999999979718
 20
-303.79999999999922
 30
0.0
 40
1.2
 50
270.0
 51
0.0
  0
ARC
  8
DETAIL
  6
CONTINUOUS
 62
     5
 10
385.89999999989959
 20
-247.4000000001997
 30
0.0
 40
1.1000000001000001
 50
270.0
 51
0.0
  0
ARC
  8
DETAIL
  6
CONTINUOUS
 62
     5
 10
302.39999999979852
 20
-257.1000000000995
 30
0.0
 40
0.6000000000000001
 50
90.0
 51
131.99774546897839
  0
ARC
  8
DETAIL
  6
CONTINUOUS
 62
     5
 10
299.99999999979718
 20
-303.79999999999922
 30
0.0
 40
0.3999999999
 50
270.0
 51
0.0
  0
ARC
  8
DETAIL
  6
CONTINUOUS
 62
     5
 10
301.79999999979918
 20
-146.09999999999951
 30
0.0
 40
3.200000000099863
 50
0.0
 51
90.0
  0
ARC
  8
DETAIL
  6
CONTINUOUS
 62
     5
 10
265.99999999989899
 20
-146.09999999999951
 30
0.0
 40
3.2000000001000002
 50
90.0
 51
180.0
  0
CIRCLE
  8
DETAIL
  6
CONTINUOUS
 62
     5
 10
292.3999999999005
 20
-153.2999999999993
 30
0.0
 40
1.7000000001
  0
CIRCLE
  8
DETAIL
  6
CONTINUOUS
 62
     5
 10
274.3999999999005
 20
-153.2999999999993
 30
0.0
 40
1.7000000001
  0
ARC
  8
DETAIL
  6
CONTINUOUS
 62
     5
 10
265.99999999989899
 20
-146.09999999999951
 30
0.0
 40
1.5999999999000001
 50
90.0
 51
180.0
  0
ARC
  8
DETAIL
  6
CONTINUOUS
 62
     5
 10
300.59999999979942
 20
-146.09999999999951
 30
0.0
 40
1.5999999999000001
 50
0.0
 51
90.0
  0
ARC
  8
DETAIL
  6
CONTINUOUS
 62
     5
 10
299.99999999979718
 20
-2.0000000000991349
 30
0.0
 40
1.2
 50
0.0
 51
90.0
  0
ARC
  8
DETAIL
  6
CONTINUOUS
 62
     5
 10
385.89999999989959
 20
-57.600000000099499
 30
0.0
 40
1.1000000001000001
 50
0.0
 51
90.0
  0
ARC
  8
DETAIL
  6
CONTINUOUS
 62
     5
 10
302.39999999979852
 20
-47.900000000199732
 30
0.0
 40
0.6000000000000001
 50
228.00225453102161
 51
270.0
  0
ARC
  8
DETAIL
  6
CONTINUOUS
 62
     5
 10
299.99999999979718
 20
-2.0000000000991349
 30
0.0
 40
0.3999999999
 50
0.0
 51
90.0
  0
ARC
  8
DETAIL
  6
CONTINUOUS
 62
     5
 10
-128.00000000010189
 20
-158.30000000009929
 30
0.0
 40
2.0000000001
 50
270.0
 51
0.0
  0
ARC
  8
DETAIL
  6
CONTINUOUS
 62
     5
 10
-300.80000000019942
 20
-302.80000000019942
 30
0.0
 40
1.2
 50
180.0
 51
270.0
  0
ARC
  8
DETAIL
  6
CONTINUOUS
 62
     5
 10
-303.20000000020082
 20
-257.1000000000995
 30
0.0
 40
0.6000000000000001
 50
0.0
 51
90.0
  0
ARC
  8
DETAIL
  6
CONTINUOUS
 62
     5
 10
-155.7000000000007
 20
-158.30000000009929
 30
0.0
 40
2.0000000001
 50
180.0
 51
270.0
  0
ARC
  8
DETAIL
  6
CONTINUOUS
 62
     5
 10
-125.00000000010191
 20
-146.09999999999951
 30
0.0
 40
3.2000000001000002
 50
0.0
 51
90.0
  0
CIRCLE
  8
DETAIL
  6
CONTINUOUS
 62
     5
 10
-133.40000000009971
 20
-153.2999999999993
 30
0.0
 40
1.7000000001
  0
ARC
  8
DETAIL
  6
CONTINUOUS
 62
     5
 10
-125.00000000010191
 20
-146.09999999999951
 30
0.0
 40
1.5999999999000001
 50
0.0
 51
90.0
  0
ARC
  8
DETAIL
  6
CONTINUOUS
 62
     5
 10
-160.79999999999751
 20
-146.09999999999951
 30
0.0
 40
3.200000000100772
 50
90.0
 51
180.0
  0
CIRCLE
  8
DETAIL
  6
CONTINUOUS
 62
     5
 10
-151.40000000009971
 20
-153.2999999999993
 30
0.0
 40
1.7000000001
  0
ARC
  8
DETAIL
  6
CONTINUOUS
 62
     5
 10
-159.59999999999849
 20
-146.09999999999951
 30
0.0
 40
1.5999999999000001
 50
90.0
 51
180.0
  0
ARC
  8
DETAIL
  6
CONTINUOUS
 62
     5
 10
-159.0
 20
-1.1999999999989091
 30
0.0
 40
1.2
 50
90.0
 51
180.0
  0
ARC
  8
DETAIL
  6
CONTINUOUS
 62
     5
 10
-300.80000000019942
 20
-32.199999999999811
 30
0.0
 40
1.2
 50
90.0
 51
180.0
  0
ARC
  8
DETAIL
  6
CONTINUOUS
 62
     5
 10
-303.20000000020082
 20
-47.900000000199732
 30
0.0
 40
0.6000000000000001
 50
270.0
 51
0.0
  0
ARC
  8
DETAIL
  6
CONTINUOUS
 62
     5
 10
-159.0
 20
-1.1999999999989091
 30
0.0
 40
0.3999999999
 50
90.0
 51
180.0
  0
ARC
  8
DETAIL
  6
CONTINUOUS
 62
     5
 10
-385.89999999999958
 20
-247.4000000001997
 30
0.0
 40
1.1000000001000001
 50
180.0
 51
270.0
  0
ARC
  8
DETAIL
  6
CONTINUOUS
 62
     5
 10
-385.89999999999958
 20
-57.600000000099499
 30
0.0
 40
1.1000000001000001
 50
90.0
 51
180.0
  0
LINE
  8
SIZE
  6
CONTINUOUS
 62
    30
 10
405.89999999989982
 20
-56.499999999999112
 30
0.0
 11
724.57108578655721
 21
-56.499999999999062
 31
0.0
  0
LINE
  8
SIZE
  6
CONTINUOUS
 62
    30
 10
405.89999999989982
 20
-248.4999999999992
 30
0.0
 11
724.57108578655721
 21
-248.49999999999909
 31
0.0
  0
LINE
  8
SIZE
  6
CONTINUOUS
 62
    30
 10
704.57108578655698
 20
-68.499999999999062
 30
0.0
 11
704.57108578655698
 21
-236.49999999999909
 31
0.0
  0
CIRCLE
  8
SIZE
  6
CONTINUOUS
 62
    30
 10
704.57108578655698
 20
-56.499999999999062
 30
0.0
 40
6.0
  0
LINE
  8
SIZE
  6
CONTINUOUS
 62
    30
 10
704.57108578655698
 20
-56.499999999999062
 30
0.0
 11
704.57108578655698
 21
-68.499999999999062
 31
0.0
  0
CIRCLE
  8
SIZE
  6
CONTINUOUS
 62
    30
 10
704.57108578655698
 20
-248.49999999999909
 30
0.0
 40
6.0
  0
LINE
  8
SIZE
  6
CONTINUOUS
 62
    30
 10
704.57108578655698
 20
-248.49999999999909
 30
0.0
 11
704.57108578655698
 21
-236.49999999999909
 31
0.0
  0
TEXT
  8
SIZE
  6
CONTINUOUS
 62
    30
 10
679.57108578655698
 20
-261.39142857142781
 30
0.0
 40
64.0
  1
φ192
 50
90.0
 41
0.9
 72
     1
 11
679.57108578655698
 21
-152.49999999999929
 31
0.0
  0
POINT
  8
DEFPOINTS
  6
CONTINUOUS
 62
    30
 10
385.89999999989982
 20
-56.499999999999112
 30
0.0
  0
POINT
  8
DEFPOINTS
  6
CONTINUOUS
 62
    30
 10
385.89999999989982
 20
-248.4999999999992
 30
0.0
  0
POINT
  8
DEFPOINTS
  6
CONTINUOUS
 62
    30
 10
704.57108578655698
 20
-248.49999999999909
 30
0.0
  0
LINE
  8
SIZE
  6
CONTINUOUS
 62
    30
 10
329.19999999989989
 20
-48.500000000199208
 30
0.0
 11
852.5710857865555
 21
-48.500000000199122
 31
0.0
  0
LINE
  8
SIZE
  6
CONTINUOUS
 62
    30
 10
329.19999999989989
 20
-256.50000000009919
 30
0.0
 11
852.5710857865555
 21
-256.50000000009919
 31
0.0
  0
LINE
  8
SIZE
  6
CONTINUOUS
 62
    30
 10
832.5710857865555
 20
-60.500000000199137
 30
0.0
 11
832.5710857865555
 21
-244.50000000009919
 31
0.0
  0
CIRCLE
  8
SIZE
  6
CONTINUOUS
 62
    30
 10
832.5710857865555
 20
-48.500000000199137
 30
0.0
 40
6.0
  0
LINE
  8
SIZE
  6
CONTINUOUS
 62
    30
 10
832.5710857865555
 20
-48.500000000199137
 30
0.0
 11
832.5710857865555
 21
-60.500000000199137
 31
0.0
  0
CIRCLE
  8
SIZE
  6
CONTINUOUS
 62
    30
 10
832.5710857865555
 20
-256.50000000009919
 30
0.0
 40
6.0
  0
LINE
  8
SIZE
  6
CONTINUOUS
 62
    30
 10
832.5710857865555
 20
-256.50000000009919
 30
0.0
 11
832.5710857865555
 21
-244.50000000009919
 31
0.0
  0
TEXT
  8
SIZE
  6
CONTINUOUS
 62
    30
 10
807.57108578655505
 20
-266.87714285729231
 30
0.0
 40
64.0
  1
φ208
 50
90.0
 41
0.9
 72
     1
 11
807.57108578655505
 21
-152.50000000014941
 31
0.0
  0
POINT
  8
DEFPOINTS
  6
CONTINUOUS
 62
    30
 10
309.19999999989989
 20
-48.500000000199208
 30
0.0
  0
POINT
  8
DEFPOINTS
  6
CONTINUOUS
 62
    30
 10
309.19999999989989
 20
-256.50000000009919
 30
0.0
  0
POINT
  8
DEFPOINTS
  6
CONTINUOUS
 62
    30
 10
832.5710857865555
 20
-256.50000000009919
 30
0.0
  0
LINE
  8
SIZE
  6
CONTINUOUS
 62
    30
 10
319.19999999999811
 20
0.0000000000000032
 30
0.0
 11
980.57108578655527
 21
0.0000000000001096
 31
0.0
  0
LINE
  8
SIZE
  6
CONTINUOUS
 62
    30
 10
319.99999999979741
 20
-305.00000000000011
 30
0.0
 11
980.57108578655561
 21
-305.0
 31
0.0
  0
LINE
  8
SIZE
  6
CONTINUOUS
 62
    30
 10
960.57108578655527
 20
-11.999999999999901
 30
0.0
 11
960.57108578655561
 21
-293.0
 31
0.0
  0
CIRCLE
  8
SIZE
  6
CONTINUOUS
 62
    30
 10
960.57108578655527
 20
0.0000000000001064
 30
0.0
 40
6.0
  0
LINE
  8
SIZE
  6
CONTINUOUS
 62
    30
 10
960.57108578655527
 20
0.0000000000001064
 30
0.0
 11
960.57108578655527
 21
-11.99999999999989
 31
0.0
  0
CIRCLE
  8
SIZE
  6
CONTINUOUS
 62
    30
 10
960.57108578655561
 20
-305.0
 30
0.0
 40
6.0
  0
LINE
  8
SIZE
  6
CONTINUOUS
 62
    30
 10
960.57108578655561
 20
-305.0
 30
0.0
 11
960.57108578655561
 21
-293.0
 31
0.0
  0
TEXT
  8
SIZE
  6
CONTINUOUS
 62
    30
 10
935.57108578655516
 20
-226.5571428571447
 30
0.0
 40
64.0
  1
305
 50
90.0
 41
0.9
 72
     1
 11
935.57108578655516
 21
-152.50000000000179
 31
0.0
  0
POINT
  8
DEFPOINTS
  6
CONTINUOUS
 62
    30
 10
299.19999999999811
 20
0.0
 30
0.0
  0
POINT
  8
DEFPOINTS
  6
CONTINUOUS
 62
    30
 10
299.99999999979741
 20
-305.00000000000011
 30
0.0
  0
POINT
  8
DEFPOINTS
  6
CONTINUOUS
 62
    30
 10
960.57108578655561
 20
-305.0
 30
0.0
  0
LINE
  8
SIZE
  6
CONTINUOUS
 62
    30
 10
-179.00000000000011
 20
-0.0000000000000032
 30
0.0
 11
-615.28291264603297
 21
-0.0000000000000734
 31
0.0
  0
LINE
  8
SIZE
  6
CONTINUOUS
 62
    30
 10
-320.80000000019947
 20
-30.999999999999108
 30
0.0
 11
-615.28291264603297
 21
-30.999999999999151
 31
0.0
  0
LINE
  8
SIZE
  6
CONTINUOUS
 62
    30
 10
-595.28291264603297
 20
-42.999999999999147
 30
0.0
 11
-595.28291264603297
 21
-54.999999999999162
 31
0.0
  0
LINE
  8
SIZE
  6
CONTINUOUS
 62
    30
 10
-595.28291264603297
 20
11.999999999999931
 30
0.0
 11
-595.28291264603297
 21
154.91428571428369
 31
0.0
  0
LINE
  8
SIZE
  6
CONTINUOUS
 62
    30
 10
-595.28291264603297
 20
-30.999999999999151
 30
0.0
 11
-595.28291264603297
 21
-0.0000000000000702
 31
0.0
  0
CIRCLE
  8
SIZE
  6
CONTINUOUS
 62
    30
 10
-595.28291264603297
 20
-30.999999999999151
 30
0.0
 40
6.0
  0
LINE
  8
SIZE
  6
CONTINUOUS
 62
    30
 10
-595.28291264603297
 20
-30.999999999999151
 30
0.0
 11
-595.28291264603297
 21
-42.999999999999147
 31
0.0
  0
CIRCLE
  8
SIZE
  6
CONTINUOUS
 62
    30
 10
-595.28291264603297
 20
-0.0000000000000702
 30
0.0
 40
6.0
  0
LINE
  8
SIZE
  6
CONTINUOUS
 62
    30
 10
-595.28291264603297
 20
-0.0000000000000702
 30
0.0
 11
-595.28291264603297
 21
11.999999999999931
 31
0.0
  0
TEXT
  8
SIZE
  6
CONTINUOUS
 62
    30
 10
-620.28291264603286
 20
61.342857142855287
 30
0.0
 40
64.0
  1
31
 50
90.0
 41
0.9
 72
     1
 11
-620.28291264603286
 21
95.628571428569572
 31
0.0
  0
POINT
  8
DEFPOINTS
  6
CONTINUOUS
 62
    30
 10
-159.00000000000011
 20
0.0
 30
0.0
  0
POINT
  8
DEFPOINTS
  6
CONTINUOUS
 62
    30
 10
-300.80000000019947
 20
-30.999999999999101
 30
0.0
  0
POINT
  8
DEFPOINTS
  6
CONTINUOUS
 62
    30
 10
-595.28291264603297
 20
-30.999999999999151
 30
0.0
  0
LINE
  8
SIZE
  6
CONTINUOUS
 62
    30
 10
-320.80000000019947
 20
-30.999999999999108
 30
0.0
 11
-615.2829126460432
 21
-30.999999999999151
 31
0.0
  0
LINE
  8
SIZE
  6
CONTINUOUS
 62
    30
 10
-320.80000000019947
 20
-304.00000000019838
 30
0.0
 11
-615.28291264604309
 21
-304.00000000019838
 31
0.0
  0
LINE
  8
SIZE
  6
CONTINUOUS
 62
    30
 10
-595.2829126460432
 20
-42.999999999999147
 30
0.0
 11
-595.28291264604309
 21
-292.00000000019838
 31
0.0
  0
CIRCLE
  8
SIZE
  6
CONTINUOUS
 62
    30
 10
-595.2829126460432
 20
-30.999999999999151
 30
0.0
 40
6.0
  0
LINE
  8
SIZE
  6
CONTINUOUS
 62
    30
 10
-595.2829126460432
 20
-30.999999999999151
 30
0.0
 11
-595.2829126460432
 21
-42.999999999999147
 31
0.0
  0
CIRCLE
  8
SIZE
  6
CONTINUOUS
 62
    30
 10
-595.28291264604309
 20
-304.00000000019838
 30
0.0
 40
6.0
  0
LINE
  8
SIZE
  6
CONTINUOUS
 62
    30
 10
-595.28291264604309
 20
-304.00000000019838
 30
0.0
 11
-595.28291264604309
 21
-292.00000000019838
 31
0.0
  0
TEXT
  8
SIZE
  6
CONTINUOUS
 62
    30
 10
-620.28291264604309
 20
-241.55714285724139
 30
0.0
 40
64.0
  1
273
 50
90.0
 41
0.9
 72
     1
 11
-620.28291264604309
 21
-167.50000000009859
 31
0.0
  0
POINT
  8
DEFPOINTS
  6
CONTINUOUS
 62
    30
 10
-300.80000000019947
 20
-30.999999999999101
 30
0.0
  0
POINT
  8
DEFPOINTS
  6
CONTINUOUS
 62
    30
 10
-300.80000000019947
 20
-304.00000000019838
 30
0.0
  0
POINT
  8
DEFPOINTS
  6
CONTINUOUS
 62
    30
 10
-595.28291264604309
 20
-304.00000000019838
 30
0.0
  0
LINE
  8
BASIS
  6
DASHDOT
 62
     6
 10
407.25898077992309
 20
-152.5
 30
0.0
 11
-399.71654293047129
 21
-152.49995881337779
 31
0.0
  0
LINE
  8
SIZE
  6
CONTINUOUS
 62
    30
 10
301.99999999989888
 20
17.199999999800639
 30
0.0
 11
301.99999999989888
 21
163.3478105822833
 31
0.0
  0
LINE
  8
SIZE
  6
CONTINUOUS
 62
    30
 10
-161.00000000010189
 20
17.199999999800639
 30
0.0
 11
-161.00000000010189
 21
163.3478105822833
 31
0.0
  0
LINE
  8
SIZE
  6
CONTINUOUS
 62
    30
 10
289.99999999989888
 20
143.3478105822833
 30
0.0
 11
-149.00000000010189
 21
143.3478105822833
 31
0.0
  0
CIRCLE
  8
SIZE
  6
CONTINUOUS
 62
    30
 10
301.99999999989888
 20
143.3478105822833
 30
0.0
 40
6.0
  0
LINE
  8
SIZE
  6
CONTINUOUS
 62
    30
 10
301.99999999989888
 20
143.3478105822833
 30
0.0
 11
289.99999999989888
 21
143.3478105822833
 31
0.0
  0
CIRCLE
  8
SIZE
  6
CONTINUOUS
 62
    30
 10
-161.00000000010189
 20
143.3478105822833
 30
0.0
 40
6.0
  0
LINE
  8
SIZE
  6
CONTINUOUS
 62
    30
 10
-161.00000000010189
 20
143.3478105822833
 30
0.0
 11
-149.00000000010189
 21
143.3478105822833
 31
0.0
  0
TEXT
  8
SIZE
  6
CONTINUOUS
 62
    30
 10
-3.5571428572442438
 20
168.3478105822833
 30
0.0
 40
64.0
  1
463
 41
0.9
 72
     1
 11
70.499999999898591
 21
168.3478105822833
 31
0.0
  0
POINT
  8
DEFPOINTS
  6
CONTINUOUS
 62
    30
 10
301.99999999989888
 20
-2.8000000001993608
 30
0.0
  0
POINT
  8
DEFPOINTS
  6
CONTINUOUS
 62
    30
 10
-161.00000000010189
 20
-2.8000000001993608
 30
0.0
  0
POINT
  8
DEFPOINTS
  6
CONTINUOUS
 62
    30
 10
-161.00000000010189
 20
143.3478105822833
 30
0.0
  0
LINE
  8
SIZE
  6
CONTINUOUS
 62
    30
 10
387.0
 20
-37.600000000099492
 30
0.0
 11
387.0
 21
291.34781058228327
 31
0.0
  0
LINE
  8
SIZE
  6
CONTINUOUS
 62
    30
 10
301.99999999989888
 20
17.199999999800639
 30
0.0
 11
301.99999999989888
 21
291.34781058228327
 31
0.0
  0
LINE
  8
SIZE
  6
CONTINUOUS
 62
    30
 10
399.0
 20
271.34781058228327
 30
0.0
 11
411.0
 21
271.34781058228327
 31
0.0
  0
LINE
  8
SIZE
  6
CONTINUOUS
 62
    30
 10
289.99999999989888
 20
271.34781058228327
 30
0.0
 11
277.99999999989899
 21
271.34781058228327
 31
0.0
  0
LINE
  8
SIZE
  6
CONTINUOUS
 62
    30
 10
387.0
 20
271.34781058228327
 30
0.0
 11
301.99999999989888
 21
271.34781058228327
 31
0.0
  0
CIRCLE
  8
SIZE
  6
CONTINUOUS
 62
    30
 10
387.0
 20
271.34781058228327
 30
0.0
 40
6.0
  0
LINE
  8
SIZE
  6
CONTINUOUS
 62
    30
 10
387.0
 20
271.34781058228327
 30
0.0
 11
399.0
 21
271.34781058228327
 31
0.0
  0
CIRCLE
  8
SIZE
  6
CONTINUOUS
 62
    30
 10
301.99999999989888
 20
271.34781058228327
 30
0.0
 40
6.0
  0
LINE
  8
SIZE
  6
CONTINUOUS
 62
    30
 10
301.99999999989888
 20
271.34781058228327
 30
0.0
 11
289.99999999989888
 21
271.34781058228327
 31
0.0
  0
TEXT
  8
SIZE
  6
CONTINUOUS
 62
    30
 10
297.87142857137798
 20
296.34781058228327
 30
0.0
 40
64.0
  1
85
 41
0.9
 72
     1
 11
344.49999999994952
 21
296.34781058228327
 31
0.0
  0
POINT
  8
DEFPOINTS
  6
CONTINUOUS
 62
    30
 10
387.0
 20
-57.600000000099499
 30
0.0
  0
POINT
  8
DEFPOINTS
  6
CONTINUOUS
 62
    30
 10
301.99999999989888
 20
-2.8000000001993608
 30
0.0
  0
POINT
  8
DEFPOINTS
  6
CONTINUOUS
 62
    30
 10
301.99999999989888
 20
271.34781058228327
 30
0.0
  0
LINE
  8
SIZE
  6
CONTINUOUS
 62
    30
 10
301.99999999989888
 20
17.199999999800639
 30
0.0
 11
301.99999999989888
 21
291.34781058228327
 31
0.0
  0
LINE
  8
SIZE
  6
CONTINUOUS
 62
    30
 10
-302.00000000020009
 20
-12.19999999999982
 30
0.0
 11
-302.00000000020009
 21
291.34781058228327
 31
0.0
  0
LINE
  8
SIZE
  6
CONTINUOUS
 62
    30
 10
289.99999999989888
 20
271.34781058228327
 30
0.0
 11
-290.00000000020009
 21
271.34781058228327
 31
0.0
  0
CIRCLE
  8
SIZE
  6
CONTINUOUS
 62
    30
 10
301.99999999989888
 20
271.34781058228327
 30
0.0
 40
6.0
  0
LINE
  8
SIZE
  6
CONTINUOUS
 62
    30
 10
301.99999999989888
 20
271.34781058228327
 30
0.0
 11
289.99999999989888
 21
271.34781058228327
 31
0.0
  0
CIRCLE
  8
SIZE
  6
CONTINUOUS
 62
    30
 10
-302.00000000020009
 20
271.34781058228327
 30
0.0
 40
6.0
  0
LINE
  8
SIZE
  6
CONTINUOUS
 62
    30
 10
-302.00000000020009
 20
271.34781058228327
 30
0.0
 11
-290.00000000020009
 21
271.34781058228327
 31
0.0
  0
TEXT
  8
SIZE
  6
CONTINUOUS
 62
    30
 10
-75.428571428721483
 20
296.34781058228327
 30
0.0
 40
64.0
  1
604
 41
0.9
 72
     1
 11
-0.0000000001500666
 21
296.34781058228327
 31
0.0
  0
POINT
  8
DEFPOINTS
  6
CONTINUOUS
 62
    30
 10
301.99999999989888
 20
-2.8000000001993608
 30
0.0
  0
POINT
  8
DEFPOINTS
  6
CONTINUOUS
 62
    30
 10
-302.00000000020009
 20
-32.199999999999811
 30
0.0
  0
POINT
  8
DEFPOINTS
  6
CONTINUOUS
 62
    30
 10
-302.00000000020009
 20
271.34781058228327
 30
0.0
  0
LINE
  8
SIZE
  6
CONTINUOUS
 62
    30
 10
-302.00000000020009
 20
-12.19999999999982
 30
0.0
 11
-302.00000000020009
 21
291.34781058228327
 31
0.0
  0
LINE
  8
SIZE
  6
CONTINUOUS
 62
    30
 10
-387.00000000009999
 20
-37.600000000099492
 30
0.0
 11
-387.00000000009999
 21
291.34781058228327
 31
0.0
  0
LINE
  8
SIZE
  6
CONTINUOUS
 62
    30
 10
-290.00000000020009
 20
271.34781058228327
 30
0.0
 11
-278.00000000020009
 21
271.34781058228327
 31
0.0
  0
LINE
  8
SIZE
  6
CONTINUOUS
 62
    30
 10
-399.00000000009999
 20
271.34781058228327
 30
0.0
 11
-411.00000000009999
 21
271.34781058228327
 31
0.0
  0
LINE
  8
SIZE
  6
CONTINUOUS
 62
    30
 10
-302.00000000020009
 20
271.34781058228327
 30
0.0
 11
-387.00000000009999
 21
271.34781058228327
 31
0.0
  0
CIRCLE
  8
SIZE
  6
CONTINUOUS
 62
    30
 10
-302.00000000020009
 20
271.34781058228327
 30
0.0
 40
6.0
  0
LINE
  8
SIZE
  6
CONTINUOUS
 62
    30
 10
-302.00000000020009
 20
271.34781058228327
 30
0.0
 11
-290.00000000020009
 21
271.34781058228327
 31
0.0
  0
CIRCLE
  8
SIZE
  6
CONTINUOUS
 62
    30
 10
-387.00000000009999
 20
271.34781058228327
 30
0.0
 40
6.0
  0
LINE
  8
SIZE
  6
CONTINUOUS
 62
    30
 10
-387.00000000009999
 20
271.34781058228327
 30
0.0
 11
-399.00000000009999
 21
271.34781058228327
 31
0.0
  0
TEXT
  8
SIZE
  6
CONTINUOUS
 62
    30
 10
-391.1285714287215
 20
296.34781058228327
 30
0.0
 40
64.0
  1
85
 41
0.9
 72
     1
 11
-344.50000000015012
 21
296.34781058228327
 31
0.0
  0
POINT
  8
DEFPOINTS
  6
CONTINUOUS
 62
    30
 10
-302.00000000020009
 20
-32.199999999999811
 30
0.0
  0
POINT
  8
DEFPOINTS
  6
CONTINUOUS
 62
    30
 10
-387.00000000009999
 20
-57.600000000099499
 30
0.0
  0
POINT
  8
DEFPOINTS
  6
CONTINUOUS
 62
    30
 10
-387.00000000009999
 20
271.34781058228327
 30
0.0
  0
LINE
  8
SIZE
  6
CONTINUOUS
 62
    30
 10
-164.00000000010101
 20
-212.0
 30
0.0
 11
-164.00000000010101
 21
-638.64712166245852
 31
0.0
  0
LINE
  8
SIZE
  6
CONTINUOUS
 62
    30
 10
304.99999999989808
 20
-212.0
 30
0.0
 11
304.99999999989808
 21
-638.64712166245852
 31
0.0
  0
LINE
  8
SIZE
  6
CONTINUOUS
 62
    30
 10
-152.00000000010101
 20
-618.64712166245852
 30
0.0
 11
292.99999999989808
 21
-618.64712166245852
 31
0.0
  0
CIRCLE
  8
SIZE
  6
CONTINUOUS
 62
    30
 10
-164.00000000010101
 20
-618.64712166245852
 30
0.0
 40
6.0
  0
LINE
  8
SIZE
  6
CONTINUOUS
 62
    30
 10
-164.00000000010101
 20
-618.64712166245852
 30
0.0
 11
-152.00000000010101
 21
-618.64712166245852
 31
0.0
  0
CIRCLE
  8
SIZE
  6
CONTINUOUS
 62
    30
 10
304.99999999989808
 20
-618.64712166245852
 30
0.0
 40
6.0
  0
LINE
  8
SIZE
  6
CONTINUOUS
 62
    30
 10
304.99999999989808
 20
-618.64712166245852
 30
0.0
 11
292.99999999989808
 21
-618.64712166245852
 31
0.0
  0
TEXT
  8
SIZE
  6
CONTINUOUS
 62
    30
 10
-2.1857142858152372
 20
-593.64712166245852
 30
0.0
 40
64.0
  1
469
 41
0.9
 72
     1
 11
70.499999999899046
 21
-593.64712166245852
 31
0.0
  0
POINT
  8
DEFPOINTS
  6
CONTINUOUS
 62
    30
 10
-164.00000000010101
 20
-192.0
 30
0.0
  0
POINT
  8
DEFPOINTS
  6
CONTINUOUS
 62
    30
 10
304.99999999989808
 20
-192.0
 30
0.0
  0
POINT
  8
DEFPOINTS
  6
CONTINUOUS
 62
    30
 10
304.99999999989808
 20
-618.64712166245852
 30
0.0
  0
LINE
  8
BASIS
  6
DASHDOT
 62
     6
 10
0.0
 20
-365.76423021558912
 30
0.0
 11
0.0
 21
60.764271787165853
 31
0.0
  0
LINE
  8
BASIS
  6
DASHDOT
 62
     6
 10
264.5
 20
-142.90000000019879
 30
0.0
 11
304.5
 21
-142.90000000019879
 31
0.0
  0
LINE
  8
BASIS
  6
DASHDOT
 62
     6
 10
284.5
 20
-122.9000000001988
 30
0.0
 11
284.5
 21
-162.90000000019879
 31
0.0
  0
CIRCLE
  8
FIX
  6
CONTINUOUS
 62
    11
 10
284.5
 20
-142.90000000019879
 30
0.0
 40
5.5
  0
LINE
  8
BASIS
  6
DASHDOT
 62
     6
 10
-123.5
 20
-142.90000000019879
 30
0.0
 11
-163.5
 21
-142.90000000019879
 31
0.0
  0
LINE
  8
BASIS
  6
DASHDOT
 62
     6
 10
-143.5
 20
-122.9000000001988
 30
0.0
 11
-143.5
 21
-162.90000000019879
 31
0.0
  0
CIRCLE
  8
FIX
  6
CONTINUOUS
 62
    11
 10
-143.5
 20
-142.90000000019879
 30
0.0
 40
5.5
  0
LINE
  8
SIZE
  6
CONTINUOUS
 62
    30
 10
284.5
 20
-182.90000000019879
 30
0.0
 11
284.5
 21
-510.64712166245857
 31
0.0
  0
LINE
  8
SIZE
  6
CONTINUOUS
 62
    30
 10
-143.5
 20
-182.90000000019879
 30
0.0
 11
-143.5
 21
-510.64712166245857
 31
0.0
  0
LINE
  8
SIZE
  6
CONTINUOUS
 62
    30
 10
272.5
 20
-490.64712166245857
 30
0.0
 11
-131.5
 21
-490.64712166245857
 31
0.0
  0
CIRCLE
  8
SIZE
  6
CONTINUOUS
 62
    30
 10
284.5
 20
-490.64712166245857
 30
0.0
 40
6.0
  0
LINE
  8
SIZE
  6
CONTINUOUS
 62
    30
 10
284.5
 20
-490.64712166245857
 30
0.0
 11
272.5
 21
-490.64712166245857
 31
0.0
  0
CIRCLE
  8
SIZE
  6
CONTINUOUS
 62
    30
 10
-143.5
 20
-490.64712166245857
 30
0.0
 40
6.0
  0
LINE
  8
SIZE
  6
CONTINUOUS
 62
    30
 10
-143.5
 20
-490.64712166245857
 30
0.0
 11
-131.5
 21
-490.64712166245857
 31
0.0
  0
TEXT
  8
SIZE
  6
CONTINUOUS
 62
    30
 10
-3.5571428571428361
 20
-465.64712166245857
 30
0.0
 40
64.0
  1
428
 41
0.9
 72
     1
 11
70.5
 21
-465.64712166245857
 31
0.0
  0
POINT
  8
DEFPOINTS
  6
CONTINUOUS
 62
    30
 10
284.5
 20
-162.90000000019879
 30
0.0
  0
POINT
  8
DEFPOINTS
  6
CONTINUOUS
 62
    30
 10
-143.5
 20
-162.90000000019879
 30
0.0
  0
POINT
  8
DEFPOINTS
  6
CONTINUOUS
 62
    30
 10
-143.5
 20
-490.64712166245857
 30
0.0
  0
LINE
  8
SIZE
  6
CONTINUOUS
 62
    30
 10
304.99999999989808
 20
-212.0
 30
0.0
 11
304.99999999989808
 21
-766.64712166245852
 31
0.0
  0
LINE
  8
SIZE
  6
CONTINUOUS
 62
    30
 10
-302.00000000020009
 20
-322.80000000019942
 30
0.0
 11
-302.00000000020009
 21
-766.64712166245852
 31
0.0
  0
LINE
  8
SIZE
  6
CONTINUOUS
 62
    30
 10
292.99999999989808
 20
-746.64712166245852
 30
0.0
 11
-290.00000000020009
 21
-746.64712166245852
 31
0.0
  0
CIRCLE
  8
SIZE
  6
CONTINUOUS
 62
    30
 10
304.99999999989808
 20
-746.64712166245852
 30
0.0
 40
6.0
  0
LINE
  8
SIZE
  6
CONTINUOUS
 62
    30
 10
304.99999999989808
 20
-746.64712166245852
 30
0.0
 11
292.99999999989808
 21
-746.64712166245852
 31
0.0
  0
CIRCLE
  8
SIZE
  6
CONTINUOUS
 62
    30
 10
-302.00000000020009
 20
-746.64712166245852
 30
0.0
 40
6.0
  0
LINE
  8
SIZE
  6
CONTINUOUS
 62
    30
 10
-302.00000000020009
 20
-746.64712166245852
 30
0.0
 11
-290.00000000020009
 21
-746.64712166245852
 31
0.0
  0
TEXT
  8
SIZE
  6
CONTINUOUS
 62
    30
 10
-72.557142857293826
 20
-721.64712166245852
 30
0.0
 40
64.0
  1
607
 41
0.9
 72
     1
 11
1.4999999998490241
 21
-721.64712166245852
 31
0.0
  0
POINT
  8
DEFPOINTS
  6
CONTINUOUS
 62
    30
 10
304.99999999989808
 20
-192.0
 30
0.0
  0
POINT
  8
DEFPOINTS
  6
CONTINUOUS
 62
    30
 10
-302.00000000020009
 20
-302.80000000019942
 30
0.0
  0
POINT
  8
DEFPOINTS
  6
CONTINUOUS
 62
    30
 10
-302.00000000020009
 20
-746.64712166245852
 30
0.0
  0
TEXT
  8
NOTE
  6
CONTINUOUS
 62
     4
 10
-538.35095946366619
 20
-179.40120992061111
 30
0.0
 40
64.0
  1
DA1
 41
0.9
  0
TEXT
  8
NOTE
  6
CONTINUOUS
 62
     4
 10
413.34058643493239
 20
-178.9787975680965
 30
0.0
 40
64.0
  1
DA2
 41
0.9
  0
LINE
  8
OUTLINE
  6
CONTINUOUS
 62
     3
 10
387.0
 20
-247.4000000001997
 30
0.0
 11
387.0
 21
-57.600000000100401
 31
0.0
  0
LINE
  8
OUTLINE
  6
CONTINUOUS
 62
     3
 10
186.13553390579909
 20
-308.25698375449969
 30
0.0
 11
185.89670642219971
 21
-308.37878644730063
 31
0.0
  0
LINE
  8
OUTLINE
  6
CONTINUOUS
 62
     3
 10
186.3591732062996
 20
-308.12690898440002
 30
0.0
 11
186.13553390579909
 21
-308.25698375449969
 31
0.0
  0
LINE
  8
OUTLINE
  6
CONTINUOUS
 62
     3
 10
186.56676670139851
 20
-307.98917016589888
 30
0.0
 11
186.3591732062996
 21
-308.12690898440002
 31
0.0
  0
LINE
  8
OUTLINE
  6
CONTINUOUS
 62
     3
 10
186.7573194944998
 20
-307.84430976170103
 30
0.0
 11
186.56676670139851
 21
-307.98917016589888
 31
0.0
  0
LINE
  8
OUTLINE
  6
CONTINUOUS
 62
     3
 10
186.9301270188007
 20
-307.69299156710002
 30
0.0
 11
186.7573194944998
 21
-307.84430976170103
 31
0.0
  0
LINE
  8
OUTLINE
  6
CONTINUOUS
 62
     3
 10
187.08433289369901
 20
-307.5358241306003
 30
0.0
 11
186.9301270188007
 21
-307.69299156710002
 31
0.0
  0
LINE
  8
OUTLINE
  6
CONTINUOUS
 62
     3
 10
187.21939766249849
 20
-307.37351565620082
 30
0.0
 11
187.08433289369901
 21
-307.5358241306003
 31
0.0
  0
LINE
  8
OUTLINE
  6
CONTINUOUS
 62
     3
 10
187.33461811380039
 20
-307.20673036580052
 30
0.0
 11
187.21939766249849
 21
-307.37351565620082
 31
0.0
  0
LINE
  8
OUTLINE
  6
CONTINUOUS
 62
     3
 10
187.42962913140039
 20
-307.03620875450088
 30
0.0
 11
187.33461811380039
 21
-307.20673036580052
 31
0.0
  0
LINE
  8
OUTLINE
  6
CONTINUOUS
 62
     3
 10
301.99999999989888
 20
-302.20000000009992
 30
0.0
 11
301.99999999989888
 21
-256.65278640451112
 31
0.0
  0
LINE
  8
OUTLINE
  6
CONTINUOUS
 62
     3
 10
301.99999999989888
 20
-48.347213595789071
 30
0.0
 11
301.99999999989888
 21
-2.8000000001993608
 31
0.0
  0
LINE
  8
OUTLINE
  6
CONTINUOUS
 62
     3
 10
301.19999999979967
 20
-303.80000000000018
 30
0.0
 11
301.19999999979967
 21
-302.20000000009992
 31
0.0
  0
LINE
  8
OUTLINE
  6
CONTINUOUS
 62
     3
 10
301.19999999979967
 20
-2.8000000001993608
 30
0.0
 11
301.19999999979967
 21
-2.000000000100044
 31
0.0
  0
LINE
  8
OUTLINE
  6
CONTINUOUS
 62
     3
 10
299.19999999999709
 20
-0.8000000000993168
 30
0.0
 11
299.199999999998
 21
0.0
 31
0.0
  0
LINE
  8
OUTLINE
  6
CONTINUOUS
 62
     3
 10
185.09999999999849
 20
-308.68975018069892
 30
0.0
 11
184.8114282551978
 21
-308.77373671970048
 31
0.0
  0
LINE
  8
OUTLINE
  6
CONTINUOUS
 62
     3
 10
185.37783207719991
 20
-308.59563245749911
 30
0.0
 11
185.09999999999849
 21
-308.68975018069892
 31
0.0
  0
LINE
  8
OUTLINE
  6
CONTINUOUS
 62
     3
 10
185.6438071449011
 20
-308.49184996819992
 30
0.0
 11
185.37783207719991
 21
-308.59563245749911
 31
0.0
  0
LINE
  8
OUTLINE
  6
CONTINUOUS
 62
     3
 10
185.89670642219971
 20
-308.37878644730063
 30
0.0
 11
185.6438071449011
 21
-308.49184996819992
 31
0.0
  0
LINE
  8
OUTLINE
  6
CONTINUOUS
 62
     3
 10
187.50389270489899
 20
-306.86265935269972
 30
0.0
 11
187.42962913140039
 21
-307.03620875450088
 31
0.0
  0
LINE
  8
OUTLINE
  6
CONTINUOUS
 62
     3
 10
187.55722430669809
 20
-306.68684227640108
 30
0.0
 11
187.50389270489899
 21
-306.86265935269972
 31
0.0
  0
LINE
  8
OUTLINE
  6
CONTINUOUS
 62
     3
 10
183.8940952253979
 20
-308.96179852940003
 30
0.0
 11
183.57544490729919
 21
-309.00224537029948
 31
0.0
  0
LINE
  8
OUTLINE
  6
CONTINUOUS
 62
     3
 10
184.20718628279971
 20
-308.91005182040038
 30
0.0
 11
183.8940952253979
 21
-308.96179852940003
 31
0.0
  0
LINE
  8
OUTLINE
  6
CONTINUOUS
 62
     3
 10
184.51341716159911
 20
-308.84729826500097
 30
0.0
 11
184.20718628279971
 21
-308.91005182040038
 31
0.0
  0
LINE
  8
OUTLINE
  6
CONTINUOUS
 62
     3
 10
184.8114282551978
 20
-308.77373671970048
 30
0.0
 11
184.51341716159911
 21
-308.84729826500097
 31
0.0
  0
LINE
  8
OUTLINE
  6
CONTINUOUS
 62
     3
 10
187.58921458859911
 20
-306.50987835559948
 30
0.0
 11
187.55722430669809
 21
-306.68684227640108
 31
0.0
  0
LINE
  8
OUTLINE
  6
CONTINUOUS
 62
     3
 10
187.59999999990029
 20
-306.33139397960002
 30
0.0
 11
187.58921458859911
 21
-306.50987835559948
 31
0.0
  0
LINE
  8
OUTLINE
  6
CONTINUOUS
 62
     3
 10
187.59999999990029
 20
-306.33139397960002
 30
0.0
 11
187.59999999990029
 21
-305.00000000000091
 31
0.0
  0
LINE
  8
OUTLINE
  6
CONTINUOUS
 62
     3
 10
187.59999999989941
 20
0.0
 30
0.0
 11
187.59999999990029
 21
1.3313939795989429
 31
0.0
  0
LINE
  8
OUTLINE
  6
CONTINUOUS
 62
     3
 10
187.58921458859911
 20
1.5098783553003161
 30
0.0
 11
187.59999999990029
 21
1.3313939795989429
 31
0.0
  0
LINE
  8
OUTLINE
  6
CONTINUOUS
 62
     3
 10
-84.027711317699868
 20
-309.04871499890032
 30
0.0
 11
-84.352630961100672
 21
-309.03129184249968
 31
0.0
  0
LINE
  8
OUTLINE
  6
CONTINUOUS
 62
     3
 10
-83.700000000000728
 20
-309.05458915460002
 30
0.0
 11
-84.027711317699868
 21
-309.04871499890032
 31
0.0
  0
LINE
  8
OUTLINE
  6
CONTINUOUS
 62
     3
 10
-83.700000000000728
 20
-309.05458915460002
 30
0.0
 11
182.59999999979851
 21
-309.05458915460002
 31
0.0
  0
LINE
  8
OUTLINE
  6
CONTINUOUS
 62
     3
 10
299.99999999979718
 20
-305.0
 30
0.0
 11
187.59999999990029
 21
-305.0
 31
0.0
  0
LINE
  8
OUTLINE
  6
CONTINUOUS
 62
     3
 10
-88.700000000100772
 20
-305.0
 30
0.0
 11
-158.20000000020079
 21
-305.0
 31
0.0
  0
LINE
  8
OUTLINE
  6
CONTINUOUS
 62
     3
 10
301.99999999989888
 20
-302.20000000009992
 30
0.0
 11
301.19999999979967
 21
-302.20000000010077
 31
0.0
  0
LINE
  8
OUTLINE
  6
CONTINUOUS
 62
     3
 10
-158.20000000020079
 20
-304.70000000009992
 30
0.0
 11
-161.00000000010189
 21
-304.70000000009992
 31
0.0
  0
LINE
  8
OUTLINE
  6
CONTINUOUS
 62
     3
 10
-161.00000000010189
 20
-304.00000000019918
 30
0.0
 11
-300.80000000019942
 21
-304.00000000019918
 31
0.0
  0
LINE
  8
OUTLINE
  6
CONTINUOUS
 62
     3
 10
182.92771131749939
 20
-309.04871499890032
 30
0.0
 11
182.59999999979851
 21
-309.05458915460002
 31
0.0
  0
LINE
  8
OUTLINE
  6
CONTINUOUS
 62
     3
 10
183.25263096089839
 20
-309.03129184249968
 30
0.0
 11
182.92771131749939
 21
-309.04871499890032
 31
0.0
  0
LINE
  8
OUTLINE
  6
CONTINUOUS
 62
     3
 10
183.57544490729919
 20
-309.00224537029948
 30
0.0
 11
183.25263096089839
 21
-309.03129184249968
 31
0.0
  0
LINE
  8
OUTLINE
  6
CONTINUOUS
 62
     3
 10
378.39999999989959
 20
-248.5
 30
0.0
 11
309.19999999989977
 21
-256.50000000009999
 31
0.0
  0
LINE
  8
OUTLINE
  6
CONTINUOUS
 62
     3
 10
187.55722430669809
 20
1.686842276400057
 30
0.0
 11
187.58921458859911
 21
1.5098783553003161
 31
0.0
  0
LINE
  8
OUTLINE
  6
CONTINUOUS
 62
     3
 10
187.50389270489899
 20
1.862659352400442
 30
0.0
 11
187.55722430669809
 21
1.686842276400057
 31
0.0
  0
LINE
  8
OUTLINE
  6
CONTINUOUS
 62
     3
 10
-85.613417161799589
 20
-308.84729826500097
 30
0.0
 11
-85.911428255401901
 21
-308.77373671970048
 31
0.0
  0
LINE
  8
OUTLINE
  6
CONTINUOUS
 62
     3
 10
-85.307186283000178
 20
-308.91005182040038
 30
0.0
 11
-85.613417161799589
 21
-308.84729826500097
 31
0.0
  0
LINE
  8
OUTLINE
  6
CONTINUOUS
 62
     3
 10
-84.994095225601981
 20
-308.96179852940003
 30
0.0
 11
-85.307186283000178
 21
-308.91005182040038
 31
0.0
  0
LINE
  8
OUTLINE
  6
CONTINUOUS
 62
     3
 10
-84.6754449075015
 20
-309.00224537029948
 30
0.0
 11
-84.994095225601981
 21
-308.96179852940003
 31
0.0
  0
LINE
  8
OUTLINE
  6
CONTINUOUS
 62
     3
 10
-378.39999999999958
 20
-248.5
 30
0.0
 11
-310.0
 21
-256.50000000009999
 31
0.0
  0
LINE
  8
OUTLINE
  6
CONTINUOUS
 62
     3
 10
-84.352630961100672
 20
-309.03129184249968
 30
0.0
 11
-84.6754449075015
 21
-309.00224537029948
 31
0.0
  0
LINE
  8
OUTLINE
  6
CONTINUOUS
 62
     3
 10
-302.00000000020009
 20
-288.10000000019858
 30
0.0
 11
-302.02500000009968
 21
-288.10000000019858
 31
0.0
  0
LINE
  8
OUTLINE
  6
CONTINUOUS
 62
     3
 10
-302.00000000020009
 20
-277.29999999999927
 30
0.0
 11
-302.02500000009968
 21
-277.29999999999927
 31
0.0
  0
LINE
  8
OUTLINE
  6
CONTINUOUS
 62
     3
 10
-302.00000000020009
 20
-269.99989297540009
 30
0.0
 11
-302.60000000020051
 21
-269.99989297540009
 31
0.0
  0
LINE
  8
OUTLINE
  6
CONTINUOUS
 62
     3
 10
-310.0
 20
-256.50000000009999
 30
0.0
 11
-303.20000000020082
 21
-256.50000000009999
 31
0.0
  0
LINE
  8
OUTLINE
  6
CONTINUOUS
 62
     3
 10
309.19999999989977
 20
-256.50000000009999
 30
0.0
 11
302.39999999979852
 21
-256.50000000009999
 31
0.0
  0
LINE
  8
OUTLINE
  6
CONTINUOUS
 62
     3
 10
-385.89999999999958
 20
-248.5
 30
0.0
 11
-378.39999999999958
 21
-248.5
 31
0.0
  0
LINE
  8
OUTLINE
  6
CONTINUOUS
 62
     3
 10
385.89999999989959
 20
-248.5
 30
0.0
 11
378.39999999989959
 21
-248.5
 31
0.0
  0
LINE
  8
OUTLINE
  6
CONTINUOUS
 62
     3
 10
-302.00000000020009
 20
-302.40000000000049
 30
0.0
 11
-301.99679602720062
 21
-302.3989985388007
 31
0.0
  0
LINE
  8
OUTLINE
  6
CONTINUOUS
 62
     3
 10
-301.99679602720062
 20
-302.3989985388007
 30
0.0
 11
-301.94682195280262
 21
-302.3822910198005
 31
0.0
  0
LINE
  8
OUTLINE
  6
CONTINUOUS
 62
     3
 10
187.42962913140039
 20
2.036208754199833
 30
0.0
 11
187.50389270489899
 21
1.862659352400442
 31
0.0
  0
LINE
  8
OUTLINE
  6
CONTINUOUS
 62
     3
 10
187.33461811380039
 20
2.206730365500333
 30
0.0
 11
187.42962913140039
 21
2.036208754199833
 31
0.0
  0
LINE
  8
OUTLINE
  6
CONTINUOUS
 62
     3
 10
187.21939766249849
 20
2.3735156561997428
 30
0.0
 11
187.33461811380039
 21
2.206730365500333
 31
0.0
  0
LINE
  8
OUTLINE
  6
CONTINUOUS
 62
     3
 10
187.08433289369901
 20
2.5358241306003042
 30
0.0
 11
187.21939766249849
 21
2.3735156561997428
 31
0.0
  0
LINE
  8
OUTLINE
  6
CONTINUOUS
 62
     3
 10
186.9301270188007
 20
2.692991567100762
 30
0.0
 11
187.08433289369901
 21
2.5358241306003042
 31
0.0
  0
LINE
  8
OUTLINE
  6
CONTINUOUS
 62
     3
 10
-86.996706422400152
 20
3.3787864469995839
 30
0.0
 11
-86.743807145099694
 21
3.491849967900635
 31
0.0
  0
LINE
  8
OUTLINE
  6
CONTINUOUS
 62
     3
 10
-87.235533906001365
 20
3.2569837542014279
 30
0.0
 11
-86.996706422400152
 21
3.3787864469995839
 31
0.0
  0
LINE
  8
OUTLINE
  6
CONTINUOUS
 62
     3
 10
-87.459173206501887
 20
3.1269089841007371
 30
0.0
 11
-87.235533906001365
 21
3.2569837542014279
 31
0.0
  0
LINE
  8
OUTLINE
  6
CONTINUOUS
 62
     3
 10
-87.666766701600864
 20
2.9891701655997172
 30
0.0
 11
-87.459173206501887
 21
3.1269089841007371
 31
0.0
  0
LINE
  8
OUTLINE
  6
CONTINUOUS
 62
     3
 10
-87.857319494700292
 20
2.8443097613999271
 30
0.0
 11
-87.666766701600864
 21
2.9891701655997172
 31
0.0
  0
LINE
  8
OUTLINE
  6
CONTINUOUS
 62
     3
 10
-88.030127018999323
 20
2.692991567100762
 30
0.0
 11
-87.857319494700292
 21
2.8443097613999271
 31
0.0
  0
LINE
  8
OUTLINE
  6
CONTINUOUS
 62
     3
 10
-88.184332893899409
 20
2.5358241306003042
 30
0.0
 11
-88.030127018999323
 21
2.692991567100762
 31
0.0
  0
LINE
  8
OUTLINE
  6
CONTINUOUS
 62
     3
 10
-88.31939766270078
 20
2.3735156561997428
 30
0.0
 11
-88.184332893899409
 21
2.5358241306003042
 31
0.0
  0
LINE
  8
OUTLINE
  6
CONTINUOUS
 62
     3
 10
-88.434618114000841
 20
2.206730365500333
 30
0.0
 11
-88.31939766270078
 21
2.3735156561997428
 31
0.0
  0
LINE
  8
OUTLINE
  6
CONTINUOUS
 62
     3
 10
-88.529629131600814
 20
2.036208754199833
 30
0.0
 11
-88.434618114000841
 21
2.206730365500333
 31
0.0
  0
LINE
  8
OUTLINE
  6
CONTINUOUS
 62
     3
 10
-88.603892705101316
 20
1.862659352400442
 30
0.0
 11
-88.529629131600814
 21
2.036208754199833
 31
0.0
  0
LINE
  8
OUTLINE
  6
CONTINUOUS
 62
     3
 10
-88.657224306902194
 20
1.686842276400057
 30
0.0
 11
-88.603892705101316
 21
1.862659352400442
 31
0.0
  0
LINE
  8
OUTLINE
  6
CONTINUOUS
 62
     3
 10
-88.700000000100772
 20
1.3313939795989429
 30
0.0
 11
-88.689214588801406
 21
1.5098783553003161
 31
0.0
  0
LINE
  8
OUTLINE
  6
CONTINUOUS
 62
     3
 10
-88.700000000100772
 20
-306.33139397960002
 30
0.0
 11
-88.700000000100772
 21
-305.0
 31
0.0
  0
LINE
  8
OUTLINE
  6
CONTINUOUS
 62
     3
 10
-88.700000000100772
 20
0.0
 30
0.0
 11
-88.700000000100772
 21
1.3313939795989429
 31
0.0
  0
LINE
  8
OUTLINE
  6
CONTINUOUS
 62
     3
 10
-88.689214588801406
 20
-306.50987835559948
 30
0.0
 11
-88.700000000100772
 21
-306.33139397960002
 31
0.0
  0
LINE
  8
OUTLINE
  6
CONTINUOUS
 62
     3
 10
186.7573194944998
 20
2.8443097613999271
 30
0.0
 11
186.9301270188007
 21
2.692991567100762
 31
0.0
  0
LINE
  8
OUTLINE
  6
CONTINUOUS
 62
     3
 10
-385.89999999999958
 20
-56.5
 30
0.0
 11
-378.39999999999958
 21
-56.5
 31
0.0
  0
LINE
  8
OUTLINE
  6
CONTINUOUS
 62
     3
 10
385.89999999989959
 20
-56.5
 30
0.0
 11
378.39999999989959
 21
-56.5
 31
0.0
  0
LINE
  8
OUTLINE
  6
CONTINUOUS
 62
     3
 10
-310.0
 20
-48.500000000200089
 30
0.0
 11
-303.20000000020082
 21
-48.500000000200089
 31
0.0
  0
LINE
  8
OUTLINE
  6
CONTINUOUS
 62
     3
 10
309.19999999989977
 20
-48.500000000200089
 30
0.0
 11
302.39999999979852
 21
-48.500000000200089
 31
0.0
  0
LINE
  8
OUTLINE
  6
CONTINUOUS
 62
     3
 10
-302.60000000020051
 20
-35.000107024899989
 30
0.0
 11
-302.00000000020009
 21
-35.000107024899989
 31
0.0
  0
LINE
  8
OUTLINE
  6
CONTINUOUS
 62
     3
 10
-300.80000000019942
 20
-31.0
 30
0.0
 11
-161.00000000010189
 21
-31.0
 31
0.0
  0
LINE
  8
OUTLINE
  6
CONTINUOUS
 62
     3
 10
-84.352630961100672
 20
4.0312918422005168
 30
0.0
 11
-84.027711317699868
 21
4.0487149986001896
 31
0.0
  0
LINE
  8
OUTLINE
  6
CONTINUOUS
 62
     3
 10
-84.6754449075015
 20
4.002245370300443
 30
0.0
 11
-84.352630961100672
 21
4.0312918422005168
 31
0.0
  0
LINE
  8
OUTLINE
  6
CONTINUOUS
 62
     3
 10
-378.39999999999958
 20
-56.5
 30
0.0
 11
-310.0
 21
-48.500000000200089
 31
0.0
  0
LINE
  8
OUTLINE
  6
CONTINUOUS
 62
     3
 10
-84.994095225601981
 20
3.961798529100633
 30
0.0
 11
-84.6754449075015
 21
4.002245370300443
 31
0.0
  0
LINE
  8
OUTLINE
  6
CONTINUOUS
 62
     3
 10
-85.307186283000178
 20
3.910051820101216
 30
0.0
 11
-84.994095225601981
 21
3.961798529100633
 31
0.0
  0
LINE
  8
OUTLINE
  6
CONTINUOUS
 62
     3
 10
-85.613417161799589
 20
3.847298264699929
 30
0.0
 11
-85.307186283000178
 21
3.910051820101216
 31
0.0
  0
LINE
  8
OUTLINE
  6
CONTINUOUS
 62
     3
 10
-85.911428255401901
 20
3.7737367194004041
 30
0.0
 11
-85.613417161799589
 21
3.847298264699929
 31
0.0
  0
LINE
  8
OUTLINE
  6
CONTINUOUS
 62
     3
 10
-86.200000000200802
 20
3.6897501806997748
 30
0.0
 11
-85.911428255401901
 21
3.7737367194004041
 31
0.0
  0
LINE
  8
OUTLINE
  6
CONTINUOUS
 62
     3
 10
-86.477832077402113
 20
3.595632457199827
 30
0.0
 11
-86.200000000200802
 21
3.6897501806997748
 31
0.0
  0
LINE
  8
OUTLINE
  6
CONTINUOUS
 62
     3
 10
-86.743807145099694
 20
3.491849967900635
 30
0.0
 11
-86.477832077402113
 21
3.595632457199827
 31
0.0
  0
LINE
  8
OUTLINE
  6
CONTINUOUS
 62
     3
 10
-88.689214588801406
 20
1.5098783553003161
 30
0.0
 11
-88.657224306902194
 21
1.686842276400057
 31
0.0
  0
LINE
  8
OUTLINE
  6
CONTINUOUS
 62
     3
 10
-158.20000000020079
 20
-305.0
 30
0.0
 11
-158.20000000020079
 21
-304.70000000009992
 31
0.0
  0
LINE
  8
OUTLINE
  6
CONTINUOUS
 62
     3
 10
-160.2000000000007
 20
-1.1999999999989091
 30
0.0
 11
-160.2000000000007
 21
-2.8000000001993608
 31
0.0
  0
LINE
  8
OUTLINE
  6
CONTINUOUS
 62
     3
 10
-161.00000000010189
 20
-2.8000000001993608
 30
0.0
 11
-161.00000000010189
 21
-31.0
 31
0.0
  0
LINE
  8
OUTLINE
  6
CONTINUOUS
 62
     3
 10
-161.00000000010189
 20
-304.00000000019918
 30
0.0
 11
-161.00000000010189
 21
-304.70000000009992
 31
0.0
  0
LINE
  8
OUTLINE
  6
CONTINUOUS
 62
     3
 10
-88.657224306902194
 20
-306.68684227640108
 30
0.0
 11
-88.689214588801406
 21
-306.50987835559948
 31
0.0
  0
LINE
  8
OUTLINE
  6
CONTINUOUS
 62
     3
 10
186.56676670139851
 20
2.9891701655997172
 30
0.0
 11
186.7573194944998
 21
2.8443097613999271
 31
0.0
  0
LINE
  8
OUTLINE
  6
CONTINUOUS
 62
     3
 10
186.3591732062996
 20
3.1269089841007371
 30
0.0
 11
186.56676670139851
 21
2.9891701655997172
 31
0.0
  0
LINE
  8
OUTLINE
  6
CONTINUOUS
 62
     3
 10
378.39999999989959
 20
-56.5
 30
0.0
 11
309.19999999989977
 21
-48.500000000200089
 31
0.0
  0
LINE
  8
OUTLINE
  6
CONTINUOUS
 62
     3
 10
183.25263096089839
 20
4.0312918422005168
 30
0.0
 11
183.57544490729919
 21
4.002245370300443
 31
0.0
  0
LINE
  8
OUTLINE
  6
CONTINUOUS
 62
     3
 10
182.92771131749939
 20
4.0487149986001896
 30
0.0
 11
183.25263096089839
 21
4.0312918422005168
 31
0.0
  0
LINE
  8
OUTLINE
  6
CONTINUOUS
 62
     3
 10
182.59999999979851
 20
4.0545891546007624
 30
0.0
 11
182.92771131749939
 21
4.0487149986001896
 31
0.0
  0
LINE
  8
OUTLINE
  6
CONTINUOUS
 62
     3
 10
301.99999999989888
 20
-2.8000000001993608
 30
0.0
 11
301.19999999979967
 21
-2.8000000001993608
 31
0.0
  0
LINE
  8
OUTLINE
  6
CONTINUOUS
 62
     3
 10
-160.20000000000161
 20
-2.8000000002002712
 30
0.0
 11
-161.00000000010189
 21
-2.8000000001993608
 31
0.0
  0
LINE
  8
OUTLINE
  6
CONTINUOUS
 62
     3
 10
299.99999999979718
 20
-0.8000000000993168
 30
0.0
 11
299.199999999998
 21
-0.8000000000993168
 31
0.0
  0
LINE
  8
OUTLINE
  6
CONTINUOUS
 62
     3
 10
299.199999999998
 20
0.0
 30
0.0
 11
187.59999999990029
 21
0.0
 31
0.0
  0
LINE
  8
OUTLINE
  6
CONTINUOUS
 62
     3
 10
-88.700000000100772
 20
0.0
 30
0.0
 11
-159.0
 21
0.0
 31
0.0
  0
LINE
  8
OUTLINE
  6
CONTINUOUS
 62
     3
 10
182.59999999979851
 20
4.0545891546007624
 30
0.0
 11
-83.700000000000728
 21
4.0545891546007624
 31
0.0
  0
LINE
  8
OUTLINE
  6
CONTINUOUS
 62
     3
 10
-84.027711317699868
 20
4.0487149986001896
 30
0.0
 11
-83.700000000000728
 21
4.0545891546007624
 31
0.0
  0
LINE
  8
OUTLINE
  6
CONTINUOUS
 62
     3
 10
-88.603892705101316
 20
-306.86265935269972
 30
0.0
 11
-88.657224306902194
 21
-306.68684227640108
 31
0.0
  0
LINE
  8
OUTLINE
  6
CONTINUOUS
 62
     3
 10
186.13553390579909
 20
3.2569837542014279
 30
0.0
 11
186.3591732062996
 21
3.1269089841007371
 31
0.0
  0
LINE
  8
OUTLINE
  6
CONTINUOUS
 62
     3
 10
185.89670642219971
 20
3.3787864469995839
 30
0.0
 11
186.13553390579909
 21
3.2569837542014279
 31
0.0
  0
LINE
  8
OUTLINE
  6
CONTINUOUS
 62
     3
 10
184.20718628279971
 20
3.910051820101216
 30
0.0
 11
184.51341716159911
 21
3.847298264699929
 31
0.0
  0
LINE
  8
OUTLINE
  6
CONTINUOUS
 62
     3
 10
183.8940952253979
 20
3.961798529100633
 30
0.0
 11
184.20718628279971
 21
3.910051820101216
 31
0.0
  0
LINE
  8
OUTLINE
  6
CONTINUOUS
 62
     3
 10
183.57544490729919
 20
4.002245370300443
 30
0.0
 11
183.8940952253979
 21
3.961798529100633
 31
0.0
  0
LINE
  8
OUTLINE
  6
CONTINUOUS
 62
     3
 10
-88.529629131600814
 20
-307.03620875450088
 30
0.0
 11
-88.603892705101316
 21
-306.86265935269972
 31
0.0
  0
LINE
  8
OUTLINE
  6
CONTINUOUS
 62
     3
 10
185.6438071449011
 20
3.491849967900635
 30
0.0
 11
185.89670642219971
 21
3.3787864469995839
 31
0.0
  0
LINE
  8
OUTLINE
  6
CONTINUOUS
 62
     3
 10
185.37783207719991
 20
3.595632457199827
 30
0.0
 11
185.6438071449011
 21
3.491849967900635
 31
0.0
  0
LINE
  8
OUTLINE
  6
CONTINUOUS
 62
     3
 10
185.09999999999849
 20
3.6897501806997748
 30
0.0
 11
185.37783207719991
 21
3.595632457199827
 31
0.0
  0
LINE
  8
OUTLINE
  6
CONTINUOUS
 62
     3
 10
184.51341716159911
 20
3.847298264699929
 30
0.0
 11
184.8114282551978
 21
3.7737367194004041
 31
0.0
  0
LINE
  8
OUTLINE
  6
CONTINUOUS
 62
     3
 10
-302.00000000020009
 20
-302.80000000019942
 30
0.0
 11
-302.00000000020009
 21
-269.99989297540009
 31
0.0
  0
LINE
  8
OUTLINE
  6
CONTINUOUS
 62
     3
 10
-302.00000000020009
 20
-35.000107024899989
 30
0.0
 11
-302.00000000020009
 21
-32.200000000000728
 31
0.0
  0
LINE
  8
OUTLINE
  6
CONTINUOUS
 62
     3
 10
-302.60000000020051
 20
-269.99897139099988
 30
0.0
 11
-302.60000000019949
 21
-257.10000000010041
 31
0.0
  0
LINE
  8
OUTLINE
  6
CONTINUOUS
 62
     3
 10
-302.60000000020051
 20
-47.900000000199732
 30
0.0
 11
-302.60000000020051
 21
-35.001028609300192
 31
0.0
  0
LINE
  8
OUTLINE
  6
CONTINUOUS
 62
     3
 10
-88.434618114000841
 20
-307.20673036580052
 30
0.0
 11
-88.529629131600814
 21
-307.03620875450088
 31
0.0
  0
LINE
  8
OUTLINE
  6
CONTINUOUS
 62
     3
 10
184.8114282551978
 20
3.7737367194004041
 30
0.0
 11
185.09999999999849
 21
3.6897501806997748
 31
0.0
  0
LINE
  8
OUTLINE
  6
CONTINUOUS
 62
     3
 10
-387.00000000009999
 20
-247.4000000001997
 30
0.0
 11
-387.00000000009999
 21
-57.600000000100401
 31
0.0
  0
LINE
  8
OUTLINE
  6
CONTINUOUS
 62
     3
 10
-88.31939766270078
 20
-307.37351565620082
 30
0.0
 11
-88.434618114000841
 21
-307.20673036580052
 31
0.0
  0
LINE
  8
OUTLINE
  6
CONTINUOUS
 62
     3
 10
-88.184332893899409
 20
-307.5358241306003
 30
0.0
 11
-88.31939766270078
 21
-307.37351565620082
 31
0.0
  0
LINE
  8
OUTLINE
  6
CONTINUOUS
 62
     3
 10
-88.030127018999323
 20
-307.69299156710002
 30
0.0
 11
-88.184332893899409
 21
-307.5358241306003
 31
0.0
  0
LINE
  8
OUTLINE
  6
CONTINUOUS
 62
     3
 10
-87.857319494700292
 20
-307.84430976170103
 30
0.0
 11
-88.030127018999323
 21
-307.69299156710002
 31
0.0
  0
LINE
  8
OUTLINE
  6
CONTINUOUS
 62
     3
 10
-87.666766701600864
 20
-307.98917016589888
 30
0.0
 11
-87.857319494700292
 21
-307.84430976170103
 31
0.0
  0
LINE
  8
OUTLINE
  6
CONTINUOUS
 62
     3
 10
-87.459173206501887
 20
-308.12690898440002
 30
0.0
 11
-87.666766701600864
 21
-307.98917016589888
 31
0.0
  0
LINE
  8
OUTLINE
  6
CONTINUOUS
 62
     3
 10
-87.235533906001365
 20
-308.25698375449969
 30
0.0
 11
-87.459173206501887
 21
-308.12690898440002
 31
0.0
  0
LINE
  8
OUTLINE
  6
CONTINUOUS
 62
     3
 10
-86.996706422400152
 20
-308.37878644730063
 30
0.0
 11
-87.235533906001365
 21
-308.25698375449969
 31
0.0
  0
LINE
  8
OUTLINE
  6
CONTINUOUS
 62
     3
 10
-86.743807145099694
 20
-308.49184996819992
 30
0.0
 11
-86.996706422400152
 21
-308.37878644730063
 31
0.0
  0
LINE
  8
OUTLINE
  6
CONTINUOUS
 62
     3
 10
-86.477832077402113
 20
-308.59563245749911
 30
0.0
 11
-86.743807145099694
 21
-308.49184996819992
 31
0.0
  0
LINE
  8
OUTLINE
  6
CONTINUOUS
 62
     3
 10
-86.200000000200802
 20
-308.68975018069892
 30
0.0
 11
-86.477832077402113
 21
-308.59563245749911
 31
0.0
  0
LINE
  8
OUTLINE
  6
CONTINUOUS
 62
     3
 10
-85.911428255401901
 20
-308.77373671970048
 30
0.0
 11
-86.200000000200802
 21
-308.68975018069892
 31
0.0
  0
ARC
  8
OUTLINE
  6
CONTINUOUS
 62
     3
 10
299.99999999979718
 20
-303.80000000000018
 30
0.0
 40
1.2
 50
270.0
 51
0.0
  0
ARC
  8
OUTLINE
  6
CONTINUOUS
 62
     3
 10
385.89999999989959
 20
-247.4000000001997
 30
0.0
 40
1.1000000001000001
 50
270.0
 51
0.0
  0
ARC
  8
OUTLINE
  6
CONTINUOUS
 62
     3
 10
302.39999999979852
 20
-257.10000000010041
 30
0.0
 40
0.6000000000000001
 50
90.0
 51
131.99774546897839
  0
ARC
  8
OUTLINE
  6
CONTINUOUS
 62
     3
 10
299.99999999979718
 20
-2.000000000100044
 30
0.0
 40
1.2
 50
0.0
 51
90.0
  0
ARC
  8
OUTLINE
  6
CONTINUOUS
 62
     3
 10
385.89999999989959
 20
-57.600000000100401
 30
0.0
 40
1.1000000001000001
 50
0.0
 51
90.0
  0
ARC
  8
OUTLINE
  6
CONTINUOUS
 62
     3
 10
302.39999999979852
 20
-47.900000000199732
 30
0.0
 40
0.6000000000000001
 50
228.00225453102161
 51
270.0
  0
ARC
  8
OUTLINE
  6
CONTINUOUS
 62
     3
 10
-300.80000000019942
 20
-302.80000000019942
 30
0.0
 40
1.2
 50
180.0
 51
270.0
  0
ARC
  8
OUTLINE
  6
CONTINUOUS
 62
     3
 10
-303.20000000020082
 20
-257.10000000010041
 30
0.0
 40
0.6000000000000001
 50
0.0
 51
90.0
  0
ARC
  8
OUTLINE
  6
CONTINUOUS
 62
     3
 10
-159.0
 20
-1.1999999999989091
 30
0.0
 40
1.2
 50
90.0
 51
180.0
  0
ARC
  8
OUTLINE
  6
CONTINUOUS
 62
     3
 10
-300.80000000019942
 20
-32.200000000000728
 30
0.0
 40
1.2
 50
90.0
 51
180.0
  0
ARC
  8
OUTLINE
  6
CONTINUOUS
 62
     3
 10
-303.20000000020082
 20
-47.900000000199732
 30
0.0
 40
0.6000000000000001
 50
270.0
 51
0.0
  0
ARC
  8
OUTLINE
  6
CONTINUOUS
 62
     3
 10
-385.89999999999958
 20
-247.4000000001997
 30
0.0
 40
1.1000000001000001
 50
180.0
 51
270.0
  0
ARC
  8
OUTLINE
  6
CONTINUOUS
 62
     3
 10
-385.89999999999958
 20
-57.600000000100401
 30
0.0
 40
1.1000000001000001
 50
90.0
 51
180.0
  0
POINT
  8
ARRANGE
  6
CONTINUOUS
 62
     1
 10
0.0
 20
0.0
 30
0.0
 50
180.0
  0
CIRCLE
  8
ARRANGE
  6
CONTINUOUS
 62
     1
 10
0.0
 20
0.0
 30
0.0
 40
40.0
  0
TEXT
  8
ETC
  6
CONTINUOUS
 62
    61
 10
443.52428690558997
 20
366.20938093992652
 30
0.0
 40
64.0
  1
BFS-80SSUA2_4
 41
0.9
  0
TEXT
  8
ETC
  6
CONTINUOUS
 62
    61
 10
439.33829290559061
 20
248.25407092509519
 30
0.0
 40
64.0
  1
産業扇
 41
0.9
  0
TEXT
  8
ETC
  6
CONTINUOUS
 62
    61
 10
490.03969115414571
 20
140.10529803887039
 30
0.0
 40
40.0
  1
BFS-80SSUA2
 41
0.9
  0
TEXT
  8
NOTE
  6
CONTINUOUS
 62
     4
 10
427.13366349780978
 20
-436.80307297160482
 30
0.0
 40
64.0
  1
%%uAH 4
 41
0.9
  0
LINE
  8
NOTE
  6
CONTINUOUS
 62
     4
 10
427.04366349780992
 20
-449.60307297160477
 30
0.0
 11
641.07652064066701
 21
-449.60307297160477
 31
0.0
  0
LINE
  8
NOTE
  6
CONTINUOUS
 62
     4
 10
290.17974855763282
 20
-175.53833316355241
 30
0.0
 11
284.5
 21
-142.90000000019879
 31
0.0
  0
LINE
  8
NOTE
  6
CONTINUOUS
 62
     4
 10
284.5
 20
-142.90000000019879
 30
0.0
 11
305.73801143484752
 21
-168.3257193735673
 31
0.0
  0
LINE
  8
NOTE
  6
CONTINUOUS
 62
     4
 10
284.5
 20
-142.90000000019879
 30
0.0
 11
311.41775999248023
 21
-200.96405253692089
 31
0.0
  0
LINE
  8
NOTE
  6
CONTINUOUS
 62
     4
 10
311.41775999248023
 20
-200.964052536921
 30
0.0
 11
426.6836634978099
 21
-449.60307297160477
 31
0.0
  0
LINE
  8
NOTE
  6
CONTINUOUS
 62
     4
 10
426.6836634978099
 20
-449.60307297160477
 30
0.0
 11
427.04366349780992
 21
-449.60307297160477
 31
0.0
  0
ENDSEC
  0
EOF
