  0
SECTION
  2
HEADER
  9
$ACADVER
  1
AC1009
  9
$DWGCODEPAGE
  3
dos932
  9
$INSBASE
 10
0.0
 20
0.0
 30
0.0
  9
$EXTMIN
 10
-517.99162149894073
 20
-814.22423188833636
 30
-0.0000000349181948
  9
$EXTMAX
 10
1062.2680780154969
 20
360.80933392607773
 30
0.0000000814935746
  9
$LIMMIN
 10
-2970.0
 20
-2100.0
  9
$LIMMAX
 10
2970.0
 20
2100.0
  9
$ORTHOMODE
 70
     1
  9
$REGENMODE
 70
     1
  9
$FILLMODE
 70
     1
  9
$QTEXTMODE
 70
     0
  9
$MIRRTEXT
 70
     0
  9
$LTSCALE
 40
20.0
  9
$ATTMODE
 70
     1
  9
$TEXTSIZE
 40
64.0
  9
$TRACEWID
 40
0.05
  9
$TEXTSTYLE
  7
STANDARD
  9
$CLAYER
  8
SIZE
  9
$CELTYPE
  6
CONTINUOUS
  9
$CECOLOR
 62
     7
  9
$DIMSCALE
 40
1.0
  9
$DIMASZ
 40
12.0
  9
$DIMEXO
 40
20.0
  9
$DIMDLI
 40
200.0
  9
$DIMRND
 40
0.0
  9
$DIMDLE
 40
0.0
  9
$DIMEXE
 40
20.0
  9
$DIMTP
 40
0.0
  9
$DIMTM
 40
0.0
  9
$DIMTXT
 40
64.0
  9
$DIMCEN
 40
0.09
  9
$DIMTSZ
 40
0.0
  9
$DIMTOL
 70
     0
  9
$DIMLIM
 70
     0
  9
$DIMTIH
 70
     0
  9
$DIMTOH
 70
     0
  9
$DIMSE1
 70
     0
  9
$DIMSE2
 70
     0
  9
$DIMTAD
 70
     1
  9
$DIMZIN
 70
     8
  9
$DIMBLK
  1

  9
$DIMASO
 70
     1
  9
$DIMSHO
 70
     0
  9
$DIMPOST
  1

  9
$DIMAPOST
  1

  9
$DIMALT
 70
     0
  9
$DIMALTD
 70
     2
  9
$DIMALTF
 40
25.399999999999999
  9
$DIMLFAC
 40
1.0
  9
$DIMTOFL
 70
     1
  9
$DIMTVP
 40
0.0
  9
$DIMTIX
 70
     1
  9
$DIMSOXD
 70
     0
  9
$DIMSAH
 70
     0
  9
$DIMBLK1
  1

  9
$DIMBLK2
  1

  9
$DIMSTYLE
  2
STANDARD
  9
$DIMCLRD
 70
     7
  9
$DIMCLRE
 70
     7
  9
$DIMCLRT
 70
     7
  9
$DIMTFAC
 40
1.0
  9
$DIMGAP
 40
25.0
  9
$LUNITS
 70
     2
  9
$LUPREC
 70
     4
  9
$SKETCHINC
 40
0.1
  9
$FILLETRAD
 40
3.0
  9
$AUNITS
 70
     1
  9
$AUPREC
 70
     3
  9
$MENU
  1
ACAD
  9
$ELEVATION
 40
0.0
  9
$PELEVATION
 40
0.0
  9
$THICKNESS
 40
0.0
  9
$LIMCHECK
 70
     0
  9
$CHAMFERA
 40
0.0
  9
$CHAMFERB
 40
0.0
  9
$SKPOLY
 70
     0
  9
$TDCREATE
 40
2453019.62301037
  9
$TDUPDATE
 40
2459268.674324085
  9
$TDINDWG
 40
1.7212544097
  9
$TDUSRTIMER
 40
1.7212544097
  9
$USRTIMER
 70
     1
  9
$ANGBASE
 50
0.0
  9
$ANGDIR
 70
     0
  9
$PDMODE
 70
     3
  9
$PDSIZE
 40
-2.0
  9
$PLINEWID
 40
0.0
  9
$SPLFRAME
 70
     0
  9
$SPLINETYPE
 70
     6
  9
$SPLINESEGS
 70
     8
  9
$SURFTAB1
 70
     6
  9
$SURFTAB2
 70
     6
  9
$SURFTYPE
 70
     6
  9
$SURFU
 70
     6
  9
$SURFV
 70
     6
  9
$UCSNAME
  2

  9
$UCSORG
 10
0.0
 20
0.0
 30
0.0
  9
$UCSXDIR
 10
1.0
 20
0.0
 30
0.0
  9
$UCSYDIR
 10
0.0
 20
1.0
 30
0.0
  9
$PUCSNAME
  2

  9
$PUCSORG
 10
0.0
 20
0.0
 30
0.0
  9
$PUCSXDIR
 10
1.0
 20
0.0
 30
0.0
  9
$PUCSYDIR
 10
0.0
 20
1.0
 30
0.0
  9
$USERI1
 70
     0
  9
$USERI2
 70
     0
  9
$USERI3
 70
     0
  9
$USERI4
 70
     0
  9
$USERI5
 70
     0
  9
$USERR1
 40
20.0
  9
$USERR2
 40
0.0
  9
$USERR3
 40
0.0
  9
$USERR4
 40
0.0
  9
$USERR5
 40
0.0
  9
$WORLDVIEW
 70
     1
  9
$SHADEDGE
 70
     3
  9
$SHADEDIF
 70
    70
  9
$TILEMODE
 70
     1
  9
$MAXACTVP
 70
    48
  9
$PINSBASE
 10
0.0
 20
0.0
 30
0.0
  9
$PLIMCHECK
 70
     0
  9
$PEXTMIN
 10
-100000000000000000000.0
 20
-100000000000000000000.0
 30
-100000000000000000000.0
  9
$PEXTMAX
 10
100000000000000000000.0
 20
100000000000000000000.0
 30
100000000000000000000.0
  9
$PLIMMIN
 10
0.0
 20
0.0
  9
$PLIMMAX
 10
12.0
 20
9.0
  9
$UNITMODE
 70
     0
  9
$VISRETAIN
 70
     0
  9
$PLINEGEN
 70
     0
  9
$PSLTSCALE
 70
     0
  9
$TREEDEPTH
 70
  3020
  9
$ATTDIA
 70
     0
  9
$ATTREQ
 70
     1
  9
$BLIPMODE
 70
     1
  9
$COORDS
 70
     1
  9
$DRAGMODE
 70
     2
  9
$OSMODE
 70
     0
  9
$HANDLING
 70
     0
  9
$HANDSEED
  5
F537
  0
ENDSEC
  0
SECTION
  2
TABLES
  0
TABLE
  2
LTYPE
 70
     2
  0
LTYPE
  2
CONTINUOUS
 70
     0
  3
実線
 72
    65
 73
     0
 40
0.0
  0
LTYPE
  2
DASHDOT
 70
     0
  3
____ _ ____ _ ____ _ ____ _ ____ _ ____ _ ____
 72
    65
 73
     4
 40
5.5
 49
4.0
 49
-0.6
 49
0.3
 49
-0.6
  0
ENDTAB
  0
TABLE
  2
LAYER
 70
    12
  0
LAYER
  2
0
 70
     0
 62
     7
  6
CONTINUOUS
  0
LAYER
  2
BASIS
 70
     0
 62
     6
  6
DASHDOT
  0
LAYER
  2
OUTLINE
 70
     0
 62
     3
  6
CONTINUOUS
  0
LAYER
  2
DETAIL
 70
     0
 62
     5
  6
CONTINUOUS
  0
LAYER
  2
SIZE
 70
     0
 62
    30
  6
CONTINUOUS
  0
LAYER
  2
ARRANGE
 70
     0
 62
     1
  6
CONTINUOUS
  0
LAYER
  2
DEFPOINTS
 70
     0
 62
     7
  6
CONTINUOUS
  0
LAYER
  2
ETC
 70
     0
 62
    61
  6
CONTINUOUS
  0
LAYER
  2
FIX
 70
     0
 62
    11
  6
CONTINUOUS
  0
LAYER
  2
NOTE
 70
     0
 62
     4
  6
CONTINUOUS
  0
LAYER
  2
SERVICESPACE
 70
    64
 62
     2
  6
DASHDOT
  0
LAYER
  2
SYMBOLLINE
 70
    64
 62
    15
  6
CONTINUOUS
  0
ENDTAB
  0
TABLE
  2
STYLE
 70
     1
  0
STYLE
  2
STANDARD
 70
     0
 40
64.0
 41
0.9
 50
0.0
 71
     0
 42
64.0
  3
SIMPLEX.shx
  4
BIGFONT.shx
  0
ENDTAB
  0
TABLE
  2
APPID
 70
    19
  0
APPID
  2
ACAD
 70
     0
  0
APPID
  2
AUTOCAD_POSTSCRIPT_FIGURE
 70
     0
  0
APPID
  2
ACAD_EXEMPT_FROM_CAD_STANDARDS
 70
     0
  0
APPID
  2
ACAD_PSEXT
 70
     0
  0
APPID
  2
ACAUTHENVIRON
 70
     0
  0
APPID
  2
GENIUS_GENOENT_13
 70
     0
  0
APPID
  2
GENIUS_GENCFG_13
 70
     0
  0
APPID
  2
GENIUS_GENCFG0_13
 70
     0
  0
APPID
  2
GENIUS_GENCFG1_13
 70
     0
  0
APPID
  2
GENIUS_GENCFG2_13
 70
     0
  0
APPID
  2
GENIUS_GENCFG3_13
 70
     0
  0
APPID
  2
GENIUS_GENCFG4_13
 70
     0
  0
APPID
  2
GENIUS_GEVCFG0_13
 70
     0
  0
APPID
  2
CONTENTBLOCKICON
 70
     0
  0
APPID
  2
CONTENTBLOCKDESCRIPTION
 70
     0
  0
APPID
  2
ACAD_NAV_VCDISPLAY
 70
     0
  0
APPID
  2
ACAD_MLEADERVER
 70
     0
  0
APPID
  2
ACDBDYNAMICBLOCKTRUENAME
 70
     0
  0
APPID
  2
ACDBDYNAMICBLOCKGUID
 70
     0
  0
ENDTAB
  0
TABLE
  2
DIMSTYLE
 70
     1
  0
DIMSTYLE
  2
STANDARD
 70
     0
  3

  4

  5
_ORIGIN
  6

  7

 40
1.0
 41
12.0
 42
20.0
 43
200.0
 44
20.0
 45
0.0
 46
0.0
 47
0.0
 48
0.0
140
64.0
141
0.09
142
0.0
143
25.399999999999999
144
1.0
145
0.0
146
1.0
147
25.0
 71
     0
 72
     0
 73
     0
 74
     0
 75
     0
 76
     0
 77
     1
 78
     8
170
     0
171
     2
172
     1
173
     0
174
     1
175
     0
176
     7
177
     7
178
     7
  0
ENDTAB
  0
TABLE
  2
VIEW
 70
     1
  0
VIEW
  2
ALL
 70
     0
 40
4282.6198079999986
 10
0.0
 20
41.309904000000003
 41
5940.0
 11
0.0
 21
0.0
 31
1.0
 12
0.0
 22
0.0
 32
0.0
 42
50.0
 43
0.0
 44
0.0
 50
0.0
 71
     0
  0
ENDTAB
  0
TABLE
  2
UCS
 70
     0
  0
ENDTAB
  0
TABLE
  2
VPORT
 70
     1
  0
VPORT
  2
*ACTIVE
 70
     0
 10
0.0
 20
0.0
 11
1.0
 21
1.0
 12
272.13822825827828
 22
-218.76845080482281
 13
0.0
 23
0.0
 14
1.0
 24
1.0
 15
0.0
 25
0.0
 16
0.0
 26
0.0
 36
1.0
 17
0.0
 27
0.0
 37
0.0
 40
991.26610496469493
 41
1.946595460614152
 42
50.0
 43
0.0
 44
0.0
 50
0.0
 51
0.0
 71
     0
 72
  1000
 73
     1
 74
     3
 75
     0
 76
     0
 77
     0
 78
     0
  0
ENDTAB
  0
ENDSEC
  0
SECTION
  2
BLOCKS
  0
BLOCK
  8
0
  2
_ORIGIN
 70
     0
 10
0.0
 20
0.0
 30
0.0
  3
_ORIGIN
  1
_ORIGIN
  0
CIRCLE
  8
SIZE
  6
CONTINUOUS
 62
    30
 10
0.0
 20
0.0
 30
0.0
 40
0.5
  0
LINE
  8
SIZE
  6
CONTINUOUS
 62
    30
 10
0.0
 20
0.0
 30
0.0
 11
-1.0
 21
0.0
 31
0.0
  0
ENDBLK
  8
0
  0
ENDSEC
  0
SECTION
  2
ENTITIES
  0
CIRCLE
  8
ARRANGE
  6
CONTINUOUS
 62
     1
 10
0.0
 20
0.0
 30
0.0
 40
40.0
  0
POINT
  8
ARRANGE
  6
CONTINUOUS
 62
     1
 10
0.0
 20
0.0
 30
0.0
  0
LINE
  8
BASIS
  6
DASHDOT
 62
     6
 10
260.37344200000013
 20
0.0
 30
0.0
 11
-256.5831619999999
 21
0.0
 31
0.0
  0
LINE
  8
BASIS
  6
DASHDOT
 62
     6
 10
0.0
 20
-365.416423225156
 30
0.0
 11
0.0
 21
88.674373899447914
 31
0.0
  0
LINE
  8
DETAIL
  6
CONTINUOUS
 62
     5
 10
180.0
 20
-309.0
 30
0.0
 11
180.0
 21
-187.0
 31
0.0
  0
LINE
  8
DETAIL
  6
CONTINUOUS
 62
     5
 10
-180.0
 20
-309.0
 30
0.0
 11
-180.0
 21
-187.0
 31
0.0
  0
LINE
  8
DETAIL
  6
CONTINUOUS
 62
     5
 10
186.5
 20
0.0
 30
0.0
 11
-186.5
 21
0.0
 31
0.0
  0
LINE
  8
DETAIL
  6
CONTINUOUS
 62
     5
 10
151.090915
 20
-187.0
 30
0.0
 11
218.780316
 21
-187.0
 31
0.0
  0
LINE
  8
NOTE
  6
CONTINUOUS
 62
     4
 10
224.5
 20
-122.0
 30
0.0
 11
224.5
 21
-162.0
 31
0.0
  0
LINE
  8
NOTE
  6
CONTINUOUS
 62
     4
 10
204.5
 20
-142.0
 30
0.0
 11
244.5
 21
-142.0
 31
0.0
  0
LINE
  8
DETAIL
  6
CONTINUOUS
 62
     5
 10
244.5
 20
-162.9856090000001
 30
0.0
 11
244.5
 21
-142.0
 31
0.0
  0
LINE
  8
DETAIL
  6
CONTINUOUS
 62
     5
 10
244.5
 20
-142.0
 30
0.0
 11
164.357947
 21
-142.0
 31
0.0
  0
CIRCLE
  8
FIX
  6
CONTINUOUS
 62
    11
 10
224.5
 20
-142.0
 30
0.0
 40
5.5
  0
ARC
  8
DETAIL
  6
CONTINUOUS
 62
     5
 10
164.357947
 20
-147.0
 30
0.0
 40
5.0
 50
90.0
 51
162.12435200000331
  0
LINE
  8
BASIS
  6
DASHDOT
 62
     6
 10
260.16888699999998
 20
-153.0
 30
0.0
 11
-256.78771699999987
 21
-153.0
 31
0.0
  0
LINE
  8
DETAIL
  6
CONTINUOUS
 62
     5
 10
244.5
 20
-162.9856090000001
 30
0.0
 11
218.780316
 21
-187.0
 31
0.0
  0
ARC
  8
DETAIL
  6
CONTINUOUS
 62
     5
 10
7.5500010000000657
 20
-119.98051
 30
0.0
 40
154.170254
 50
335.96304800000001
 51
350.48519200000112
  0
ARC
  8
DETAIL
  6
CONTINUOUS
 62
     5
 10
151.090915
 20
-184.0
 30
0.0
 40
3.0
 50
155.96304799999999
 51
270.0
  0
POINT
  8
DEFPOINTS
  6
CONTINUOUS
 62
    30
 10
180.0
 20
0.0
 30
0.0
 50
180.0
  0
POINT
  8
DEFPOINTS
  6
CONTINUOUS
 62
    30
 10
244.5
 20
-142.0
 30
0.0
 50
180.0
  0
POINT
  8
DEFPOINTS
  6
CONTINUOUS
 62
    30
 10
-180.0
 20
0.0
 30
0.0
 50
180.0
  0
POINT
  8
DEFPOINTS
  6
CONTINUOUS
 62
    30
 10
-256.78771699999987
 20
-153.0
 30
0.0
 50
180.0
  0
POINT
  8
DEFPOINTS
  6
CONTINUOUS
 62
    30
 10
186.5
 20
0.0
 30
0.0
 50
180.0
  0
POINT
  8
DEFPOINTS
  6
CONTINUOUS
 62
    30
 10
-186.5
 20
0.0
 30
0.0
 50
180.0
  0
POINT
  8
DEFPOINTS
  6
CONTINUOUS
 62
    30
 10
-244.5
 20
-162.9856090000001
 30
0.0
 50
180.0
  0
POINT
  8
DEFPOINTS
  6
CONTINUOUS
 62
    30
 10
244.5
 20
-162.9856090000001
 30
0.0
 50
180.0
  0
POINT
  8
DEFPOINTS
  6
CONTINUOUS
 62
    30
 10
224.5
 20
-162.0
 30
0.0
 50
180.0
  0
POINT
  8
DEFPOINTS
  6
CONTINUOUS
 62
    30
 10
-224.5
 20
-162.0
 30
0.0
 50
180.0
  0
LINE
  8
OUTLINE
  6
CONTINUOUS
 62
     3
 10
186.5
 20
0.0
 30
0.0
 11
-186.5
 21
0.0
 31
0.0
  0
LINE
  8
DETAIL
  6
CONTINUOUS
 62
     5
 10
180.0
 20
-142.0
 30
0.0
 11
180.0
 21
0.0
 31
0.0
  0
LINE
  8
DETAIL
  6
CONTINUOUS
 62
     5
 10
-180.0
 20
-142.0
 30
0.0
 11
-180.0
 21
0.0
 31
0.0
  0
LINE
  8
DETAIL
  6
CONTINUOUS
 62
     5
 10
-244.5
 20
-142.0
 30
0.0
 11
-164.357947
 21
-142.0
 31
0.0
  0
LINE
  8
DETAIL
  6
CONTINUOUS
 62
     5
 10
-151.090915
 20
-187.0
 30
0.0
 11
-218.78031599999991
 21
-187.0
 31
0.0
  0
LINE
  8
NOTE
  6
CONTINUOUS
 62
     4
 10
-224.5
 20
-122.0
 30
0.0
 11
-224.5
 21
-162.0
 31
0.0
  0
LINE
  8
NOTE
  6
CONTINUOUS
 62
     4
 10
-204.5
 20
-142.0
 30
0.0
 11
-244.5
 21
-142.0
 31
0.0
  0
LINE
  8
DETAIL
  6
CONTINUOUS
 62
     5
 10
-244.5
 20
-162.9856090000001
 30
0.0
 11
-218.78031599999991
 21
-187.0
 31
0.0
  0
LINE
  8
DETAIL
  6
CONTINUOUS
 62
     5
 10
-244.5
 20
-162.9856090000001
 30
0.0
 11
-244.5
 21
-142.0
 31
0.0
  0
CIRCLE
  8
FIX
  6
CONTINUOUS
 62
    11
 10
-224.5
 20
-142.0
 30
0.0
 40
5.5
  0
ARC
  8
DETAIL
  6
CONTINUOUS
 62
     5
 10
-151.090915
 20
-184.0
 30
0.0
 40
3.0
 50
270.0
 51
24.036952000000039
  0
ARC
  8
DETAIL
  6
CONTINUOUS
 62
     5
 10
-7.5500010000000657
 20
-119.98051
 30
0.0
 40
154.170254
 50
189.51480799999891
 51
204.03695200000001
  0
ARC
  8
DETAIL
  6
CONTINUOUS
 62
     5
 10
-164.357947
 20
-147.0
 30
0.0
 40
5.0
 50
17.875647999996751
 51
90.0
  0
CIRCLE
  8
DETAIL
  6
CONTINUOUS
 62
     5
 10
0.0000000000005684
 20
-153.00000000000011
 30
0.0
 40
104.0
  0
CIRCLE
  8
DETAIL
  6
CONTINUOUS
 62
     5
 10
0.0000000000005684
 20
-153.00000000000011
 30
0.0
 40
96.0
  0
POINT
  8
DEFPOINTS
  6
CONTINUOUS
 62
    30
 10
-103.9999999999994
 20
-151.58211292786021
 30
0.0
 50
180.0
  0
POINT
  8
DEFPOINTS
  6
CONTINUOUS
 62
    30
 10
104.0000000000006
 20
-151.58211292786021
 30
0.0
 50
180.0
  0
POINT
  8
DEFPOINTS
  6
CONTINUOUS
 62
    30
 10
-95.999999999999432
 20
-151.58211292786021
 30
0.0
 50
180.0
  0
POINT
  8
DEFPOINTS
  6
CONTINUOUS
 62
    30
 10
96.000000000000568
 20
-151.58211292786021
 30
0.0
 50
180.0
  0
LINE
  8
DETAIL
  6
CONTINUOUS
 62
     5
 10
186.5
 20
-142.0
 30
0.0
 11
186.5
 21
0.0
 31
0.0
  0
LINE
  8
DETAIL
  6
CONTINUOUS
 62
     5
 10
186.5
 20
-309.0
 30
0.0
 11
186.5
 21
-187.0
 31
0.0
  0
LINE
  8
DETAIL
  6
CONTINUOUS
 62
     5
 10
-186.5
 20
-142.0
 30
0.0
 11
-186.5
 21
0.0
 31
0.0
  0
LINE
  8
DETAIL
  6
CONTINUOUS
 62
     5
 10
-186.5
 20
-309.0
 30
0.0
 11
-186.5
 21
-187.0
 31
0.0
  0
LINE
  8
OUTLINE
  6
CONTINUOUS
 62
     3
 10
186.5
 20
-309.0
 30
0.0
 11
186.5
 21
0.0
 31
0.0
  0
LINE
  8
OUTLINE
  6
CONTINUOUS
 62
     3
 10
-186.5
 20
-309.0
 30
0.0
 11
-186.5
 21
0.0
 31
0.0
  0
TEXT
  8
ETC
  6
CONTINUOUS
 62
    61
 10
444.96087666596372
 20
296.72468181432077
 30
0.0
 40
64.0
  1
BFS-80SYA2_3
 41
0.9
  0
TEXT
  8
ETC
  6
CONTINUOUS
 62
    61
 10
442.752465665964
 20
196.08363581432059
 30
0.0
 40
64.0
  1
産業扇
 41
0.9
  0
TEXT
  8
ETC
  6
CONTINUOUS
 62
    61
 10
582.99674082320212
 20
110.53967254982351
 30
0.0
 40
50.0
  1
BFS-80SYA2
 41
0.9
  0
LINE
  8
SIZE
  6
CONTINUOUS
 62
    30
 10
186.5
 20
20.0
 30
0.0
 11
186.5
 21
151.8239433855374
 31
0.0
  0
LINE
  8
SIZE
  6
CONTINUOUS
 62
    30
 10
-186.5
 20
20.0
 30
0.0
 11
-186.5
 21
151.8239433855374
 31
0.0
  0
LINE
  8
SIZE
  6
CONTINUOUS
 62
    30
 10
174.5
 20
131.8239433855374
 30
0.0
 11
-174.5
 21
131.8239433855374
 31
0.0
  0
CIRCLE
  8
SIZE
  6
CONTINUOUS
 62
    30
 10
186.5
 20
131.8239433855374
 30
0.0
 40
6.0
  0
LINE
  8
SIZE
  6
CONTINUOUS
 62
    30
 10
186.5
 20
131.8239433855374
 30
0.0
 11
174.5
 21
131.8239433855374
 31
0.0
  0
CIRCLE
  8
SIZE
  6
CONTINUOUS
 62
    30
 10
-186.5
 20
131.8239433855374
 30
0.0
 40
6.0
  0
LINE
  8
SIZE
  6
CONTINUOUS
 62
    30
 10
-186.5
 20
131.8239433855374
 30
0.0
 11
-174.5
 21
131.8239433855374
 31
0.0
  0
TEXT
  8
SIZE
  6
CONTINUOUS
 62
    30
 10
-82.616668853822276
 20
156.8239433855374
 30
0.0
 40
64.0
  1
373
 41
0.9
 72
     1
 11
-8.5595259966794401
 21
156.8239433855374
 31
0.0
  0
POINT
  8
DEFPOINTS
  6
CONTINUOUS
 62
    30
 10
186.5
 20
0.0
 30
0.0
  0
POINT
  8
DEFPOINTS
  6
CONTINUOUS
 62
    30
 10
-186.5
 20
0.0
 30
0.0
  0
POINT
  8
DEFPOINTS
  6
CONTINUOUS
 62
    30
 10
-186.5
 20
131.8239433855374
 30
0.0
  0
LINE
  8
SIZE
  6
CONTINUOUS
 62
    30
 10
-517.6237682024032
 20
-54.263549924213862
 30
0.0
 11
-106.0872329907511
 21
-132.76391845326981
 31
0.0
  0
LINE
  8
SIZE
  6
CONTINUOUS
 62
    30
 10
106.0872329907527
 20
-173.2360815467305
 30
0.0
 11
117.8747033230585
 21
-175.48453505192279
 31
0.0
  0
TEXT
  8
SIZE
  6
CONTINUOUS
 62
    30
 10
-502.39251065972769
 20
-31.718150606317881
 30
0.0
 40
64.0
  1
φ192
 50
349.20059432196422
 41
0.9
 72
     1
 11
-395.42963701571892
 21
-52.121260127719673
 31
0.0
  0
LINE
  8
SIZE
  6
CONTINUOUS
 62
    30
 10
94.299762658446923
 20
-170.98762804153819
 30
0.0
 11
-94.299762658445303
 21
-135.0123719584621
 31
0.0
  0
CIRCLE
  8
SIZE
  6
CONTINUOUS
 62
    30
 10
94.299762658446923
 20
-170.98762804153819
 30
0.0
 40
6.0
  0
LINE
  8
SIZE
  6
CONTINUOUS
 62
    30
 10
94.299762658446923
 20
-170.98762804153819
 30
0.0
 11
106.0872329907527
 21
-173.23608154673039
 31
0.0
  0
CIRCLE
  8
SIZE
  6
CONTINUOUS
 62
    30
 10
-94.299762658445303
 20
-135.0123719584621
 30
0.0
 40
6.0
  0
LINE
  8
SIZE
  6
CONTINUOUS
 62
    30
 10
-94.299762658445303
 20
-135.0123719584621
 30
0.0
 11
-106.0872329907511
 21
-132.76391845326981
 31
0.0
  0
POINT
  8
DEFPOINTS
  6
CONTINUOUS
 62
    30
 10
-94.299762658445303
 20
-135.0123719584621
 30
0.0
  0
POINT
  8
DEFPOINTS
  6
CONTINUOUS
 62
    30
 10
94.299762658446923
 20
-170.98762804153819
 30
0.0
  0
LINE
  8
SIZE
  6
CONTINUOUS
 62
    30
 10
-490.4176867251017
 20
-307.52375510140149
 30
0.0
 11
-110.63791542281891
 21
-187.86045999256231
 31
0.0
  0
LINE
  8
SIZE
  6
CONTINUOUS
 62
    30
 10
110.6379154228202
 20
-118.139540007438
 30
0.0
 11
122.0832170182843
 21
-114.5332855254488
 31
0.0
  0
TEXT
  8
SIZE
  6
CONTINUOUS
 62
    30
 10
-487.68989703978059
 20
-280.45263764815712
 30
0.0
 40
64.0
  1
φ208
 50
17.48891069474643
 41
0.9
 72
     1
 11
-378.59982240415712
 21
-246.07988064268301
 31
0.0
  0
LINE
  8
SIZE
  6
CONTINUOUS
 62
    30
 10
99.192613827356126
 20
-121.7457944894272
 30
0.0
 11
-99.192613827354762
 21
-184.25420551057309
 31
0.0
  0
CIRCLE
  8
SIZE
  6
CONTINUOUS
 62
    30
 10
99.192613827356126
 20
-121.7457944894272
 30
0.0
 40
6.0
  0
LINE
  8
SIZE
  6
CONTINUOUS
 62
    30
 10
99.192613827356126
 20
-121.7457944894272
 30
0.0
 11
110.6379154228202
 21
-118.139540007438
 31
0.0
  0
CIRCLE
  8
SIZE
  6
CONTINUOUS
 62
    30
 10
-99.192613827354762
 20
-184.25420551057309
 30
0.0
 40
6.0
  0
LINE
  8
SIZE
  6
CONTINUOUS
 62
    30
 10
-99.192613827354762
 20
-184.25420551057309
 30
0.0
 11
-110.63791542281881
 21
-187.86045999256231
 31
0.0
  0
POINT
  8
DEFPOINTS
  6
CONTINUOUS
 62
    30
 10
-99.192613827354762
 20
-184.25420551057309
 30
0.0
  0
POINT
  8
DEFPOINTS
  6
CONTINUOUS
 62
    30
 10
99.192613827356126
 20
-121.7457944894272
 30
0.0
  0
LINE
  8
SIZE
  6
CONTINUOUS
 62
    30
 10
280.37344200000013
 20
0.0
 30
0.0
 11
356.71131502422668
 21
0.0
 31
0.0
  0
LINE
  8
SIZE
  6
CONTINUOUS
 62
    30
 10
280.16888700000032
 20
-153.00000000000011
 30
0.0
 11
356.71131502422691
 21
-153.0
 31
0.0
  0
LINE
  8
SIZE
  6
CONTINUOUS
 62
    30
 10
336.71131502422679
 20
-141.0
 30
0.0
 11
336.71131502422668
 21
-12.0
 31
0.0
  0
LINE
  8
SIZE
  6
CONTINUOUS
 62
    30
 10
336.71131502422668
 20
0.0
 30
0.0
 11
336.71131502422668
 21
199.14285714285731
 31
0.0
  0
CIRCLE
  8
SIZE
  6
CONTINUOUS
 62
    30
 10
336.71131502422679
 20
-153.0
 30
0.0
 40
6.0
  0
LINE
  8
SIZE
  6
CONTINUOUS
 62
    30
 10
336.71131502422679
 20
-153.0
 30
0.0
 11
336.71131502422679
 21
-141.0
 31
0.0
  0
CIRCLE
  8
SIZE
  6
CONTINUOUS
 62
    30
 10
336.71131502422668
 20
0.0
 30
0.0
 40
6.0
  0
LINE
  8
SIZE
  6
CONTINUOUS
 62
    30
 10
336.71131502422668
 20
0.0
 30
0.0
 11
336.71131502422668
 21
-12.0
 31
0.0
  0
TEXT
  8
SIZE
  6
CONTINUOUS
 62
    30
 10
311.71131502422668
 20
37.000000000000107
 30
0.0
 40
64.0
  1
153
 50
90.0
 41
0.9
 72
     1
 11
311.71131502422668
 21
105.5714285714287
 31
0.0
  0
POINT
  8
DEFPOINTS
  6
CONTINUOUS
 62
    30
 10
260.16888700000021
 20
-153.00000000000011
 30
0.0
  0
POINT
  8
DEFPOINTS
  6
CONTINUOUS
 62
    30
 10
336.71131502422679
 20
-153.0
 30
0.0
  0
LINE
  8
DETAIL
  6
CONTINUOUS
 62
     5
 10
189.24414728460971
 20
-362.28113144762369
 30
0.0
 11
190.28491090240939
 21
-361.32362891922372
 31
0.0
  0
LINE
  8
DETAIL
  6
CONTINUOUS
 62
     5
 10
191.26535840980921
 20
-362.55007563002363
 30
0.0
 11
181.76149914140959
 21
-365.33372975742378
 31
0.0
  0
LINE
  8
DETAIL
  6
CONTINUOUS
 62
     5
 10
197.82722469359939
 20
-336.01011089640002
 30
0.0
 11
197.7907657183996
 21
-336.10993807680012
 31
0.0
  0
LINE
  8
DETAIL
  6
CONTINUOUS
 62
     5
 10
197.7907657183996
 20
-336.10993807680012
 30
0.0
 11
197.75437903119931
 21
-336.20729263499987
 31
0.0
  0
LINE
  8
DETAIL
  6
CONTINUOUS
 62
     5
 10
197.75437903119931
 20
-336.20729263499987
 30
0.0
 11
197.71829710759991
 21
-336.30090226200002
 31
0.0
  0
LINE
  8
DETAIL
  6
CONTINUOUS
 62
     5
 10
197.71829710759991
 20
-336.30090226200002
 30
0.0
 11
197.68238838399989
 21
-336.39049651879998
 31
0.0
  0
LINE
  8
DETAIL
  6
CONTINUOUS
 62
     5
 10
197.68238838399989
 20
-336.39049651879998
 30
0.0
 11
197.64661191079901
 21
-336.47556818980001
 31
0.0
  0
LINE
  8
DETAIL
  6
CONTINUOUS
 62
     5
 10
197.64661191079901
 20
-336.47556818980001
 30
0.0
 11
197.6109266285994
 21
-336.55561318519989
 31
0.0
  0
LINE
  8
DETAIL
  6
CONTINUOUS
 62
     5
 10
197.6109266285994
 20
-336.55561318519989
 30
0.0
 11
197.57520264999951
 21
-336.63030340499989
 31
0.0
  0
LINE
  8
DETAIL
  6
CONTINUOUS
 62
     5
 10
197.57520264999951
 20
-336.63030340499989
 30
0.0
 11
197.5396659443995
 21
-336.69858882900007
 31
0.0
  0
LINE
  8
DETAIL
  6
CONTINUOUS
 62
     5
 10
197.5396659443995
 20
-336.69858882900007
 30
0.0
 11
197.50453674499931
 21
-336.75961558519998
 31
0.0
  0
LINE
  8
DETAIL
  6
CONTINUOUS
 62
     5
 10
197.50453674499931
 20
-336.75961558519998
 30
0.0
 11
197.46967922479959
 21
-336.81325880059978
 31
0.0
  0
LINE
  8
DETAIL
  6
CONTINUOUS
 62
     5
 10
197.46967922479959
 20
-336.81325880059978
 30
0.0
 11
197.43504618739919
 21
-336.85922440500008
 31
0.0
  0
LINE
  8
DETAIL
  6
CONTINUOUS
 62
     5
 10
197.43504618739919
 20
-336.85922440500008
 30
0.0
 11
197.4005902969993
 21
-336.89722355260011
 31
0.0
  0
LINE
  8
DETAIL
  6
CONTINUOUS
 62
     5
 10
197.4005902969993
 20
-336.89722355260011
 30
0.0
 11
197.36617859459969
 21
-336.92703347239978
 31
0.0
  0
LINE
  8
DETAIL
  6
CONTINUOUS
 62
     5
 10
197.36617859459969
 20
-336.92703347239978
 30
0.0
 11
197.3320202951991
 21
-336.94817754780001
 31
0.0
  0
LINE
  8
DETAIL
  6
CONTINUOUS
 62
     5
 10
197.3320202951991
 20
-336.94817754780001
 30
0.0
 11
197.29828876919959
 21
-336.96045114100002
 31
0.0
  0
LINE
  8
DETAIL
  6
CONTINUOUS
 62
     5
 10
197.29828876919959
 20
-336.96045114100002
 30
0.0
 11
197.26492727039931
 21
-336.96388676219999
 31
0.0
  0
LINE
  8
DETAIL
  6
CONTINUOUS
 62
     5
 10
197.8997847057999
 20
-335.80743168560002
 30
0.0
 11
197.82722469359939
 21
-336.01011089640002
 31
0.0
  0
LINE
  8
DETAIL
  6
CONTINUOUS
 62
     5
 10
190.28491090240939
 20
-361.32362891922372
 30
0.0
 11
191.66475042361009
 21
-342.21629103142368
 31
0.0
  0
LINE
  8
DETAIL
  6
CONTINUOUS
 62
     5
 10
191.66475042361009
 20
-342.21629103142368
 30
0.0
 11
191.7045124768095
 21
-341.66568570602402
 31
0.0
  0
LINE
  8
DETAIL
  6
CONTINUOUS
 62
     5
 10
191.88139212680949
 20
-336.7754741088238
 30
0.0
 11
191.8835238192099
 21
-336.72431349182381
 31
0.0
  0
LINE
  8
DETAIL
  6
CONTINUOUS
 62
     5
 10
191.7045124768095
 20
-341.66568570602402
 30
0.0
 11
191.88139212680949
 21
-336.7754741088238
 31
0.0
  0
LINE
  8
DETAIL
  6
CONTINUOUS
 62
     5
 10
187.99523094320941
 20
-362.22909326662392
 30
0.0
 11
189.03599456080909
 21
-336.60566643942389
 31
0.0
  0
LINE
  8
DETAIL
  6
CONTINUOUS
 62
     5
 10
192.8957785182096
 20
-342.25228600482387
 30
0.0
 11
192.34308531300971
 21
-361.15439362922382
 31
0.0
  0
LINE
  8
DETAIL
  6
CONTINUOUS
 62
     5
 10
197.89999999999961
 20
-335.78194327160008
 30
0.0
 11
197.8997847057999
 21
-335.80743168560002
 31
0.0
  0
LINE
  8
DETAIL
  6
CONTINUOUS
 62
     5
 10
199.0999999999996
 20
-322.0
 30
0.0
 11
199.0999999999996
 21
-317.0
 31
0.0
  0
LINE
  8
DETAIL
  6
CONTINUOUS
 62
     5
 10
198.5
 20
-335.7643994120001
 30
0.0
 11
198.5
 21
-317.0
 31
0.0
  0
LINE
  8
DETAIL
  6
CONTINUOUS
 62
     5
 10
197.89999999999961
 20
-335.78194327160008
 30
0.0
 11
197.89999999999961
 21
-312.0
 31
0.0
  0
LINE
  8
DETAIL
  6
CONTINUOUS
 62
     5
 10
192.89999999999961
 20
-308.40000000000009
 30
0.0
 11
192.89999999999961
 21
-311.0
 31
0.0
  0
LINE
  8
DETAIL
  6
CONTINUOUS
 62
     5
 10
166.0909902577996
 20
-314.40900974239997
 30
0.0
 11
162.90900969459929
 21
-317.59099030540011
 31
0.0
  0
LINE
  8
DETAIL
  6
CONTINUOUS
 62
     5
 10
172.00910177360981
 20
-361.56300455142372
 30
0.0
 11
173.0498653914095
 21
-335.93957772402382
 31
0.0
  0
LINE
  8
DETAIL
  6
CONTINUOUS
 62
     5
 10
170.02332479080931
 20
-340.76230288602369
 30
0.0
 11
170.18899185280981
 21
-336.14119339902379
 31
0.0
  0
LINE
  8
DETAIL
  6
CONTINUOUS
 62
     5
 10
170.18899185280981
 20
-336.14119339902379
 30
0.0
 11
170.2023361330096
 21
-335.82093067162378
 31
0.0
  0
LINE
  8
DETAIL
  6
CONTINUOUS
 62
     5
 10
168.90603151120959
 20
-341.55083141422381
 30
0.0
 11
168.3533383060097
 21
-360.45293903862381
 31
0.0
  0
LINE
  8
DETAIL
  6
CONTINUOUS
 62
     5
 10
169.8026829040094
 20
-360.47020275262372
 30
0.0
 11
170.01413399080991
 21
-341.58323207142382
 31
0.0
  0
LINE
  8
DETAIL
  6
CONTINUOUS
 62
     5
 10
170.01413399080991
 20
-341.58323207142382
 30
0.0
 11
170.02332479080931
 21
-340.76230288602369
 31
0.0
  0
LINE
  8
DETAIL
  6
CONTINUOUS
 62
     5
 10
189.24414728460971
 20
-362.28113144762369
 30
0.0
 11
170.7601854324096
 21
-361.51096637042389
 31
0.0
  0
LINE
  8
DETAIL
  6
CONTINUOUS
 62
     5
 10
169.8026829040094
 20
-360.47020275262372
 30
0.0
 11
190.28491090240939
 21
-361.32362891922372
 31
0.0
  0
LINE
  8
DETAIL
  6
CONTINUOUS
 62
     5
 10
178.67264934320909
 20
-365.24341251182398
 30
0.0
 11
181.76149914140959
 21
-365.33372975742378
 31
0.0
  0
LINE
  8
DETAIL
  6
CONTINUOUS
 62
     5
 10
191.26535840980921
 20
-362.55007563002363
 30
0.0
 11
169.34767483920979
 21
-361.90920768962388
 31
0.0
  0
LINE
  8
DETAIL
  6
CONTINUOUS
 62
     5
 10
192.34308531300971
 20
-361.15439362922382
 30
0.0
 11
168.3533383060097
 21
-360.45293903862381
 31
0.0
  0
LINE
  8
DETAIL
  6
CONTINUOUS
 62
     5
 10
170.02332479080931
 20
-340.76230288602369
 30
0.0
 11
191.7045124768095
 21
-341.66568570602402
 31
0.0
  0
LINE
  8
DETAIL
  6
CONTINUOUS
 62
     5
 10
168.90603151120959
 20
-341.55083141422381
 30
0.0
 11
192.8957785182096
 21
-342.25228600482387
 31
0.0
  0
LINE
  8
DETAIL
  6
CONTINUOUS
 62
     5
 10
197.26492727039931
 20
-336.96388676219999
 30
0.0
 11
-190.33507272960011
 21
-327.03406220080001
 31
0.0
  0
LINE
  8
DETAIL
  6
CONTINUOUS
 62
     5
 10
198.5
 20
-335.7643994120001
 30
0.0
 11
197.89999999999961
 21
-335.7643994120001
 31
0.0
  0
LINE
  8
DETAIL
  6
CONTINUOUS
 62
     5
 10
198.49830612159889
 20
-335.82813667720012
 30
0.0
 11
197.89915306079911
 21
-335.79626804460008
 31
0.0
  0
LINE
  8
DETAIL
  6
CONTINUOUS
 62
     5
 10
191.8835238192099
 20
-336.72431349182381
 30
0.0
 11
170.2023361330096
 21
-335.82093067162378
 31
0.0
  0
LINE
  8
DETAIL
  6
CONTINUOUS
 62
     5
 10
197.89999999999961
 20
-335.78194327160008
 30
0.0
 11
-190.90000000000049
 21
-325.81703099079999
 31
0.0
  0
LINE
  8
DETAIL
  6
CONTINUOUS
 62
     5
 10
-191.5
 20
-325.83457485060012
 30
0.0
 11
-190.90000000000049
 21
-325.83457485060012
 31
0.0
  0
LINE
  8
DETAIL
  6
CONTINUOUS
 62
     5
 10
-191.5
 20
-325.79948713120012
 30
0.0
 11
-190.90000000000049
 21
-325.79948713120012
 31
0.0
  0
LINE
  8
DETAIL
  6
CONTINUOUS
 62
     5
 10
198.5
 20
-322.0
 30
0.0
 11
199.0999999999996
 21
-322.0
 31
0.0
  0
LINE
  8
DETAIL
  6
CONTINUOUS
 62
     5
 10
-191.5
 20
-322.0
 30
0.0
 11
-192.10000000000039
 21
-322.0
 31
0.0
  0
LINE
  8
DETAIL
  6
CONTINUOUS
 62
     5
 10
198.5
 20
-319.0
 30
0.0
 11
199.0999999999996
 21
-319.0
 31
0.0
  0
LINE
  8
DETAIL
  6
CONTINUOUS
 62
     5
 10
-191.5
 20
-319.0
 30
0.0
 11
-192.10000000000039
 21
-319.0
 31
0.0
  0
LINE
  8
DETAIL
  6
CONTINUOUS
 62
     5
 10
-191.5
 20
-317.0
 30
0.0
 11
-190.90000000000049
 21
-317.0
 31
0.0
  0
LINE
  8
DETAIL
  6
CONTINUOUS
 62
     5
 10
-192.10000000000039
 20
-317.0
 30
0.0
 11
-191.5
 21
-317.0
 31
0.0
  0
LINE
  8
DETAIL
  6
CONTINUOUS
 62
     5
 10
198.5
 20
-317.0
 30
0.0
 11
197.89999999999961
 21
-317.0
 31
0.0
  0
LINE
  8
DETAIL
  6
CONTINUOUS
 62
     5
 10
199.0999999999996
 20
-317.0
 30
0.0
 11
198.5
 21
-317.0
 31
0.0
  0
LINE
  8
DETAIL
  6
CONTINUOUS
 62
     5
 10
189.89999999999961
 20
-314.0
 30
0.0
 11
169.62347538299949
 21
-314.0
 31
0.0
  0
LINE
  8
DETAIL
  6
CONTINUOUS
 62
     5
 10
159.3765246169996
 20
-314.0
 30
0.0
 11
50.123475382999459
 21
-314.0
 31
0.0
  0
LINE
  8
DETAIL
  6
CONTINUOUS
 62
     5
 10
39.876524616999632
 20
-314.0
 30
0.0
 11
-29.876524617000541
 21
-314.0
 31
0.0
  0
LINE
  8
DETAIL
  6
CONTINUOUS
 62
     5
 10
-40.123475383000368
 20
-314.0
 30
0.0
 11
-182.90000000000049
 21
-314.0
 31
0.0
  0
LINE
  8
DETAIL
  6
CONTINUOUS
 62
     5
 10
-191.49969622460051
 20
-325.86157427300009
 30
0.0
 11
-190.89984811220069
 21
-325.8480745618001
 31
0.0
  0
LINE
  8
DETAIL
  6
CONTINUOUS
 62
     5
 10
46.590990257799596
 20
-314.40900974239997
 30
0.0
 11
43.409009694599263
 21
-317.59099030540011
 31
0.0
  0
LINE
  8
DETAIL
  6
CONTINUOUS
 62
     5
 10
194.89999999999961
 20
-309.0
 30
0.0
 11
192.89999999999961
 21
-309.0
 31
0.0
  0
LINE
  8
DETAIL
  6
CONTINUOUS
 62
     5
 10
192.89999999999961
 20
-309.0
 30
0.0
 11
-185.40000000000049
 21
-309.0
 31
0.0
  0
LINE
  8
DETAIL
  6
CONTINUOUS
 62
     5
 10
-185.40000000000049
 20
-309.0
 30
0.0
 11
-187.90000000000049
 21
-309.0
 31
0.0
  0
LINE
  8
DETAIL
  6
CONTINUOUS
 62
     5
 10
-33.409009742200404
 20
-314.40900974239997
 30
0.0
 11
-36.590990305400737
 21
-317.59099030540011
 31
0.0
  0
LINE
  8
DETAIL
  6
CONTINUOUS
 62
     5
 10
162.9090097423996
 20
-314.40900974239997
 30
0.0
 11
166.0909903053998
 21
-317.59099030540011
 31
0.0
  0
LINE
  8
DETAIL
  6
CONTINUOUS
 62
     5
 10
170.7601854324096
 20
-361.51096637042389
 30
0.0
 11
169.8026829040094
 21
-360.47020275262372
 31
0.0
  0
LINE
  8
DETAIL
  6
CONTINUOUS
 62
     5
 10
43.409009742399583
 20
-314.40900974239997
 30
0.0
 11
46.590990305399828
 21
-317.59099030540011
 31
0.0
  0
LINE
  8
DETAIL
  6
CONTINUOUS
 62
     5
 10
-36.590990257600417
 20
-314.40900974239997
 30
0.0
 11
-33.409009694600172
 21
-317.59099030540011
 31
0.0
  0
LINE
  8
DETAIL
  6
CONTINUOUS
 62
     5
 10
169.34767483920979
 20
-361.90920768962388
 30
0.0
 11
178.67264934320909
 21
-365.24341251182398
 31
0.0
  0
LINE
  8
DETAIL
  6
CONTINUOUS
 62
     5
 10
-185.40000000000049
 20
-308.40000000000009
 30
0.0
 11
-185.90000000000049
 21
-311.0
 31
0.0
  0
LINE
  8
DETAIL
  6
CONTINUOUS
 62
     5
 10
-190.90000000000049
 20
-325.81703099079999
 30
0.0
 11
-190.90054518360009
 21
-325.88163948319988
 31
0.0
  0
LINE
  8
DETAIL
  6
CONTINUOUS
 62
     5
 10
-190.90000000000049
 20
-312.0
 30
0.0
 11
-190.90000000000049
 21
-325.81703099079999
 31
0.0
  0
LINE
  8
DETAIL
  6
CONTINUOUS
 62
     5
 10
-191.5
 20
-317.0
 30
0.0
 11
-191.5
 21
-325.83457485060012
 31
0.0
  0
LINE
  8
DETAIL
  6
CONTINUOUS
 62
     5
 10
-192.10000000000039
 20
-317.0
 30
0.0
 11
-192.10000000000039
 21
-322.0
 31
0.0
  0
LINE
  8
DETAIL
  6
CONTINUOUS
 62
     5
 10
-190.90054518360009
 20
-325.88163948319988
 30
0.0
 11
-190.8703406610002
 21
-325.98282638339992
 31
0.0
  0
LINE
  8
DETAIL
  6
CONTINUOUS
 62
     5
 10
-190.8703406610002
 20
-325.98282638339992
 30
0.0
 11
-190.83084678480009
 21
-326.11284376160012
 31
0.0
  0
LINE
  8
DETAIL
  6
CONTINUOUS
 62
     5
 10
-190.83084678480009
 20
-326.11284376160012
 30
0.0
 11
-190.80946928900079
 21
-326.18210722899988
 31
0.0
  0
LINE
  8
DETAIL
  6
CONTINUOUS
 62
     5
 10
-190.80946928900079
 20
-326.18210722899988
 30
0.0
 11
-190.77885754920041
 21
-326.27845201200012
 31
0.0
  0
LINE
  8
DETAIL
  6
CONTINUOUS
 62
     5
 10
-190.77885754920041
 20
-326.27845201200012
 30
0.0
 11
-190.74832116240029
 21
-326.37101442419998
 31
0.0
  0
LINE
  8
DETAIL
  6
CONTINUOUS
 62
     5
 10
-190.74832116240029
 20
-326.37101442419998
 30
0.0
 11
-190.71772019939999
 21
-326.45955153959989
 31
0.0
  0
LINE
  8
DETAIL
  6
CONTINUOUS
 62
     5
 10
-190.71772019939999
 20
-326.45955153959989
 30
0.0
 11
-190.6869878614007
 21
-326.54359612600001
 31
0.0
  0
LINE
  8
DETAIL
  6
CONTINUOUS
 62
     5
 10
-190.6869878614007
 20
-326.54359612600001
 30
0.0
 11
-190.6560574562009
 21
-326.62268400359989
 31
0.0
  0
LINE
  8
DETAIL
  6
CONTINUOUS
 62
     5
 10
-190.6560574562009
 20
-326.62268400359989
 30
0.0
 11
-190.62478747040041
 21
-326.69651782080001
 31
0.0
  0
LINE
  8
DETAIL
  6
CONTINUOUS
 62
     5
 10
-190.62478747040041
 20
-326.69651782080001
 30
0.0
 11
-190.59333524340039
 21
-326.76411875379978
 31
0.0
  0
LINE
  8
DETAIL
  6
CONTINUOUS
 62
     5
 10
-190.59333524340039
 20
-326.76411875379978
 30
0.0
 11
-190.56186345720019
 21
-326.82469050840001
 31
0.0
  0
LINE
  8
DETAIL
  6
CONTINUOUS
 62
     5
 10
-190.56186345720019
 20
-326.82469050840001
 30
0.0
 11
-190.53023612520059
 21
-326.87812526599993
 31
0.0
  0
LINE
  8
DETAIL
  6
CONTINUOUS
 62
     5
 10
-190.53023612520059
 20
-326.87812526599993
 30
0.0
 11
-190.4983922804004
 21
-326.92415505160011
 31
0.0
  0
LINE
  8
DETAIL
  6
CONTINUOUS
 62
     5
 10
-190.4983922804004
 20
-326.92415505160011
 30
0.0
 11
-190.46627109159999
 21
-326.96251686520009
 31
0.0
  0
LINE
  8
DETAIL
  6
CONTINUOUS
 62
     5
 10
-190.46627109159999
 20
-326.96251686520009
 30
0.0
 11
-190.4337339358008
 21
-326.99301311280021
 31
0.0
  0
LINE
  8
DETAIL
  6
CONTINUOUS
 62
     5
 10
-190.4337339358008
 20
-326.99301311280021
 30
0.0
 11
-190.4009536952008
 21
-327.01519581339988
 31
0.0
  0
LINE
  8
DETAIL
  6
CONTINUOUS
 62
     5
 10
-190.4009536952008
 20
-327.01519581339988
 30
0.0
 11
-190.36808402180031
 21
-327.02886800300013
 31
0.0
  0
LINE
  8
DETAIL
  6
CONTINUOUS
 62
     5
 10
-190.36808402180031
 20
-327.02886800300013
 30
0.0
 11
-190.33507272960011
 21
-327.03406220080001
 31
0.0
  0
ARC
  8
DETAIL
  6
CONTINUOUS
 62
     5
 10
164.5
 20
-316.0
 30
0.0
 40
5.5
 50
21.323686263491599
 51
158.6763137365084
  0
ARC
  8
DETAIL
  6
CONTINUOUS
 62
     5
 10
180.35605819220959
 20
-360.53532004822398
 30
0.0
 40
5.0
 50
250.32516200999069
 51
286.32516201000527
  0
CIRCLE
  8
DETAIL
  6
CONTINUOUS
 62
     5
 10
164.5
 20
-316.0
 30
0.0
 40
4.7000000000000002
  0
ARC
  8
DETAIL
  6
CONTINUOUS
 62
     5
 10
189.89999999999961
 20
-311.0
 30
0.0
 40
3.0
 50
270.0
 51
0.0
  0
ARC
  8
DETAIL
  6
CONTINUOUS
 62
     5
 10
194.89999999999961
 20
-312.0
 30
0.0
 40
3.0
 50
0.0
 51
90.0
  0
ARC
  8
DETAIL
  6
CONTINUOUS
 62
     5
 10
169.8526974940099
 20
-360.4967799504239
 30
0.0
 40
1.5
 50
178.325162009997
 51
250.32516201040579
  0
ARC
  8
DETAIL
  6
CONTINUOUS
 62
     5
 10
190.84372612500951
 20
-361.11055271722381
 30
0.0
 40
1.5
 50
286.32516200959799
 51
358.32516201000999
  0
ARC
  8
DETAIL
  6
CONTINUOUS
 62
     5
 10
197.2999999999993
 20
-335.7643994120001
 30
0.0
 40
1.2
 50
268.32516200948868
 51
0.0
  0
ARC
  8
DETAIL
  6
CONTINUOUS
 62
     5
 10
197.2999999999993
 20
-335.7643994120001
 30
0.0
 40
0.6
 50
324.98650695880099
 51
350.63316281629972
  0
ARC
  8
DETAIL
  6
CONTINUOUS
 62
     5
 10
198.5
 20
-317.0
 30
0.0
 40
0.6
 50
0.0
 51
180.0
  0
ARC
  8
DETAIL
  6
CONTINUOUS
 62
     5
 10
45.0
 20
-316.0
 30
0.0
 40
5.5
 50
21.323686263491599
 51
158.6763137365084
  0
CIRCLE
  8
DETAIL
  6
CONTINUOUS
 62
     5
 10
45.0
 20
-316.0
 30
0.0
 40
4.7000000000000002
  0
ARC
  8
DETAIL
  6
CONTINUOUS
 62
     5
 10
-35.0
 20
-316.0
 30
0.0
 40
5.5
 50
21.323686263491599
 51
158.6763137365084
  0
CIRCLE
  8
DETAIL
  6
CONTINUOUS
 62
     5
 10
-35.0
 20
-316.0
 30
0.0
 40
4.7000000000000002
  0
ARC
  8
DETAIL
  6
CONTINUOUS
 62
     5
 10
-182.90000000000049
 20
-311.0
 30
0.0
 40
3.0
 50
180.0
 51
270.0
  0
ARC
  8
DETAIL
  6
CONTINUOUS
 62
     5
 10
-187.90000000000049
 20
-312.0
 30
0.0
 40
3.0
 50
90.0
 51
180.0
  0
ARC
  8
DETAIL
  6
CONTINUOUS
 62
     5
 10
-190.30000000000021
 20
-325.83457485060012
 30
0.0
 40
1.2
 50
180.0
 51
268.32516200948868
  0
ARC
  8
DETAIL
  6
CONTINUOUS
 62
     5
 10
-190.30000000000021
 20
-325.83457485060012
 30
0.0
 40
0.6
 50
187.4980850346011
 51
199.9473184534011
  0
ARC
  8
DETAIL
  6
CONTINUOUS
 62
     5
 10
-191.5
 20
-317.0
 30
0.0
 40
0.6
 50
0.0
 51
180.0
  0
LINE
  8
OUTLINE
  6
CONTINUOUS
 62
     3
 10
199.0999999999996
 20
-322.0
 30
0.0
 11
199.0999999999996
 21
-317.0
 31
0.0
  0
LINE
  8
OUTLINE
  6
CONTINUOUS
 62
     3
 10
198.5
 20
-335.7643994120001
 30
0.0
 11
198.5
 21
-317.0
 31
0.0
  0
LINE
  8
OUTLINE
  6
CONTINUOUS
 62
     3
 10
197.89999999999961
 20
-335.78194327160008
 30
0.0
 11
197.89999999999961
 21
-312.0
 31
0.0
  0
LINE
  8
OUTLINE
  6
CONTINUOUS
 62
     3
 10
192.89999999999961
 20
-308.40000000000009
 30
0.0
 11
192.89999999999961
 21
-311.0
 31
0.0
  0
LINE
  8
OUTLINE
  6
CONTINUOUS
 62
     3
 10
197.26492727039931
 20
-336.96388676219999
 30
0.0
 11
-190.33507272960011
 21
-327.03406220080001
 31
0.0
  0
LINE
  8
OUTLINE
  6
CONTINUOUS
 62
     3
 10
198.5
 20
-322.0
 30
0.0
 11
199.0999999999996
 21
-322.0
 31
0.0
  0
LINE
  8
OUTLINE
  6
CONTINUOUS
 62
     3
 10
-191.5
 20
-322.0
 30
0.0
 11
-192.10000000000039
 21
-322.0
 31
0.0
  0
LINE
  8
OUTLINE
  6
CONTINUOUS
 62
     3
 10
194.89999999999961
 20
-309.0
 30
0.0
 11
192.89999999999961
 21
-309.0
 31
0.0
  0
LINE
  8
OUTLINE
  6
CONTINUOUS
 62
     3
 10
-185.40000000000049
 20
-309.0
 30
0.0
 11
-187.90000000000049
 21
-309.0
 31
0.0
  0
LINE
  8
OUTLINE
  6
CONTINUOUS
 62
     3
 10
-185.40000000000049
 20
-308.40000000000009
 30
0.0
 11
-185.40000000000049
 21
-309.0
 31
0.0
  0
LINE
  8
OUTLINE
  6
CONTINUOUS
 62
     3
 10
-190.90000000000049
 20
-312.0
 30
0.0
 11
-190.90000000000049
 21
-325.81703099079999
 31
0.0
  0
LINE
  8
OUTLINE
  6
CONTINUOUS
 62
     3
 10
-191.5
 20
-317.0
 30
0.0
 11
-191.5
 21
-325.83457485060012
 31
0.0
  0
LINE
  8
OUTLINE
  6
CONTINUOUS
 62
     3
 10
-192.10000000000039
 20
-317.0
 30
0.0
 11
-192.10000000000039
 21
-322.0
 31
0.0
  0
ARC
  8
OUTLINE
  6
CONTINUOUS
 62
     3
 10
194.89999999999961
 20
-312.0
 30
0.0
 40
3.0
 50
0.0
 51
90.0
  0
ARC
  8
OUTLINE
  6
CONTINUOUS
 62
     3
 10
197.2999999999993
 20
-335.7643994120001
 30
0.0
 40
1.2
 50
268.32516200948868
 51
0.0
  0
ARC
  8
OUTLINE
  6
CONTINUOUS
 62
     3
 10
198.5
 20
-317.0
 30
0.0
 40
0.6
 50
0.0
 51
180.0
  0
ARC
  8
OUTLINE
  6
CONTINUOUS
 62
     3
 10
-187.90000000000049
 20
-312.0
 30
0.0
 40
3.0
 50
90.0
 51
180.0
  0
ARC
  8
OUTLINE
  6
CONTINUOUS
 62
     3
 10
-190.30000000000021
 20
-325.83457485060012
 30
0.0
 40
1.2
 50
180.0
 51
268.32516200948868
  0
ARC
  8
OUTLINE
  6
CONTINUOUS
 62
     3
 10
-191.5
 20
-317.0
 30
0.0
 40
0.6
 50
0.0
 51
180.0
  0
LINE
  8
SIZE
  6
CONTINUOUS
 62
    30
 10
217.3661785945998
 20
-336.96388676234722
 30
0.0
 11
495.86781056006453
 21
-336.9638867623471
 31
0.0
  0
LINE
  8
SIZE
  6
CONTINUOUS
 62
    30
 10
224.2467019021002
 20
-361.99998789000011
 30
0.0
 11
495.86781056006453
 21
-361.99998789000011
 31
0.0
  0
LINE
  8
SIZE
  6
CONTINUOUS
 62
    30
 10
475.86781056006453
 20
-324.9638867623471
 30
0.0
 11
475.86781056006453
 21
-312.9638867623471
 31
0.0
  0
LINE
  8
SIZE
  6
CONTINUOUS
 62
    30
 10
475.86781056006453
 20
-373.99998789000011
 30
0.0
 11
475.86781056006453
 21
-529.98345931857148
 31
0.0
  0
LINE
  8
SIZE
  6
CONTINUOUS
 62
    30
 10
475.86781056006453
 20
-336.9638867623471
 30
0.0
 11
475.86781056006453
 21
-361.99998789000011
 31
0.0
  0
CIRCLE
  8
SIZE
  6
CONTINUOUS
 62
    30
 10
475.86781056006453
 20
-336.9638867623471
 30
0.0
 40
6.0
  0
LINE
  8
SIZE
  6
CONTINUOUS
 62
    30
 10
475.86781056006453
 20
-336.9638867623471
 30
0.0
 11
475.86781056006453
 21
-324.9638867623471
 31
0.0
  0
CIRCLE
  8
SIZE
  6
CONTINUOUS
 62
    30
 10
475.86781056006453
 20
-361.99998789000011
 30
0.0
 40
6.0
  0
LINE
  8
SIZE
  6
CONTINUOUS
 62
    30
 10
475.86781056006453
 20
-361.99998789000011
 30
0.0
 11
475.86781056006453
 21
-373.99998789000011
 31
0.0
  0
TEXT
  8
SIZE
  6
CONTINUOUS
 62
    30
 10
450.8678105600643
 20
-504.98345931857159
 30
0.0
 40
64.0
  1
25
 50
90.0
 41
0.9
 72
     1
 11
450.8678105600643
 21
-458.35488789000021
 31
0.0
  0
POINT
  8
DEFPOINTS
  6
CONTINUOUS
 62
    30
 10
197.3661785945998
 20
-336.96388676234722
 30
0.0
  0
POINT
  8
DEFPOINTS
  6
CONTINUOUS
 62
    30
 10
204.2467019021002
 20
-361.99998789000011
 30
0.0
  0
POINT
  8
DEFPOINTS
  6
CONTINUOUS
 62
    30
 10
475.86781056006453
 20
-361.99998789000011
 30
0.0
  0
LINE
  8
SIZE
  6
CONTINUOUS
 62
    30
 10
198.5
 20
-355.7643994120001
 30
0.0
 11
198.5
 21
-562.89562540477073
 31
0.0
  0
LINE
  8
SIZE
  6
CONTINUOUS
 62
    30
 10
-191.5
 20
-345.79948713120001
 30
0.0
 11
-191.5
 21
-562.89562540477073
 31
0.0
  0
LINE
  8
SIZE
  6
CONTINUOUS
 62
    30
 10
186.5
 20
-542.89562540477073
 30
0.0
 11
-179.5
 21
-542.89562540477073
 31
0.0
  0
CIRCLE
  8
SIZE
  6
CONTINUOUS
 62
    30
 10
198.5
 20
-542.89562540477073
 30
0.0
 40
6.0
  0
LINE
  8
SIZE
  6
CONTINUOUS
 62
    30
 10
198.5
 20
-542.89562540477073
 30
0.0
 11
186.5
 21
-542.89562540477073
 31
0.0
  0
CIRCLE
  8
SIZE
  6
CONTINUOUS
 62
    30
 10
-191.5
 20
-542.89562540477073
 30
0.0
 40
6.0
  0
LINE
  8
SIZE
  6
CONTINUOUS
 62
    30
 10
-191.5
 20
-542.89562540477073
 30
0.0
 11
-179.5
 21
-542.89562540477073
 31
0.0
  0
TEXT
  8
SIZE
  6
CONTINUOUS
 62
    30
 10
-74.057142857142878
 20
-517.89562540477073
 30
0.0
 40
64.0
  1
390
 41
0.9
 72
     1
 11
-0.0000000000000284
 21
-517.89562540477073
 31
0.0
  0
POINT
  8
DEFPOINTS
  6
CONTINUOUS
 62
    30
 10
198.5
 20
-335.7643994120001
 30
0.0
  0
POINT
  8
DEFPOINTS
  6
CONTINUOUS
 62
    30
 10
-191.5
 20
-325.79948713120012
 30
0.0
  0
POINT
  8
DEFPOINTS
  6
CONTINUOUS
 62
    30
 10
-191.5
 20
-542.89562540477073
 30
0.0
  0
LINE
  8
DETAIL
  6
CONTINUOUS
 62
     5
 10
238.89999999999779
 20
-236.69999999898729
 30
0.0
 11
238.89999999999779
 21
-169.6999999987884
 31
0.0
  0
LINE
  8
DETAIL
  6
CONTINUOUS
 62
     5
 10
237.29999999999839
 20
-239.09999999898741
 30
0.0
 11
237.29999999999839
 21
-236.69999999898729
 31
0.0
  0
LINE
  8
DETAIL
  6
CONTINUOUS
 62
     5
 10
237.29999999999839
 20
-236.69999999898729
 30
0.0
 11
237.2999999999989
 21
-169.7082271783579
 31
0.0
  0
LINE
  8
DETAIL
  6
CONTINUOUS
 62
     5
 10
187.29999999998839
 20
-239.0999999989881
 30
0.0
 11
237.29999999999839
 21
-239.09999999898741
 31
0.0
  0
LINE
  8
DETAIL
  6
CONTINUOUS
 62
     5
 10
187.2999999999893
 20
-237.49999999898719
 30
0.0
 11
237.29999999999839
 21
-237.49999999898731
 31
0.0
  0
LINE
  8
DETAIL
  6
CONTINUOUS
 62
     5
 10
238.89999999999779
 20
-236.69999999898729
 30
0.0
 11
237.29999999999839
 21
-236.69999999898729
 31
0.0
  0
ARC
  8
DETAIL
  6
CONTINUOUS
 62
     5
 10
237.29999999999839
 20
-236.69999999898729
 30
0.0
 40
1.6000000000000001
 50
270.0
 51
0.0
  0
ARC
  8
DETAIL
  6
CONTINUOUS
 62
     5
 10
237.29999999999839
 20
-236.69999999898729
 30
0.0
 40
0.8
 50
270.0
 51
0.0
  0
LINE
  8
OUTLINE
  6
CONTINUOUS
 62
     3
 10
238.89999999999779
 20
-236.69999999898729
 30
0.0
 11
238.89999999999779
 21
-169.6999999987884
 31
0.0
  0
LINE
  8
OUTLINE
  6
CONTINUOUS
 62
     3
 10
237.29999999999839
 20
-239.09999999898741
 30
0.0
 11
237.29999999999839
 21
-236.69999999898729
 31
0.0
  0
LINE
  8
OUTLINE
  6
CONTINUOUS
 62
     3
 10
187.29999999998839
 20
-239.0999999989881
 30
0.0
 11
237.29999999999839
 21
-239.09999999898741
 31
0.0
  0
ARC
  8
OUTLINE
  6
CONTINUOUS
 62
     3
 10
237.29999999999839
 20
-236.69999999898729
 30
0.0
 40
1.6000000000000001
 50
270.0
 51
0.0
  0
LINE
  8
OUTLINE
  6
CONTINUOUS
 62
     3
 10
238.89999999999961
 20
-236.36887530553551
 30
0.0
 11
238.89999999999961
 21
-168.21431202761141
 31
0.0
  0
LINE
  8
SIZE
  6
CONTINUOUS
 62
    30
 10
224.5
 20
-182.0
 30
0.0
 11
224.5
 21
-681.95285116469529
 31
0.0
  0
LINE
  8
SIZE
  6
CONTINUOUS
 62
    30
 10
-224.5
 20
-182.0
 30
0.0
 11
-224.5
 21
-681.95285116469529
 31
0.0
  0
LINE
  8
SIZE
  6
CONTINUOUS
 62
    30
 10
212.5
 20
-661.95285116469529
 30
0.0
 11
-212.5
 21
-661.95285116469529
 31
0.0
  0
CIRCLE
  8
SIZE
  6
CONTINUOUS
 62
    30
 10
224.5
 20
-661.95285116469529
 30
0.0
 40
6.0
  0
LINE
  8
SIZE
  6
CONTINUOUS
 62
    30
 10
224.5
 20
-661.95285116469529
 30
0.0
 11
212.5
 21
-661.95285116469529
 31
0.0
  0
CIRCLE
  8
SIZE
  6
CONTINUOUS
 62
    30
 10
-224.5
 20
-661.95285116469529
 30
0.0
 40
6.0
  0
LINE
  8
SIZE
  6
CONTINUOUS
 62
    30
 10
-224.5
 20
-661.95285116469529
 30
0.0
 11
-212.5
 21
-661.95285116469529
 31
0.0
  0
TEXT
  8
SIZE
  6
CONTINUOUS
 62
    30
 10
-72.68571428571434
 20
-636.95285116469529
 30
0.0
 40
64.0
  1
449
 41
0.9
 72
     1
 11
-0.0000000000000568
 21
-636.95285116469529
 31
0.0
  0
POINT
  8
DEFPOINTS
  6
CONTINUOUS
 62
    30
 10
224.5
 20
-162.0
 30
0.0
  0
POINT
  8
DEFPOINTS
  6
CONTINUOUS
 62
    30
 10
-224.5
 20
-162.0
 30
0.0
  0
POINT
  8
DEFPOINTS
  6
CONTINUOUS
 62
    30
 10
-224.5
 20
-661.95285116469529
 30
0.0
  0
LINE
  8
SIZE
  6
CONTINUOUS
 62
    30
 10
280.37344200000013
 20
0.0
 30
0.0
 11
495.86781056006879
 21
0.0000000000000568
 31
0.0
  0
LINE
  8
SIZE
  6
CONTINUOUS
 62
    30
 10
217.3661785945998
 20
-336.96388676234722
 30
0.0
 11
495.86781056006879
 21
-336.9638867623471
 31
0.0
  0
LINE
  8
SIZE
  6
CONTINUOUS
 62
    30
 10
475.86781056006879
 20
-12.0
 30
0.0
 11
475.86781056006879
 21
-324.9638867623471
 31
0.0
  0
CIRCLE
  8
SIZE
  6
CONTINUOUS
 62
    30
 10
475.86781056006879
 20
0.0000000000000568
 30
0.0
 40
6.0
  0
LINE
  8
SIZE
  6
CONTINUOUS
 62
    30
 10
475.86781056006879
 20
0.0000000000000568
 30
0.0
 11
475.86781056006879
 21
-11.99999999999994
 31
0.0
  0
CIRCLE
  8
SIZE
  6
CONTINUOUS
 62
    30
 10
475.86781056006879
 20
-336.9638867623471
 30
0.0
 40
6.0
  0
LINE
  8
SIZE
  6
CONTINUOUS
 62
    30
 10
475.86781056006879
 20
-336.9638867623471
 30
0.0
 11
475.86781056006879
 21
-324.9638867623471
 31
0.0
  0
TEXT
  8
SIZE
  6
CONTINUOUS
 62
    30
 10
450.86781056006868
 20
-242.53908623831649
 30
0.0
 40
64.0
  1
337
 50
90.0
 41
0.9
 72
     1
 11
450.86781056006868
 21
-168.48194338117361
 31
0.0
  0
POINT
  8
DEFPOINTS
  6
CONTINUOUS
 62
    30
 10
260.37344200000013
 20
0.0
 30
0.0
  0
POINT
  8
DEFPOINTS
  6
CONTINUOUS
 62
    30
 10
197.3661785945998
 20
-336.96388676234722
 30
0.0
  0
POINT
  8
DEFPOINTS
  6
CONTINUOUS
 62
    30
 10
475.86781056006879
 20
-336.9638867623471
 30
0.0
  0
LINE
  8
NOTE
  6
CONTINUOUS
 62
     4
 10
158.2521663585101
 20
-361.89604890902382
 30
0.0
 11
204.24670190210011
 21
-361.99998789
 31
0.0
  0
LINE
  8
NOTE
  6
CONTINUOUS
 62
     4
 10
180.0021663585097
 20
-342.14604890902382
 30
0.0
 11
180.0021663585097
 21
-381.64604890902382
 31
0.0
  0
LINE
  8
SIZE
  6
CONTINUOUS
 62
    30
 10
-244.5
 20
-182.9856090000001
 30
0.0
 11
-244.5
 21
-813.93902172065418
 31
0.0
  0
LINE
  8
SIZE
  6
CONTINUOUS
 62
    30
 10
244.5
 20
-182.9856090000001
 30
0.0
 11
244.5
 21
-813.93902172065418
 31
0.0
  0
LINE
  8
SIZE
  6
CONTINUOUS
 62
    30
 10
-232.5
 20
-793.93902172065418
 30
0.0
 11
232.5
 21
-793.93902172065418
 31
0.0
  0
CIRCLE
  8
SIZE
  6
CONTINUOUS
 62
    30
 10
-244.5
 20
-793.93902172065418
 30
0.0
 40
6.0
  0
LINE
  8
SIZE
  6
CONTINUOUS
 62
    30
 10
-244.5
 20
-793.93902172065418
 30
0.0
 11
-232.5
 21
-793.93902172065418
 31
0.0
  0
CIRCLE
  8
SIZE
  6
CONTINUOUS
 62
    30
 10
244.5
 20
-793.93902172065418
 30
0.0
 40
6.0
  0
LINE
  8
SIZE
  6
CONTINUOUS
 62
    30
 10
244.5
 20
-793.93902172065418
 30
0.0
 11
232.5
 21
-793.93902172065418
 31
0.0
  0
TEXT
  8
SIZE
  6
CONTINUOUS
 62
    30
 10
-72.685714285714297
 20
-768.93902172065418
 30
0.0
 40
64.0
  1
489
 41
0.9
 72
     1
 11
-0.0000000000000284
 21
-768.93902172065418
 31
0.0
  0
POINT
  8
DEFPOINTS
  6
CONTINUOUS
 62
    30
 10
-244.5
 20
-162.9856090000001
 30
0.0
  0
POINT
  8
DEFPOINTS
  6
CONTINUOUS
 62
    30
 10
244.5
 20
-162.9856090000001
 30
0.0
  0
POINT
  8
DEFPOINTS
  6
CONTINUOUS
 62
    30
 10
244.5
 20
-793.93902172065418
 30
0.0
  0
LINE
  8
BASIS
  6
DASHDOT
 62
     6
 10
0.0
 20
-282.12504061875921
 30
0.0
 11
0.0
 21
-21.039185236961199
 31
0.0
  0
TEXT
  8
NOTE
  6
CONTINUOUS
 62
     4
 10
398.50012691965719
 20
54.247780513921498
 30
0.0
 40
64.0
  1
AH
 41
0.9
  0
LINE
  8
NOTE
  6
CONTINUOUS
 62
     4
 10
398.41012691965727
 20
41.447780513921543
 30
0.0
 11
494.50012691965719
 21
41.447780513921543
 31
0.0
  0
LINE
  8
NOTE
  6
CONTINUOUS
 62
     4
 10
246.5471459549029
 20
-128.4428392793437
 30
0.0
 11
224.5
 21
-142.0
 31
0.0
  0
LINE
  8
NOTE
  6
CONTINUOUS
 62
     4
 10
224.5
 20
-142.0
 30
0.0
 11
236.81477381284921
 21
-119.23556287757449
 31
0.0
  0
LINE
  8
NOTE
  6
CONTINUOUS
 62
     4
 10
224.5
 20
-142.0
 30
0.0
 11
258.86191976775223
 21
-105.6784021569183
 31
0.0
  0
LINE
  8
NOTE
  6
CONTINUOUS
 62
     4
 10
258.86191976775228
 20
-105.6784021569183
 30
0.0
 11
398.05012691965732
 21
41.447780513921543
 31
0.0
  0
LINE
  8
NOTE
  6
CONTINUOUS
 62
     4
 10
398.05012691965732
 20
41.447780513921543
 30
0.0
 11
398.41012691965727
 21
41.447780513921543
 31
0.0
  0
TEXT
  8
NOTE
  6
CONTINUOUS
 62
     4
 10
351.21121603780807
 20
-640.52272096488741
 30
0.0
 40
64.0
  1
D φ21.7
 41
0.9
  0
LINE
  8
NOTE
  6
CONTINUOUS
 62
     4
 10
351.12121603780838
 20
-653.32272096488737
 30
0.0
 11
688.58264460923681
 21
-653.32272096488725
 31
0.0
  0
LINE
  8
NOTE
  6
CONTINUOUS
 62
     4
 10
186.86123031580269
 20
-386.85254091395637
 30
0.0
 11
180.0021663585097
 21
-361.89604890902382
 31
0.0
  0
LINE
  8
NOTE
  6
CONTINUOUS
 62
     4
 10
180.0021663585097
 20
-361.89604890902382
 30
0.0
 11
198.42056339555009
 21
-380.07944524052482
 31
0.0
  0
LINE
  8
NOTE
  6
CONTINUOUS
 62
     4
 10
180.0021663585097
 20
-361.89604890902382
 30
0.0
 11
205.27962735284299
 21
-405.03593724545738
 31
0.0
  0
LINE
  8
NOTE
  6
CONTINUOUS
 62
     4
 10
205.27962735284299
 20
-405.03593724545738
 30
0.0
 11
350.76121603780831
 21
-653.32272096488737
 31
0.0
  0
LINE
  8
NOTE
  6
CONTINUOUS
 62
     4
 10
350.76121603780831
 20
-653.32272096488737
 30
0.0
 11
351.12121603780838
 21
-653.32272096488737
 31
0.0
  0
LINE
  8
OUTLINE
  6
CONTINUOUS
 62
     3
 10
191.26535840980921
 20
-362.5500756300238
 30
0.0
 11
181.76149914140959
 21
-365.33372975742378
 31
0.0
  0
LINE
  8
OUTLINE
  6
CONTINUOUS
 62
     3
 10
191.66475042361009
 20
-342.21629103142368
 30
0.0
 11
191.7045124768095
 21
-341.66568570602402
 31
0.0
  0
LINE
  8
OUTLINE
  6
CONTINUOUS
 62
     3
 10
191.7045124768095
 20
-341.66568570602402
 30
0.0
 11
191.88139212680949
 21
-336.72347410882378
 31
0.0
  0
LINE
  8
OUTLINE
  6
CONTINUOUS
 62
     3
 10
192.8957785182096
 20
-342.25228600482387
 30
0.0
 11
192.34308531300971
 21
-361.15439362922388
 31
0.0
  0
LINE
  8
OUTLINE
  6
CONTINUOUS
 62
     3
 10
170.02332479080931
 20
-340.7623028860238
 30
0.0
 11
170.18899185280981
 21
-336.08919339902388
 31
0.0
  0
LINE
  8
OUTLINE
  6
CONTINUOUS
 62
     3
 10
168.90603151120959
 20
-341.55083141422381
 30
0.0
 11
168.3533383060097
 21
-360.45293903862381
 31
0.0
  0
LINE
  8
OUTLINE
  6
CONTINUOUS
 62
     3
 10
170.01413399080991
 20
-341.58323207142382
 30
0.0
 11
170.02332479080931
 21
-340.7623028860238
 31
0.0
  0
LINE
  8
OUTLINE
  6
CONTINUOUS
 62
     3
 10
168.90603151120959
 20
-341.55083141422381
 30
0.0
 11
170.014133990809
 21
-341.58323207151068
 31
0.0
  0
LINE
  8
OUTLINE
  6
CONTINUOUS
 62
     3
 10
191.6647504236183
 20
-342.21629103131067
 30
0.0
 11
192.8957785182096
 21
-342.25228600482387
 31
0.0
  0
LINE
  8
OUTLINE
  6
CONTINUOUS
 62
     3
 10
169.34767483920979
 20
-361.90920768962388
 30
0.0
 11
178.67264934320909
 21
-365.24341251182398
 31
0.0
  0
ARC
  8
OUTLINE
  6
CONTINUOUS
 62
     3
 10
180.35605819220959
 20
-360.53532004822392
 30
0.0
 40
5.0
 50
250.32516200999069
 51
286.32516201000578
  0
ARC
  8
OUTLINE
  6
CONTINUOUS
 62
     3
 10
169.8526974940099
 20
-360.49677995042401
 30
0.0
 40
1.5
 50
178.325162009997
 51
250.32516201040579
  0
ARC
  8
OUTLINE
  6
CONTINUOUS
 62
     3
 10
190.8437261250096
 20
-361.11055271722381
 30
0.0
 40
1.5
 50
286.32516200959839
 51
358.32516201000999
  0
ENDSEC
  0
EOF
