  0
SECTION
  2
HEADER
  9
$ACADVER
  1
AC1009
  9
$DWGCODEPAGE
  3
dos932
  9
$INSBASE
 10
0.0
 20
0.0
 30
0.0
  9
$EXTMIN
 10
-740.9591510553837
 20
-777.37425625949982
 30
-0.0030516297567118
  9
$EXTMAX
 10
1054.110729373187
 20
411.75843066507701
 30
50.001526135026353
  9
$LIMMIN
 10
-2970.0
 20
-2100.0
  9
$LIMMAX
 10
2970.0
 20
2100.0
  9
$ORTHOMODE
 70
     1
  9
$REGENMODE
 70
     1
  9
$FILLMODE
 70
     1
  9
$QTEXTMODE
 70
     0
  9
$MIRRTEXT
 70
     0
  9
$LTSCALE
 40
20.0
  9
$ATTMODE
 70
     1
  9
$TEXTSIZE
 40
64.0
  9
$TRACEWID
 40
0.05
  9
$TEXTSTYLE
  7
STANDARD
  9
$CLAYER
  8
SIZE
  9
$CELTYPE
  6
CONTINUOUS
  9
$CECOLOR
 62
     7
  9
$DIMSCALE
 40
1.0
  9
$DIMASZ
 40
12.0
  9
$DIMEXO
 40
20.0
  9
$DIMDLI
 40
200.0
  9
$DIMRND
 40
0.0
  9
$DIMDLE
 40
0.0
  9
$DIMEXE
 40
20.0
  9
$DIMTP
 40
0.0
  9
$DIMTM
 40
0.0
  9
$DIMTXT
 40
64.0
  9
$DIMCEN
 40
0.09
  9
$DIMTSZ
 40
0.0
  9
$DIMTOL
 70
     0
  9
$DIMLIM
 70
     0
  9
$DIMTIH
 70
     0
  9
$DIMTOH
 70
     0
  9
$DIMSE1
 70
     0
  9
$DIMSE2
 70
     0
  9
$DIMTAD
 70
     1
  9
$DIMZIN
 70
     8
  9
$DIMBLK
  1

  9
$DIMASO
 70
     1
  9
$DIMSHO
 70
     0
  9
$DIMPOST
  1

  9
$DIMAPOST
  1

  9
$DIMALT
 70
     0
  9
$DIMALTD
 70
     2
  9
$DIMALTF
 40
25.399999999999999
  9
$DIMLFAC
 40
1.0
  9
$DIMTOFL
 70
     1
  9
$DIMTVP
 40
0.0
  9
$DIMTIX
 70
     1
  9
$DIMSOXD
 70
     0
  9
$DIMSAH
 70
     0
  9
$DIMBLK1
  1

  9
$DIMBLK2
  1

  9
$DIMSTYLE
  2
STANDARD
  9
$DIMCLRD
 70
     7
  9
$DIMCLRE
 70
     7
  9
$DIMCLRT
 70
     7
  9
$DIMTFAC
 40
1.0
  9
$DIMGAP
 40
25.0
  9
$LUNITS
 70
     2
  9
$LUPREC
 70
     4
  9
$SKETCHINC
 40
0.1
  9
$FILLETRAD
 40
3.0
  9
$AUNITS
 70
     1
  9
$AUPREC
 70
     3
  9
$MENU
  1
ACAD
  9
$ELEVATION
 40
0.0
  9
$PELEVATION
 40
0.0
  9
$THICKNESS
 40
0.0
  9
$LIMCHECK
 70
     0
  9
$CHAMFERA
 40
0.0
  9
$CHAMFERB
 40
0.0
  9
$SKPOLY
 70
     0
  9
$TDCREATE
 40
2453019.62301037
  9
$TDUPDATE
 40
2459268.674374282
  9
$TDINDWG
 40
1.7213817245
  9
$TDUSRTIMER
 40
1.7213817245
  9
$USRTIMER
 70
     1
  9
$ANGBASE
 50
0.0
  9
$ANGDIR
 70
     0
  9
$PDMODE
 70
     3
  9
$PDSIZE
 40
-2.0
  9
$PLINEWID
 40
0.0
  9
$SPLFRAME
 70
     0
  9
$SPLINETYPE
 70
     6
  9
$SPLINESEGS
 70
     8
  9
$SURFTAB1
 70
     6
  9
$SURFTAB2
 70
     6
  9
$SURFTYPE
 70
     6
  9
$SURFU
 70
     6
  9
$SURFV
 70
     6
  9
$UCSNAME
  2

  9
$UCSORG
 10
0.0
 20
0.0
 30
0.0
  9
$UCSXDIR
 10
1.0
 20
0.0
 30
0.0
  9
$UCSYDIR
 10
0.0
 20
1.0
 30
0.0
  9
$PUCSNAME
  2

  9
$PUCSORG
 10
0.0
 20
0.0
 30
0.0
  9
$PUCSXDIR
 10
1.0
 20
0.0
 30
0.0
  9
$PUCSYDIR
 10
0.0
 20
1.0
 30
0.0
  9
$USERI1
 70
     0
  9
$USERI2
 70
     0
  9
$USERI3
 70
     0
  9
$USERI4
 70
     0
  9
$USERI5
 70
     0
  9
$USERR1
 40
20.0
  9
$USERR2
 40
0.0
  9
$USERR3
 40
0.0
  9
$USERR4
 40
0.0
  9
$USERR5
 40
0.0
  9
$WORLDVIEW
 70
     1
  9
$SHADEDGE
 70
     3
  9
$SHADEDIF
 70
    70
  9
$TILEMODE
 70
     1
  9
$MAXACTVP
 70
    48
  9
$PINSBASE
 10
0.0
 20
0.0
 30
0.0
  9
$PLIMCHECK
 70
     0
  9
$PEXTMIN
 10
-100000000000000000000.0
 20
-100000000000000000000.0
 30
-100000000000000000000.0
  9
$PEXTMAX
 10
100000000000000000000.0
 20
100000000000000000000.0
 30
100000000000000000000.0
  9
$PLIMMIN
 10
0.0
 20
0.0
  9
$PLIMMAX
 10
12.0
 20
9.0
  9
$UNITMODE
 70
     0
  9
$VISRETAIN
 70
     0
  9
$PLINEGEN
 70
     0
  9
$PSLTSCALE
 70
     0
  9
$TREEDEPTH
 70
  3020
  9
$ATTDIA
 70
     0
  9
$ATTREQ
 70
     1
  9
$BLIPMODE
 70
     1
  9
$COORDS
 70
     1
  9
$DRAGMODE
 70
     2
  9
$OSMODE
 70
     0
  9
$HANDLING
 70
     0
  9
$HANDSEED
  5
FB29
  0
ENDSEC
  0
SECTION
  2
TABLES
  0
TABLE
  2
LTYPE
 70
     2
  0
LTYPE
  2
CONTINUOUS
 70
     0
  3
実線
 72
    65
 73
     0
 40
0.0
  0
LTYPE
  2
DASHDOT
 70
     0
  3
____ _ ____ _ ____ _ ____ _ ____ _ ____ _ ____
 72
    65
 73
     4
 40
5.5
 49
4.0
 49
-0.6
 49
0.3
 49
-0.6
  0
ENDTAB
  0
TABLE
  2
LAYER
 70
    12
  0
LAYER
  2
0
 70
     0
 62
     7
  6
CONTINUOUS
  0
LAYER
  2
BASIS
 70
     0
 62
     6
  6
DASHDOT
  0
LAYER
  2
OUTLINE
 70
     0
 62
     3
  6
CONTINUOUS
  0
LAYER
  2
DETAIL
 70
     0
 62
     5
  6
CONTINUOUS
  0
LAYER
  2
SIZE
 70
     0
 62
    30
  6
CONTINUOUS
  0
LAYER
  2
ARRANGE
 70
     0
 62
     1
  6
CONTINUOUS
  0
LAYER
  2
DEFPOINTS
 70
     0
 62
     7
  6
CONTINUOUS
  0
LAYER
  2
ETC
 70
     0
 62
    61
  6
CONTINUOUS
  0
LAYER
  2
FIX
 70
     0
 62
    11
  6
CONTINUOUS
  0
LAYER
  2
NOTE
 70
     0
 62
     4
  6
CONTINUOUS
  0
LAYER
  2
SERVICESPACE
 70
    64
 62
     2
  6
DASHDOT
  0
LAYER
  2
SYMBOLLINE
 70
    64
 62
    15
  6
CONTINUOUS
  0
ENDTAB
  0
TABLE
  2
STYLE
 70
     1
  0
STYLE
  2
STANDARD
 70
     0
 40
64.0
 41
0.9
 50
0.0
 71
     0
 42
64.0
  3
SIMPLEX.shx
  4
BIGFONT.shx
  0
ENDTAB
  0
TABLE
  2
APPID
 70
    19
  0
APPID
  2
ACAD
 70
     0
  0
APPID
  2
AUTOCAD_POSTSCRIPT_FIGURE
 70
     0
  0
APPID
  2
ACAD_EXEMPT_FROM_CAD_STANDARDS
 70
     0
  0
APPID
  2
ACAD_PSEXT
 70
     0
  0
APPID
  2
ACAUTHENVIRON
 70
     0
  0
APPID
  2
GENIUS_GENOENT_13
 70
     0
  0
APPID
  2
GENIUS_GENCFG_13
 70
     0
  0
APPID
  2
GENIUS_GENCFG0_13
 70
     0
  0
APPID
  2
GENIUS_GENCFG1_13
 70
     0
  0
APPID
  2
GENIUS_GENCFG2_13
 70
     0
  0
APPID
  2
GENIUS_GENCFG3_13
 70
     0
  0
APPID
  2
GENIUS_GENCFG4_13
 70
     0
  0
APPID
  2
GENIUS_GEVCFG0_13
 70
     0
  0
APPID
  2
CONTENTBLOCKICON
 70
     0
  0
APPID
  2
CONTENTBLOCKDESCRIPTION
 70
     0
  0
APPID
  2
ACAD_NAV_VCDISPLAY
 70
     0
  0
APPID
  2
ACAD_MLEADERVER
 70
     0
  0
APPID
  2
ACDBDYNAMICBLOCKTRUENAME
 70
     0
  0
APPID
  2
ACDBDYNAMICBLOCKGUID
 70
     0
  0
ENDTAB
  0
TABLE
  2
DIMSTYLE
 70
     1
  0
DIMSTYLE
  2
STANDARD
 70
     0
  3

  4

  5
_ORIGIN
  6

  7

 40
1.0
 41
12.0
 42
20.0
 43
200.0
 44
20.0
 45
0.0
 46
0.0
 47
0.0
 48
0.0
140
64.0
141
0.09
142
0.0
143
25.399999999999999
144
1.0
145
0.0
146
1.0
147
25.0
 71
     0
 72
     0
 73
     0
 74
     0
 75
     0
 76
     0
 77
     1
 78
     8
170
     0
171
     2
172
     1
173
     0
174
     1
175
     0
176
     7
177
     7
178
     7
  0
ENDTAB
  0
TABLE
  2
VIEW
 70
     1
  0
VIEW
  2
ALL
 70
     0
 40
4282.6198079999986
 10
0.0
 20
41.309904000000003
 41
5940.0
 11
0.0
 21
0.0
 31
1.0
 12
0.0
 22
0.0
 32
0.0
 42
50.0
 43
0.0
 44
0.0
 50
0.0
 71
     0
  0
ENDTAB
  0
TABLE
  2
UCS
 70
     0
  0
ENDTAB
  0
TABLE
  2
VPORT
 70
     1
  0
VPORT
  2
*ACTIVE
 70
     0
 10
0.0
 20
0.0
 11
1.0
 21
1.0
 12
156.57578915890221
 22
-182.8079127972114
 13
0.0
 23
0.0
 14
1.0
 24
1.0
 15
0.0
 25
0.0
 16
0.0
 26
0.0
 36
1.0
 17
0.0
 27
0.0
 37
0.0
 40
968.38399658610865
 41
1.980636237897649
 42
50.0
 43
0.0
 44
0.0
 50
0.0
 51
0.0
 71
     0
 72
  1000
 73
     1
 74
     3
 75
     0
 76
     0
 77
     0
 78
     0
  0
ENDTAB
  0
ENDSEC
  0
SECTION
  2
BLOCKS
  0
BLOCK
  8
0
  2
_ORIGIN
 70
     0
 10
0.0
 20
0.0
 30
0.0
  3
_ORIGIN
  1
_ORIGIN
  0
CIRCLE
  8
SIZE
  6
CONTINUOUS
 62
    30
 10
0.0
 20
0.0
 30
0.0
 40
0.5
  0
LINE
  8
SIZE
  6
CONTINUOUS
 62
    30
 10
0.0
 20
0.0
 30
0.0
 11
-1.0
 21
0.0
 31
0.0
  0
ENDBLK
  8
0
  0
ENDSEC
  0
SECTION
  2
ENTITIES
  0
CIRCLE
  8
ARRANGE
  6
CONTINUOUS
 62
     1
 10
0.0
 20
0.0
 30
0.0
 40
40.0
  0
TEXT
  8
ETC
  6
CONTINUOUS
 62
    61
 10
434.01869268857422
 20
347.48216623356262
 30
0.0
 40
64.0
  1
BFS-80SYA2_4
 41
0.9
  0
TEXT
  8
ETC
  6
CONTINUOUS
 62
    61
 10
431.81028168857438
 20
246.84112023356241
 30
0.0
 40
64.0
  1
産業扇
 41
0.9
  0
TEXT
  8
ETC
  6
CONTINUOUS
 62
    61
 10
572.05455684581261
 20
161.2971569690653
 30
0.0
 40
50.0
  1
BFS-80SYA2
 41
0.9
  0
LINE
  8
BASIS
  6
DASHDOT
 62
     6
 10
358.95909780114567
 20
-0.7526959889427758
 30
0.0
 11
-358.34495808096341
 21
0.7510041126911915
 31
0.0
  0
LINE
  8
SIZE
  6
CONTINUOUS
 62
    30
 10
-258.5
 20
-257.0
 30
0.0
 11
-676.94639316699931
 21
-257.0
 31
0.0
  0
LINE
  8
SIZE
  6
CONTINUOUS
 62
    30
 10
-258.5
 20
-49.0
 30
0.0
 11
-676.94639316699931
 21
-49.0
 31
0.0
  0
LINE
  8
SIZE
  6
CONTINUOUS
 62
    30
 10
-656.94639316699931
 20
-268.99999999999989
 30
0.0
 11
-656.94639316699931
 21
-280.99999999999989
 31
0.0
  0
LINE
  8
SIZE
  6
CONTINUOUS
 62
    30
 10
-656.94639316699931
 20
-257.0
 30
0.0
 11
-656.94639316699931
 21
-49.0
 31
0.0
  0
CIRCLE
  8
SIZE
  6
CONTINUOUS
 62
    30
 10
-656.94639316699931
 20
-257.0
 30
0.0
 40
6.0
  0
LINE
  8
SIZE
  6
CONTINUOUS
 62
    30
 10
-656.94639316699931
 20
-257.0
 30
0.0
 11
-656.94639316699931
 21
-268.99999999999989
 31
0.0
  0
CIRCLE
  8
SIZE
  6
CONTINUOUS
 62
    30
 10
-656.94639316699931
 20
-49.0
 30
0.0
 40
6.0
  0
LINE
  8
SIZE
  6
CONTINUOUS
 62
    30
 10
-656.94639316699931
 20
-49.0
 30
0.0
 11
-656.94639316699931
 21
-12.0
 31
0.0
  0
TEXT
  8
SIZE
  6
CONTINUOUS
 62
    30
 10
-676.94639316699931
 20
-273.68652022135149
 30
0.0
 40
64.0
  1
φ208
 50
90.0
 41
0.9
 72
     1
 11
-676.94639316699931
 21
-159.30937736420859
 31
0.0
  0
POINT
  8
DEFPOINTS
  6
CONTINUOUS
 62
    30
 10
-656.94639316699931
 20
-49.0
 30
0.0
 50
270.0
  0
LINE
  8
SIZE
  6
CONTINUOUS
 62
    30
 10
-342.0
 20
-249.0
 30
0.0
 11
-555.09403916699921
 21
-249.0
 31
0.0
  0
LINE
  8
SIZE
  6
CONTINUOUS
 62
    30
 10
-342.0
 20
-57.0
 30
0.0
 11
-555.09403916699921
 21
-57.0
 31
0.0
  0
LINE
  8
SIZE
  6
CONTINUOUS
 62
    30
 10
-535.09403916699921
 20
-261.0
 30
0.0
 11
-535.09403916699921
 21
-273.0
 31
0.0
  0
LINE
  8
SIZE
  6
CONTINUOUS
 62
    30
 10
-535.09403916699921
 20
-45.0
 30
0.0
 11
-535.09403916699921
 21
244.82197917746089
 31
0.0
  0
LINE
  8
SIZE
  6
CONTINUOUS
 62
    30
 10
-535.09403916699921
 20
-249.0
 30
0.0
 11
-535.09403916699921
 21
-57.0
 31
0.0
  0
CIRCLE
  8
SIZE
  6
CONTINUOUS
 62
    30
 10
-535.09403916699921
 20
-249.0
 30
0.0
 40
6.0
  0
LINE
  8
SIZE
  6
CONTINUOUS
 62
    30
 10
-535.09403916699921
 20
-249.0
 30
0.0
 11
-535.09403916699921
 21
-261.0
 31
0.0
  0
CIRCLE
  8
SIZE
  6
CONTINUOUS
 62
    30
 10
-535.09403916699921
 20
-57.0
 30
0.0
 40
6.0
  0
LINE
  8
SIZE
  6
CONTINUOUS
 62
    30
 10
-535.09403916699921
 20
-57.0
 30
0.0
 11
-535.09403916699921
 21
-45.0
 31
0.0
  0
TEXT
  8
SIZE
  6
CONTINUOUS
 62
    30
 10
-547.09403916699921
 20
-3.3627339456870828
 30
0.0
 40
64.0
  1
φ192
 50
90.0
 41
0.9
 72
     1
 11
-547.09403916699921
 21
105.52869462574149
 31
0.0
  0
POINT
  8
DEFPOINTS
  6
CONTINUOUS
 62
    30
 10
-535.09403916699921
 20
-57.0
 30
0.0
 50
270.0
  0
LINE
  8
SIZE
  6
CONTINUOUS
 62
    30
 10
259.10259421920108
 20
-356.57254570606659
 30
0.0
 11
259.10259421920108
 21
-777.31693560776614
 31
0.0
  0
LINE
  8
SIZE
  6
CONTINUOUS
 62
    30
 10
-260.0
 20
-355.9933555522
 30
0.0
 11
-260.0
 21
-777.31693560776614
 31
0.0
  0
LINE
  8
SIZE
  6
CONTINUOUS
 62
    30
 10
247.10259421920111
 20
-757.31693560776614
 30
0.0
 11
-248.0
 21
-757.31693560776614
 31
0.0
  0
CIRCLE
  8
SIZE
  6
CONTINUOUS
 62
    30
 10
259.10259421920108
 20
-757.31693560776614
 30
0.0
 40
6.0
  0
LINE
  8
SIZE
  6
CONTINUOUS
 62
    30
 10
259.10259421920108
 20
-757.31693560776614
 30
0.0
 11
247.10259421920111
 21
-757.31693560776614
 31
0.0
  0
CIRCLE
  8
SIZE
  6
CONTINUOUS
 62
    30
 10
-260.0
 20
-757.31693560776614
 30
0.0
 40
6.0
  0
LINE
  8
SIZE
  6
CONTINUOUS
 62
    30
 10
-260.0
 20
-757.31693560776614
 30
0.0
 11
-248.0
 21
-757.31693560776614
 31
0.0
  0
TEXT
  8
SIZE
  6
CONTINUOUS
 62
    30
 10
-70.200000000000102
 20
-732.31693560776614
 30
0.0
 40
64.0
  1
519
 41
0.9
 72
     1
 11
-3.0000000000001141
 21
-732.31693560776614
 31
0.0
  0
POINT
  8
DEFPOINTS
  6
CONTINUOUS
 62
    30
 10
259.10259421920108
 20
-336.57254570606648
 30
0.0
  0
POINT
  8
DEFPOINTS
  6
CONTINUOUS
 62
    30
 10
-260.0
 20
-335.9933555522
 30
0.0
  0
POINT
  8
DEFPOINTS
  6
CONTINUOUS
 62
    30
 10
-260.0
 20
-757.31693560776614
 30
0.0
  0
LINE
  8
SIZE
  6
CONTINUOUS
 62
    30
 10
247.75
 20
-207.0
 30
0.0
 11
247.75
 21
-660.02577798561879
 31
0.0
  0
LINE
  8
SIZE
  6
CONTINUOUS
 62
    30
 10
-246.25
 20
-207.0
 30
0.0
 11
-246.25
 21
-660.02577798561879
 31
0.0
  0
LINE
  8
SIZE
  6
CONTINUOUS
 62
    30
 10
235.75
 20
-640.02577798561879
 30
0.0
 11
-234.25
 21
-640.02577798561879
 31
0.0
  0
CIRCLE
  8
SIZE
  6
CONTINUOUS
 62
    30
 10
247.75
 20
-640.02577798561879
 30
0.0
 40
6.0
  0
LINE
  8
SIZE
  6
CONTINUOUS
 62
    30
 10
247.75
 20
-640.02577798561879
 30
0.0
 11
235.75
 21
-640.02577798561879
 31
0.0
  0
CIRCLE
  8
SIZE
  6
CONTINUOUS
 62
    30
 10
-246.25
 20
-640.02577798561879
 30
0.0
 40
6.0
  0
LINE
  8
SIZE
  6
CONTINUOUS
 62
    30
 10
-246.25
 20
-640.02577798561879
 30
0.0
 11
-234.25
 21
-640.02577798561879
 31
0.0
  0
TEXT
  8
SIZE
  6
CONTINUOUS
 62
    30
 10
-74.17857142857153
 20
-615.02577798561879
 30
0.0
 40
64.0
  1
494
 41
0.9
 72
     1
 11
1.2499999999998861
 21
-615.02577798561879
 31
0.0
  0
POINT
  8
DEFPOINTS
  6
CONTINUOUS
 62
    30
 10
247.75
 20
-187.0
 30
0.0
  0
POINT
  8
DEFPOINTS
  6
CONTINUOUS
 62
    30
 10
-246.25
 20
-187.0
 30
0.0
  0
POINT
  8
DEFPOINTS
  6
CONTINUOUS
 62
    30
 10
-246.25
 20
-640.02577798561879
 30
0.0
  0
LINE
  8
SIZE
  6
CONTINUOUS
 62
    30
 10
227.25
 20
-182.0
 30
0.0
 11
227.25
 21
-535.42743395843172
 31
0.0
  0
LINE
  8
SIZE
  6
CONTINUOUS
 62
    30
 10
-225.75
 20
-182.0
 30
0.0
 11
-225.75
 21
-535.42743395843172
 31
0.0
  0
LINE
  8
SIZE
  6
CONTINUOUS
 62
    30
 10
215.25
 20
-515.42743395843172
 30
0.0
 11
-213.75
 21
-515.42743395843172
 31
0.0
  0
CIRCLE
  8
SIZE
  6
CONTINUOUS
 62
    30
 10
227.25
 20
-515.42743395843172
 30
0.0
 40
6.0
  0
LINE
  8
SIZE
  6
CONTINUOUS
 62
    30
 10
227.25
 20
-515.42743395843172
 30
0.0
 11
215.25
 21
-515.42743395843172
 31
0.0
  0
CIRCLE
  8
SIZE
  6
CONTINUOUS
 62
    30
 10
-225.75
 20
-515.42743395843172
 30
0.0
 40
6.0
  0
LINE
  8
SIZE
  6
CONTINUOUS
 62
    30
 10
-225.75
 20
-515.42743395843172
 30
0.0
 11
-213.75
 21
-515.42743395843172
 31
0.0
  0
TEXT
  8
SIZE
  6
CONTINUOUS
 62
    30
 10
-72.807142857142949
 20
-490.42743395843172
 30
0.0
 40
64.0
  1
453
 41
0.9
 72
     1
 11
1.2499999999998861
 21
-490.42743395843172
 31
0.0
  0
POINT
  8
DEFPOINTS
  6
CONTINUOUS
 62
    30
 10
227.25
 20
-162.0
 30
0.0
  0
POINT
  8
DEFPOINTS
  6
CONTINUOUS
 62
    30
 10
-225.75
 20
-162.0
 30
0.0
  0
POINT
  8
DEFPOINTS
  6
CONTINUOUS
 62
    30
 10
-225.75
 20
-515.42743395843172
 30
0.0
  0
LINE
  8
SIZE
  6
CONTINUOUS
 62
    30
 10
328.5
 20
-37.0
 30
0.0
 11
328.5
 21
169.3823780041636
 31
0.0
  0
LINE
  8
SIZE
  6
CONTINUOUS
 62
    30
 10
244.0
 20
20.0
 30
0.0
 11
244.0
 21
169.3823780041636
 31
0.0
  0
LINE
  8
SIZE
  6
CONTINUOUS
 62
    30
 10
340.5
 20
149.3823780041636
 30
0.0
 11
352.5
 21
149.3823780041636
 31
0.0
  0
LINE
  8
SIZE
  6
CONTINUOUS
 62
    30
 10
232.0
 20
149.3823780041636
 30
0.0
 11
220.0
 21
149.3823780041636
 31
0.0
  0
LINE
  8
SIZE
  6
CONTINUOUS
 62
    30
 10
328.5
 20
149.3823780041636
 30
0.0
 11
244.0
 21
149.3823780041636
 31
0.0
  0
CIRCLE
  8
SIZE
  6
CONTINUOUS
 62
    30
 10
328.5
 20
149.3823780041636
 30
0.0
 40
6.0
  0
LINE
  8
SIZE
  6
CONTINUOUS
 62
    30
 10
328.5
 20
149.3823780041636
 30
0.0
 11
340.5
 21
149.3823780041636
 31
0.0
  0
CIRCLE
  8
SIZE
  6
CONTINUOUS
 62
    30
 10
244.0
 20
149.3823780041636
 30
0.0
 40
6.0
  0
LINE
  8
SIZE
  6
CONTINUOUS
 62
    30
 10
244.0
 20
149.3823780041636
 30
0.0
 11
232.0
 21
149.3823780041636
 31
0.0
  0
TEXT
  8
SIZE
  6
CONTINUOUS
 62
    30
 10
239.62142857142859
 20
174.38237800416351
 30
0.0
 40
64.0
  1
85
 41
0.9
 72
     1
 11
286.25
 21
174.38237800416351
 31
0.0
  0
POINT
  8
DEFPOINTS
  6
CONTINUOUS
 62
    30
 10
328.5
 20
-57.0
 30
0.0
  0
POINT
  8
DEFPOINTS
  6
CONTINUOUS
 62
    30
 10
244.0
 20
149.3823780041636
 30
0.0
  0
LINE
  8
SIZE
  6
CONTINUOUS
 62
    30
 10
244.0
 20
20.0
 30
0.0
 11
244.0
 21
169.3823780041636
 31
0.0
  0
LINE
  8
SIZE
  6
CONTINUOUS
 62
    30
 10
-244.0
 20
20.0
 30
0.0
 11
-244.0
 21
169.3823780041636
 31
0.0
  0
LINE
  8
SIZE
  6
CONTINUOUS
 62
    30
 10
232.0
 20
149.3823780041636
 30
0.0
 11
-232.0
 21
149.3823780041636
 31
0.0
  0
CIRCLE
  8
SIZE
  6
CONTINUOUS
 62
    30
 10
244.0
 20
149.3823780041636
 30
0.0
 40
6.0
  0
LINE
  8
SIZE
  6
CONTINUOUS
 62
    30
 10
244.0
 20
149.3823780041636
 30
0.0
 11
232.0
 21
149.3823780041636
 31
0.0
  0
CIRCLE
  8
SIZE
  6
CONTINUOUS
 62
    30
 10
-244.0
 20
149.3823780041636
 30
0.0
 40
6.0
  0
LINE
  8
SIZE
  6
CONTINUOUS
 62
    30
 10
-244.0
 20
149.3823780041636
 30
0.0
 11
-232.0
 21
149.3823780041636
 31
0.0
  0
TEXT
  8
SIZE
  6
CONTINUOUS
 62
    30
 10
-74.557142857142722
 20
174.38237800416351
 30
0.0
 40
64.0
  1
488
 41
0.9
 72
     1
 11
-0.4999999999998863
 21
174.38237800416351
 31
0.0
  0
POINT
  8
DEFPOINTS
  6
CONTINUOUS
 62
    30
 10
244.0
 20
0.0
 30
0.0
  0
POINT
  8
DEFPOINTS
  6
CONTINUOUS
 62
    30
 10
-244.0
 20
149.3823780041636
 30
0.0
  0
LINE
  8
SIZE
  6
CONTINUOUS
 62
    30
 10
-244.0
 20
20.0
 30
0.0
 11
-244.0
 21
169.38237800416391
 31
0.0
  0
LINE
  8
SIZE
  6
CONTINUOUS
 62
    30
 10
-329.0
 20
-37.0
 30
0.0
 11
-329.0
 21
169.38237800416391
 31
0.0
  0
LINE
  8
SIZE
  6
CONTINUOUS
 62
    30
 10
-232.0
 20
149.38237800416391
 30
0.0
 11
-220.0
 21
149.38237800416391
 31
0.0
  0
LINE
  8
SIZE
  6
CONTINUOUS
 62
    30
 10
-341.0
 20
149.38237800416391
 30
0.0
 11
-353.0
 21
149.38237800416391
 31
0.0
  0
LINE
  8
SIZE
  6
CONTINUOUS
 62
    30
 10
-244.0
 20
149.38237800416391
 30
0.0
 11
-329.0
 21
149.38237800416391
 31
0.0
  0
CIRCLE
  8
SIZE
  6
CONTINUOUS
 62
    30
 10
-244.0
 20
149.38237800416391
 30
0.0
 40
6.0
  0
LINE
  8
SIZE
  6
CONTINUOUS
 62
    30
 10
-244.0
 20
149.38237800416391
 30
0.0
 11
-232.0
 21
149.38237800416391
 31
0.0
  0
CIRCLE
  8
SIZE
  6
CONTINUOUS
 62
    30
 10
-329.0
 20
149.38237800416391
 30
0.0
 40
6.0
  0
LINE
  8
SIZE
  6
CONTINUOUS
 62
    30
 10
-329.0
 20
149.38237800416391
 30
0.0
 11
-341.0
 21
149.38237800416391
 31
0.0
  0
TEXT
  8
SIZE
  6
CONTINUOUS
 62
    30
 10
-333.12857142857138
 20
174.38237800416391
 30
0.0
 40
64.0
  1
85
 41
0.9
 72
     1
 11
-286.5
 21
174.38237800416391
 31
0.0
  0
POINT
  8
DEFPOINTS
  6
CONTINUOUS
 62
    30
 10
-244.0
 20
0.0
 30
0.0
  0
POINT
  8
DEFPOINTS
  6
CONTINUOUS
 62
    30
 10
-329.0
 20
-57.0
 30
0.0
  0
POINT
  8
DEFPOINTS
  6
CONTINUOUS
 62
    30
 10
-329.0
 20
149.38237800416391
 30
0.0
  0
LINE
  8
BASIS
  6
DASHDOT
 62
     6
 10
-358.91569405633697
 20
-152.2481356249111
 30
0.0
 11
357.88836292440942
 21
-153.75078756796799
 31
0.0
  0
LINE
  8
BASIS
  6
DASHDOT
 62
     6
 10
0.0
 20
92.03237249891572
 30
0.0
 11
0.0
 21
-379.75599298881713
 31
0.0
  0
LINE
  8
DETAIL
  6
CONTINUOUS
 62
     5
 10
-244.69239180747971
 20
0.5127517648131743
 30
0.0
 11
243.80653482357479
 21
-0.5112991653325025
 31
0.0
  0
LINE
  8
DETAIL
  6
CONTINUOUS
 62
     5
 10
245.30653152766189
 20
-0.5144436410647586
 30
0.0
 11
245.00885449167279
 21
-142.5141316279834
 31
0.0
  0
LINE
  8
DETAIL
  6
CONTINUOUS
 62
     5
 10
-245.6923896102046
 20
0.5148480819680117
 30
0.0
 11
-245.9900666461937
 21
-141.4848399049506
 31
0.0
  0
LINE
  8
DETAIL
  6
CONTINUOUS
 62
     5
 10
-256.3317443696825
 20
-304.46351857754098
 30
0.0
 11
255.16713172404209
 21
-305.53578480224837
 31
0.0
  0
LINE
  8
NOTE
  6
CONTINUOUS
 62
     4
 10
0.0419263430970318
 20
-342.25580943309058
 30
0.0
 11
-0.0419263430970318
 21
-382.00922154208178
 31
0.0
  0
LINE
  8
NOTE
  6
CONTINUOUS
 62
     4
 10
-19.99995605448925
 20
-362.66883871581189
 30
0.0
 11
19.999956054501919
 21
-362.75269140200612
 31
0.0
  0
LINE
  8
DETAIL
  6
CONTINUOUS
 62
     5
 10
-174.69254561674529
 20
0.3660095639734777
 30
0.0
 11
-175.33192234897541
 21
-304.63332026708417
 31
0.0
  0
LINE
  8
DETAIL
  6
CONTINUOUS
 62
     5
 10
-248.24006170232451
 20
-141.48012319135219
 30
0.0
 11
-207.24015179060851
 21
-141.56607219470121
 31
0.0
  0
LINE
  8
DETAIL
  6
CONTINUOUS
 62
     5
 10
-247.78405529311371
 20
-162.46673423877101
 30
0.0
 11
-207.2841442827602
 21
-162.55163508354261
 31
0.0
  0
LINE
  8
DETAIL
  6
CONTINUOUS
 62
     5
 10
-249.3343937770176
 20
-186.47792799681241
 30
0.0
 11
-247.08439872088681
 21
-186.4826447104108
 31
0.0
  0
LINE
  8
DETAIL
  6
CONTINUOUS
 62
     5
 10
-248.24006170232451
 20
-141.48012319135219
 30
0.0
 11
-248.33439597429279
 21
-186.48002431396719
 31
0.0
  0
LINE
  8
DETAIL
  6
CONTINUOUS
 62
     5
 10
-207.24015179060851
 20
-141.56607219470121
 30
0.0
 11
-207.2841442827602
 21
-162.55163508354261
 31
0.0
  0
CIRCLE
  8
FIX
  6
CONTINUOUS
 62
    11
 10
-227.74010674646649
 20
-141.5230976930267
 30
0.0
 40
5.5
  0
LINE
  8
NOTE
  6
CONTINUOUS
 62
     4
 10
-227.7820330895635
 20
-161.52305374752231
 30
0.0
 11
-227.69818040336941
 21
-121.5231416385311
 31
0.0
  0
LINE
  8
NOTE
  6
CONTINUOUS
 62
     4
 10
-247.74006280096211
 20
-141.48117134992961
 30
0.0
 11
-207.74015069197091
 21
-141.5650240361237
 31
0.0
  0
LINE
  8
DETAIL
  6
CONTINUOUS
 62
     5
 10
244.71486254883979
 20
-163.49917043753609
 30
0.0
 11
204.71495043984879
 21
-163.415317751342
 31
0.0
  0
LINE
  8
DETAIL
  6
CONTINUOUS
 62
     5
 10
204.75894293200039
 20
-142.4297548625006
 30
0.0
 11
204.71495043984879
 21
-163.415317751342
 31
0.0
  0
LINE
  8
DETAIL
  6
CONTINUOUS
 62
     5
 10
245.75885284371631
 20
-142.51570386584959
 30
0.0
 11
245.66451857174809
 21
-187.51560498846459
 31
0.0
  0
LINE
  8
DETAIL
  6
CONTINUOUS
 62
     5
 10
245.66451857174809
 20
-187.51560498846459
 30
0.0
 11
243.41452351561719
 21
-187.5108882748662
 31
0.0
  0
LINE
  8
DETAIL
  6
CONTINUOUS
 62
     5
 10
245.75885284371631
 20
-142.51570386584959
 30
0.0
 11
204.75894293200039
 21
-142.4297548625006
 31
0.0
  0
LINE
  8
NOTE
  6
CONTINUOUS
 62
     4
 10
225.21697154476129
 20
-162.47268541867069
 30
0.0
 11
225.3008242309555
 21
-122.4727733096795
 31
0.0
  0
LINE
  8
NOTE
  6
CONTINUOUS
 62
     4
 10
245.25885394235411
 20
-142.51465570727211
 30
0.0
 11
205.25894183336291
 21
-142.43080302107799
 31
0.0
  0
CIRCLE
  8
FIX
  6
CONTINUOUS
 62
    11
 10
225.25889788785841
 20
-142.47272936417511
 30
0.0
 40
5.5
  0
LINE
  8
OUTLINE
  6
CONTINUOUS
 62
     3
 10
-244.69239180747971
 20
0.5127517648131743
 30
0.0
 11
243.80653482357479
 21
-0.5112991653325025
 31
0.0
  0
LINE
  8
DETAIL
  6
CONTINUOUS
 62
     5
 10
-246.03405913834541
 20
-162.470402793792
 30
0.0
 11
-246.33176634243469
 21
-304.48448174908958
 31
0.0
  0
LINE
  8
DETAIL
  6
CONTINUOUS
 62
     5
 10
243.46486529543401
 20
-163.49655004109249
 30
0.0
 11
243.16715809134459
 21
-305.51062899639021
 31
0.0
  0
POINT
  8
DEFPOINTS
  6
CONTINUOUS
 62
    30
 10
-256.3317443696825
 20
-304.46351857754098
 30
0.0
 50
179.87988978653431
  0
POINT
  8
DEFPOINTS
  6
CONTINUOUS
 62
    30
 10
-248.24006170232451
 20
-141.48012319135219
 30
0.0
 50
179.87988978653431
  0
POINT
  8
DEFPOINTS
  6
CONTINUOUS
 62
    30
 10
245.75885284371631
 20
-142.51570386584959
 30
0.0
 50
179.87988978653431
  0
POINT
  8
DEFPOINTS
  6
CONTINUOUS
 62
    30
 10
255.16713172404209
 20
-305.53578480224837
 30
0.0
 50
179.87988978653431
  0
POINT
  8
DEFPOINTS
  6
CONTINUOUS
 62
    30
 10
357.25547231504743
 20
-153.74946082561121
 30
0.0
 50
179.87988978653431
  0
POINT
  8
DEFPOINTS
  6
CONTINUOUS
 62
    30
 10
245.75885284371631
 20
-142.51570386584959
 30
0.0
 50
179.87988978653431
  0
POINT
  8
DEFPOINTS
  6
CONTINUOUS
 62
    30
 10
225.24631998492941
 20
-148.47271618052369
 30
0.0
 50
179.87988978653431
  0
POINT
  8
DEFPOINTS
  6
CONTINUOUS
 62
    30
 10
-227.7526846493956
 20
-147.52308450937539
 30
0.0
 50
179.87988978653431
  0
POINT
  8
DEFPOINTS
  6
CONTINUOUS
 62
    30
 10
204.75894293200039
 20
-142.4297548625006
 30
0.0
 50
179.87988978653431
  0
POINT
  8
DEFPOINTS
  6
CONTINUOUS
 62
    30
 10
-207.24015179060851
 20
-141.56607219470121
 30
0.0
 50
179.87988978653431
  0
POINT
  8
ARRANGE
  6
CONTINUOUS
 62
     1
 10
0.0
 20
-0.0002022208959147
 30
0.0
 39
50.0
 50
179.87988978653431
  0
LINE
  8
DETAIL
  6
CONTINUOUS
 62
     5
 10
-321.21580498064321
 20
-249.08928433577299
 30
0.0
 11
-320.81011769786772
 21
-55.565899560845423
 31
0.0
  0
LINE
  8
DETAIL
  6
CONTINUOUS
 62
     5
 10
-329.21419020791961
 20
-248.31061047264919
 30
0.0
 11
-328.81169731418782
 21
-56.311032349491597
 31
0.0
  0
LINE
  8
DETAIL
  6
CONTINUOUS
 62
     5
 10
-245.23114531627701
 20
-256.48668353545509
 30
0.0
 11
-329.21419020791961
 21
-248.31061047264919
 31
0.0
  0
LINE
  8
DETAIL
  6
CONTINUOUS
 62
     5
 10
-244.79511134806759
 20
-48.487140568701022
 30
0.0
 11
-328.81169731418782
 21
-56.311032349491597
 31
0.0
  0
LINE
  8
DETAIL
  6
CONTINUOUS
 62
     5
 10
-249.7298377075964
 20
-255.858203468477
 30
0.0
 11
-249.2963991812712
 21
-49.096753781285372
 31
0.0
  0
POINT
  8
DEFPOINTS
  6
CONTINUOUS
 62
    30
 10
-328.81169731418782
 20
-56.311032349491597
 30
0.0
 50
179.87988978653431
  0
POINT
  8
DEFPOINTS
  6
CONTINUOUS
 62
    30
 10
-329.21419020791961
 20
-248.31061047264919
 30
0.0
 50
179.87988978653431
  0
POINT
  8
DEFPOINTS
  6
CONTINUOUS
 62
    30
 10
-245.23114531627701
 20
-256.48668353545509
 30
0.0
 50
179.87988978653431
  0
POINT
  8
DEFPOINTS
  6
CONTINUOUS
 62
    30
 10
-244.79511134806759
 20
-48.487140568701022
 30
0.0
 50
179.87988978653431
  0
POINT
  8
DEFPOINTS
  6
CONTINUOUS
 62
    30
 10
-244.69239180747971
 20
0.5127517648131743
 30
0.0
 50
179.87988978653431
  0
POINT
  8
DEFPOINTS
  6
CONTINUOUS
 62
    30
 10
-328.81169731418782
 20
-56.311032349491597
 30
0.0
 50
179.87988978653431
  0
LINE
  8
DETAIL
  6
CONTINUOUS
 62
     5
 10
328.28436508362279
 20
-249.688939001965
 30
0.0
 11
328.68685797735441
 21
-57.689360878807413
 31
0.0
  0
LINE
  8
DETAIL
  6
CONTINUOUS
 62
     5
 10
320.28278546730257
 20
-250.43407179061111
 30
0.0
 11
320.68847275007812
 21
-56.910687015683607
 31
0.0
  0
LINE
  8
DETAIL
  6
CONTINUOUS
 62
     5
 10
243.70381528298699
 20
-49.511191498846642
 30
0.0
 11
328.68685797735441
 21
-57.689360878807413
 31
0.0
  0
LINE
  8
DETAIL
  6
CONTINUOUS
 62
     5
 10
243.26778131477761
 20
-257.51073446560082
 30
0.0
 11
328.28436508362279
 21
-249.688939001965
 31
0.0
  0
LINE
  8
DETAIL
  6
CONTINUOUS
 62
     5
 10
249.26906585206839
 20
-256.90426572874861
 30
0.0
 11
249.70250437839351
 21
-50.142816041556962
 31
0.0
  0
POINT
  8
DEFPOINTS
  6
CONTINUOUS
 62
    30
 10
243.80653482357479
 20
-0.5112991653325025
 30
0.0
 50
179.87988978653431
  0
POINT
  8
DEFPOINTS
  6
CONTINUOUS
 62
    30
 10
328.68685797735441
 20
-57.689360878807413
 30
0.0
 50
179.87988978653431
  0
LINE
  8
OUTLINE
  6
CONTINUOUS
 62
     3
 10
243.80653482357479
 20
-0.5112991653325025
 30
0.0
 11
243.16715809134459
 21
-305.51062899639021
 31
0.0
  0
LINE
  8
OUTLINE
  6
CONTINUOUS
 62
     3
 10
-245.6923896102046
 20
0.5148480819680117
 30
0.0
 11
-246.33176634243469
 21
-304.48448174908958
 31
0.0
  0
LINE
  8
SIZE
  6
CONTINUOUS
 62
    30
 10
-379.15281600000009
 20
-0.0000000000001137
 30
0.0
 11
-431.37831656873931
 21
-0.0000000000001137
 31
0.0
  0
LINE
  8
SIZE
  6
CONTINUOUS
 62
    30
 10
-380.035708
 20
-153.00000000000011
 30
0.0
 11
-431.37831656873919
 21
-153.00000000000011
 31
0.0
  0
LINE
  8
SIZE
  6
CONTINUOUS
 62
    30
 10
-411.37831656873919
 20
-141.00000000000011
 30
0.0
 11
-411.37831656873931
 21
-12.00000000000011
 31
0.0
  0
LINE
  8
SIZE
  6
CONTINUOUS
 62
    30
 10
-411.37831656873931
 20
-0.0000000000001137
 30
0.0
 11
-411.37831656873931
 21
199.14285714285711
 31
0.0
  0
CIRCLE
  8
SIZE
  6
CONTINUOUS
 62
    30
 10
-411.37831656873919
 20
-153.00000000000011
 30
0.0
 40
6.0
  0
LINE
  8
SIZE
  6
CONTINUOUS
 62
    30
 10
-411.37831656873919
 20
-153.00000000000011
 30
0.0
 11
-411.37831656873919
 21
-141.00000000000011
 31
0.0
  0
CIRCLE
  8
SIZE
  6
CONTINUOUS
 62
    30
 10
-411.37831656873931
 20
-0.0000000000001137
 30
0.0
 40
6.0
  0
LINE
  8
SIZE
  6
CONTINUOUS
 62
    30
 10
-411.37831656873931
 20
-0.0000000000001137
 30
0.0
 11
-411.37831656873931
 21
-12.00000000000011
 31
0.0
  0
TEXT
  8
SIZE
  6
CONTINUOUS
 62
    30
 10
-436.37831656873908
 20
37.000000000000107
 30
0.0
 40
64.0
  1
153
 50
90.0
 41
0.9
 72
     1
 11
-436.37831656873908
 21
105.5714285714287
 31
0.0
  0
POINT
  8
DEFPOINTS
  6
CONTINUOUS
 62
    30
 10
-359.15281600000009
 20
-0.0000000000001137
 30
0.0
  0
POINT
  8
DEFPOINTS
  6
CONTINUOUS
 62
    30
 10
-360.035708
 20
-153.00000000000011
 30
0.0
  0
POINT
  8
DEFPOINTS
  6
CONTINUOUS
 62
    30
 10
-411.37831656873919
 20
-153.00000000000011
 30
0.0
  0
LINE
  8
DETAIL
  6
CONTINUOUS
 62
     5
 10
258.43555350136683
 20
-336.82090362307753
 30
0.0
 11
258.40186290418262
 21
-336.92069394156732
 31
0.0
  0
LINE
  8
DETAIL
  6
CONTINUOUS
 62
     5
 10
258.40186290418262
 20
-336.92069394156732
 30
0.0
 11
258.36817802754098
 21
-337.01775026044203
 31
0.0
  0
LINE
  8
DETAIL
  6
CONTINUOUS
 62
     5
 10
258.36817802754098
 20
-337.01775026044203
 30
0.0
 11
258.33469575498771
 21
-337.11081756367412
 31
0.0
  0
LINE
  8
DETAIL
  6
CONTINUOUS
 62
     5
 10
258.33469575498771
 20
-337.11081756367412
 30
0.0
 11
258.30127788647769
 21
-337.199637464185
 31
0.0
  0
LINE
  8
DETAIL
  6
CONTINUOUS
 62
     5
 10
258.30127788647769
 20
-337.199637464185
 30
0.0
 11
258.26786996824842
 21
-337.28371606953681
 31
0.0
  0
LINE
  8
DETAIL
  6
CONTINUOUS
 62
     5
 10
258.26786996824842
 20
-337.28371606953681
 30
0.0
 11
258.23441752188768
 21
-337.36256275364741
 31
0.0
  0
LINE
  8
DETAIL
  6
CONTINUOUS
 62
     5
 10
258.23441752188768
 20
-337.36256275364741
 30
0.0
 11
258.20078246302319
 21
-337.4358588953483
 31
0.0
  0
LINE
  8
DETAIL
  6
CONTINUOUS
 62
     5
 10
258.20078246302319
 20
-337.4358588953483
 30
0.0
 11
258.16716118178101
 21
-337.50258170368801
 31
0.0
  0
LINE
  8
DETAIL
  6
CONTINUOUS
 62
     5
 10
258.16716118178101
 20
-337.50258170368801
 30
0.0
 11
258.13374964633539
 21
-337.56190900067139
 31
0.0
  0
LINE
  8
DETAIL
  6
CONTINUOUS
 62
     5
 10
258.13374964633539
 20
-337.56190900067139
 30
0.0
 11
258.10040934117092
 21
-337.61373002728288
 31
0.0
  0
LINE
  8
DETAIL
  6
CONTINUOUS
 62
     5
 10
258.10040934117092
 20
-337.61373002728288
 30
0.0
 11
258.06708534133242
 21
-337.65776898217598
 31
0.0
  0
LINE
  8
DETAIL
  6
CONTINUOUS
 62
     5
 10
258.06708534133242
 20
-337.65776898217598
 30
0.0
 11
258.03372272398809
 21
-337.69375534842112
 31
0.0
  0
LINE
  8
DETAIL
  6
CONTINUOUS
 62
     5
 10
258.50249870153738
 20
-336.61748121987398
 30
0.0
 11
258.43555350136683
 21
-336.82090362307753
 31
0.0
  0
LINE
  8
DETAIL
  6
CONTINUOUS
 62
     5
 10
259.10227016379599
 20
-336.59803349674718
 30
0.0
 11
259.09546630176811
 21
-336.69966195360018
 31
0.0
  0
LINE
  8
DETAIL
  6
CONTINUOUS
 62
     5
 10
259.09546630176811
 20
-336.69966195360018
 30
0.0
 11
259.0798295298639
 21
-336.80066611010108
 31
0.0
  0
LINE
  8
DETAIL
  6
CONTINUOUS
 62
     5
 10
259.0798295298639
 20
-336.80066611010108
 30
0.0
 11
259.05533973918489
 21
-336.90044217136818
 31
0.0
  0
LINE
  8
DETAIL
  6
CONTINUOUS
 62
     5
 10
259.05533973918489
 20
-336.90044217136818
 30
0.0
 11
259.0222361882436
 21
-336.99772754778922
 31
0.0
  0
LINE
  8
DETAIL
  6
CONTINUOUS
 62
     5
 10
259.0222361882436
 20
-336.99772754778922
 30
0.0
 11
258.98103135068391
 21
-337.09125100187822
 31
0.0
  0
LINE
  8
DETAIL
  6
CONTINUOUS
 62
     5
 10
258.98103135068391
 20
-337.09125100187822
 30
0.0
 11
258.93195028913811
 21
-337.18074256584458
 31
0.0
  0
LINE
  8
DETAIL
  6
CONTINUOUS
 62
     5
 10
258.93195028913811
 20
-337.18074256584458
 30
0.0
 11
258.87529220923727
 21
-337.26569565020492
 31
0.0
  0
LINE
  8
DETAIL
  6
CONTINUOUS
 62
     5
 10
258.87529220923727
 20
-337.26569565020492
 30
0.0
 11
258.81136147304483
 21
-337.34560680209268
 31
0.0
  0
LINE
  8
DETAIL
  6
CONTINUOUS
 62
     5
 10
258.81136147304483
 20
-337.34560680209268
 30
0.0
 11
258.74028652388381
 21
-337.42014819004538
 31
0.0
  0
LINE
  8
DETAIL
  6
CONTINUOUS
 62
     5
 10
258.74028652388381
 20
-337.42014819004538
 30
0.0
 11
258.66295213298798
 21
-337.48827164632121
 31
0.0
  0
LINE
  8
DETAIL
  6
CONTINUOUS
 62
     5
 10
258.66295213298798
 20
-337.48827164632121
 30
0.0
 11
258.58043476478502
 21
-337.54912555365928
 31
0.0
  0
LINE
  8
DETAIL
  6
CONTINUOUS
 62
     5
 10
258.58043476478502
 20
-337.54912555365928
 30
0.0
 11
258.49306148872881
 21
-337.60258572442848
 31
0.0
  0
LINE
  8
DETAIL
  6
CONTINUOUS
 62
     5
 10
258.49306148872881
 20
-337.60258572442848
 30
0.0
 11
258.40134192516598
 21
-337.64835915611093
 31
0.0
  0
LINE
  8
DETAIL
  6
CONTINUOUS
 62
     5
 10
258.40134192516598
 20
-337.64835915611093
 30
0.0
 11
258.30578870768318
 21
-337.68615807691663
 31
0.0
  0
LINE
  8
DETAIL
  6
CONTINUOUS
 62
     5
 10
258.30578870768318
 20
-337.68615807691663
 30
0.0
 11
258.20667351028351
 21
-337.71576028487198
 31
0.0
  0
LINE
  8
DETAIL
  6
CONTINUOUS
 62
     5
 10
258.20667351028351
 20
-337.71576028487198
 30
0.0
 11
258.10528639747349
 21
-337.73669186672072
 31
0.0
  0
LINE
  8
DETAIL
  6
CONTINUOUS
 62
     5
 10
258.10528639747349
 20
-337.73669186672072
 30
0.0
 11
258.00290102724222
 21
-337.74875085420962
 31
0.0
  0
LINE
  8
DETAIL
  6
CONTINUOUS
 62
     5
 10
258.03372272398809
 20
-337.69375534842112
 30
0.0
 11
258.00018318549132
 21
-337.72147949382872
 31
0.0
  0
LINE
  8
DETAIL
  6
CONTINUOUS
 62
     5
 10
258.00018318549132
 20
-337.72147949382872
 30
0.0
 11
257.96666190739921
 21
-337.74050029739237
 31
0.0
  0
LINE
  8
DETAIL
  6
CONTINUOUS
 62
     5
 10
257.96666190739921
 20
-337.74050029739237
 30
0.0
 11
257.93332575854743
 21
-337.75064704574669
 31
0.0
  0
LINE
  8
DETAIL
  6
CONTINUOUS
 62
     5
 10
258.49723142449062
 20
-336.64883996409469
 30
0.0
 11
258.48474879940272
 21
-336.71275398539018
 31
0.0
  0
LINE
  8
DETAIL
  6
CONTINUOUS
 62
     5
 10
258.48474879940272
 20
-336.71275398539018
 30
0.0
 11
258.46508358892169
 21
-336.77504115933408
 31
0.0
  0
LINE
  8
DETAIL
  6
CONTINUOUS
 62
     5
 10
259.10259421920108
 20
-336.57254570606648
 30
0.0
 11
259.10227016379599
 21
-336.59803349674718
 31
0.0
  0
LINE
  8
DETAIL
  6
CONTINUOUS
 62
     5
 10
259.74825476218172
 20
-314.54540808568368
 30
0.0
 11
259.75873634795607
 21
-309.54541907205981
 31
0.0
  0
LINE
  8
DETAIL
  6
CONTINUOUS
 62
     5
 10
259.63420965697242
 20
-321.24518373222418
 30
0.0
 11
259.64825498190987
 21
-314.54519845396823
 31
0.0
  0
LINE
  8
DETAIL
  6
CONTINUOUS
 62
     5
 10
259.10259421920108
 20
-336.57254570606648
 30
0.0
 11
259.15873766632171
 21
-309.54416128176689
 31
0.0
  0
LINE
  8
DETAIL
  6
CONTINUOUS
 62
     5
 10
258.50249870153738
 20
-336.61748121987398
 30
0.0
 11
258.56377014585809
 21
-307.14290876493442
 31
0.0
  0
LINE
  8
DETAIL
  6
CONTINUOUS
 62
     5
 10
-1.5474876317594519
 20
-365.45009103564092
 30
0.0
 11
-1.530291301942952
 21
-365.45390494738228
 31
0.0
  0
LINE
  8
DETAIL
  6
CONTINUOUS
 62
     5
 10
-1.530291301942952
 20
-365.45390494738228
 30
0.0
 11
-1.4606006815427011
 21
-365.46165450405351
 31
0.0
  0
LINE
  8
DETAIL
  6
CONTINUOUS
 62
     5
 10
-1.4606006815427011
 20
-365.46165450405351
 30
0.0
 11
-1.3467937770880669
 21
-365.46902724841942
 31
0.0
  0
LINE
  8
DETAIL
  6
CONTINUOUS
 62
     5
 10
-1.3467937770880669
 20
-365.46902724841942
 30
0.0
 11
-1.1923285541660109
 21
-365.47579916319597
 31
0.0
  0
LINE
  8
DETAIL
  6
CONTINUOUS
 62
     5
 10
-1.1923285541660109
 20
-365.47579916319597
 30
0.0
 11
-1.0018983597499871
 21
-365.48176448718658
 31
0.0
  0
LINE
  8
DETAIL
  6
CONTINUOUS
 62
     5
 10
-1.0018983597499871
 20
-365.48176448718658
 30
0.0
 11
-0.7812893195874153
 21
-365.48674196723891
 31
0.0
  0
LINE
  8
DETAIL
  6
CONTINUOUS
 62
     5
 10
-0.7812893195874153
 20
-365.48674196723891
 30
0.0
 11
-0.5372045273649633
 21
-365.49058036481
 31
0.0
  0
LINE
  8
DETAIL
  6
CONTINUOUS
 62
     5
 10
-0.5372045273649633
 20
-365.49058036481
 30
0.0
 11
-0.277060376089139
 21
-365.49316305233208
 31
0.0
  0
LINE
  8
DETAIL
  6
CONTINUOUS
 62
     5
 10
-0.277060376089139
 20
-365.49316305233208
 30
0.0
 11
-0.0087612140214333
 21
-365.49441155621139
 31
0.0
  0
LINE
  8
DETAIL
  6
CONTINUOUS
 62
     5
 10
-9.972849491583645
 20
-361.13849830088247
 30
0.0
 11
-10.578031750659701
 21
-361.10776560580291
 31
0.0
  0
LINE
  8
DETAIL
  6
CONTINUOUS
 62
     5
 10
-10.578031750659701
 20
-361.10776560580291
 30
0.0
 11
-11.081779535505291
 21
-361.07564621610459
 31
0.0
  0
LINE
  8
DETAIL
  6
CONTINUOUS
 62
     5
 10
-11.081779535505291
 20
-361.07564621610459
 30
0.0
 11
-11.47905392520352
 21
-361.04245800206257
 31
0.0
  0
LINE
  8
DETAIL
  6
CONTINUOUS
 62
     5
 10
-11.47905392520352
 20
-361.04245800206257
 30
0.0
 11
-11.765977465965991
 21
-361.00852931537139
 31
0.0
  0
LINE
  8
DETAIL
  6
CONTINUOUS
 62
     5
 10
-11.765977465965991
 20
-361.00852931537139
 30
0.0
 11
-11.939750502181139
 21
-360.97422791600479
 31
0.0
  0
LINE
  8
DETAIL
  6
CONTINUOUS
 62
     5
 10
-11.939750502181139
 20
-360.97422791600479
 30
0.0
 11
-11.99923839705048
 21
-360.93920228014917
 31
0.0
  0
LINE
  8
DETAIL
  6
CONTINUOUS
 62
     5
 10
-0.0091838112062987
 20
-365.6960014040622
 30
0.0
 11
-0.0534012099108736
 21
-365.69571315893722
 31
0.0
  0
LINE
  8
DETAIL
  6
CONTINUOUS
 62
     5
 10
-0.0534012099108736
 20
-365.69571315893722
 30
0.0
 11
-0.096994013075232
 21
-365.69504616953071
 31
0.0
  0
LINE
  8
DETAIL
  6
CONTINUOUS
 62
     5
 10
-0.096994013075232
 20
-365.69504616953071
 30
0.0
 11
-0.1437029761091253
 21
-365.69390941483249
 31
0.0
  0
LINE
  8
DETAIL
  6
CONTINUOUS
 62
     5
 10
-0.1437029761091253
 20
-365.69390941483249
 30
0.0
 11
-0.1946030816982329
 21
-365.69217320185288
 31
0.0
  0
LINE
  8
DETAIL
  6
CONTINUOUS
 62
     5
 10
-0.1946030816982329
 20
-365.69217320185288
 30
0.0
 11
-0.2485894171259133
 21
-365.68976412207837
 31
0.0
  0
LINE
  8
DETAIL
  6
CONTINUOUS
 62
     5
 10
-0.2485894171259133
 20
-365.68976412207837
 30
0.0
 11
-0.3062338598844576
 21
-365.68654585817279
 31
0.0
  0
LINE
  8
DETAIL
  6
CONTINUOUS
 62
     5
 10
-0.3062338598844576
 20
-365.68654585817279
 30
0.0
 11
-0.3675465977501062
 21
-365.68238920889519
 31
0.0
  0
LINE
  8
DETAIL
  6
CONTINUOUS
 62
     5
 10
-0.3675465977501062
 20
-365.68238920889519
 30
0.0
 11
-0.4321835407187677
 21
-365.67718634333062
 31
0.0
  0
LINE
  8
DETAIL
  6
CONTINUOUS
 62
     5
 10
-0.4321835407187677
 20
-365.67718634333062
 30
0.0
 11
-0.4997328563243855
 21
-365.67084588141012
 31
0.0
  0
LINE
  8
DETAIL
  6
CONTINUOUS
 62
     5
 10
-0.4997328563243855
 20
-365.67084588141012
 30
0.0
 11
-0.5707813432875923
 21
-365.66317712319761
 31
0.0
  0
LINE
  8
DETAIL
  6
CONTINUOUS
 62
     5
 10
-0.5707813432875923
 20
-365.66317712319761
 30
0.0
 11
-0.6458735507671918
 21
-365.65395241284563
 31
0.0
  0
LINE
  8
DETAIL
  6
CONTINUOUS
 62
     5
 10
-0.6458735507671918
 20
-365.65395241284563
 30
0.0
 11
-0.7250893443078894
 21
-365.64296718628123
 31
0.0
  0
LINE
  8
DETAIL
  6
CONTINUOUS
 62
     5
 10
-0.7250893443078894
 20
-365.64296718628123
 30
0.0
 11
-0.8088371662486793
 21
-365.62994402506968
 31
0.0
  0
LINE
  8
DETAIL
  6
CONTINUOUS
 62
     5
 10
-0.8088371662486793
 20
-365.62994402506968
 30
0.0
 11
-0.8967747954422976
 21
-365.61469774920891
 31
0.0
  0
LINE
  8
DETAIL
  6
CONTINUOUS
 62
     5
 10
-0.8967747954422976
 20
-365.61469774920891
 30
0.0
 11
-0.9886083808140143
 21
-365.59704144569258
 31
0.0
  0
LINE
  8
DETAIL
  6
CONTINUOUS
 62
     5
 10
-0.9886083808140143
 20
-365.59704144569258
 30
0.0
 11
-1.0846046667286371
 21
-365.57666971166952
 31
0.0
  0
LINE
  8
DETAIL
  6
CONTINUOUS
 62
     5
 10
-1.0846046667286371
 20
-365.57666971166952
 30
0.0
 11
-1.182647543715859
 21
-365.55381780689248
 31
0.0
  0
LINE
  8
DETAIL
  6
CONTINUOUS
 62
     5
 10
-1.182647543715859
 20
-365.55381780689248
 30
0.0
 11
-1.289543942421574
 21
-365.52651212253988
 31
0.0
  0
LINE
  8
DETAIL
  6
CONTINUOUS
 62
     5
 10
-1.289543942421574
 20
-365.52651212253988
 30
0.0
 11
-1.4120651019683239
 21
-365.49209468410692
 31
0.0
  0
LINE
  8
DETAIL
  6
CONTINUOUS
 62
     5
 10
-1.4120651019683239
 20
-365.49209468410692
 30
0.0
 11
-1.5474876317594519
 21
-365.45009103564092
 31
0.0
  0
LINE
  8
DETAIL
  6
CONTINUOUS
 62
     5
 10
-0.0029257921210046
 20
-362.71076354526559
 30
0.0
 11
-1.074103282022691
 21
-362.70698369241228
 31
0.0
  0
LINE
  8
DETAIL
  6
CONTINUOUS
 62
     5
 10
-1.074103282022691
 20
-362.70698369241228
 30
0.0
 11
-2.1350798118152738
 21
-362.70017429094992
 31
0.0
  0
LINE
  8
DETAIL
  6
CONTINUOUS
 62
     5
 10
-2.1350798118152738
 20
-362.70017429094992
 30
0.0
 11
-3.1749496166690392
 21
-362.69040867578133
 31
0.0
  0
LINE
  8
DETAIL
  6
CONTINUOUS
 62
     5
 10
-3.1749496166690392
 20
-362.69040867578133
 30
0.0
 11
-4.1859945380786598
 21
-362.67775403816279
 31
0.0
  0
LINE
  8
DETAIL
  6
CONTINUOUS
 62
     5
 10
-4.1859945380786598
 20
-362.67775403816279
 30
0.0
 11
-5.1611686896490028
 21
-362.66226775743212
 31
0.0
  0
LINE
  8
DETAIL
  6
CONTINUOUS
 62
     5
 10
-5.1611686896490028
 20
-362.66226775743212
 30
0.0
 11
-6.0877148061027242
 21
-362.64412373624577
 31
0.0
  0
LINE
  8
DETAIL
  6
CONTINUOUS
 62
     5
 10
-6.0877148061027242
 20
-362.64412373624577
 30
0.0
 11
-6.9549979340645791
 21
-362.62352508888603
 31
0.0
  0
LINE
  8
DETAIL
  6
CONTINUOUS
 62
     5
 10
-6.9549979340645791
 20
-362.62352508888603
 30
0.0
 11
-7.7538535877437198
 21
-362.60069837771817
 31
0.0
  0
LINE
  8
DETAIL
  6
CONTINUOUS
 62
     5
 10
-7.7538535877437198
 20
-362.60069837771817
 30
0.0
 11
-8.4750483281700895
 21
-362.57594046501191
 31
0.0
  0
LINE
  8
DETAIL
  6
CONTINUOUS
 62
     5
 10
-8.4750483281700895
 20
-362.57594046501191
 30
0.0
 11
-9.114391457874774
 21
-362.54942953918948
 31
0.0
  0
LINE
  8
DETAIL
  6
CONTINUOUS
 62
     5
 10
-9.114391457874774
 20
-362.54942953918948
 30
0.0
 11
-9.6673024260843476
 21
-362.52135130314599
 31
0.0
  0
LINE
  8
DETAIL
  6
CONTINUOUS
 62
     5
 10
-9.6673024260843476
 20
-362.52135130314599
 30
0.0
 11
-10.127540089007431
 21
-362.49200615095862
 31
0.0
  0
LINE
  8
DETAIL
  6
CONTINUOUS
 62
     5
 10
-10.127540089007431
 20
-362.49200615095862
 30
0.0
 11
-10.490500786310349
 21
-362.46168448859743
 31
0.0
  0
LINE
  8
DETAIL
  6
CONTINUOUS
 62
     5
 10
-10.490500786310349
 20
-362.46168448859743
 30
0.0
 11
-10.752641947897979
 21
-362.43068631227158
 31
0.0
  0
LINE
  8
DETAIL
  6
CONTINUOUS
 62
     5
 10
-10.752641947897979
 20
-362.43068631227158
 30
0.0
 11
-10.921332629139391
 21
-362.39627652909508
 31
0.0
  0
LINE
  8
DETAIL
  6
CONTINUOUS
 62
     5
 10
0.0
 20
-361.31508461116312
 30
0.0
 11
-1.1724444984781139
 21
-361.31094844995971
 31
0.0
  0
LINE
  8
DETAIL
  6
CONTINUOUS
 62
     5
 10
-1.1724444984781139
 20
-361.31094844995971
 30
0.0
 11
-2.3337234844142931
 21
-361.30349551592371
 31
0.0
  0
LINE
  8
DETAIL
  6
CONTINUOUS
 62
     5
 10
-2.3337234844142931
 20
-361.30349551592371
 30
0.0
 11
-3.471901702627179
 21
-361.29280568431108
 31
0.0
  0
LINE
  8
DETAIL
  6
CONTINUOUS
 62
     5
 10
-3.471901702627179
 20
-361.29280568431108
 30
0.0
 11
-4.5785308681305992
 21
-361.27895364577051
 31
0.0
  0
LINE
  8
DETAIL
  6
CONTINUOUS
 62
     5
 10
-4.5785308681305992
 20
-361.27895364577051
 30
0.0
 11
-5.6458961201904003
 21
-361.26200361743838
 31
0.0
  0
LINE
  8
DETAIL
  6
CONTINUOUS
 62
     5
 10
-5.6458961201904003
 20
-361.26200361743838
 30
0.0
 11
-6.6600353014239317
 21
-361.24214483344019
 31
0.0
  0
LINE
  8
DETAIL
  6
CONTINUOUS
 62
     5
 10
-6.6600353014239317
 20
-361.24214483344019
 30
0.0
 11
-7.6093100879846247
 21
-361.21959879048057
 31
0.0
  0
LINE
  8
DETAIL
  6
CONTINUOUS
 62
     5
 10
-7.6093100879846247
 20
-361.21959879048057
 30
0.0
 11
-8.4836887036754547
 21
-361.19461394528997
 31
0.0
  0
LINE
  8
DETAIL
  6
CONTINUOUS
 62
     5
 10
-8.4836887036754547
 20
-361.19461394528997
 30
0.0
 11
-9.2730640145750272
 21
-361.16751548114138
 31
0.0
  0
LINE
  8
DETAIL
  6
CONTINUOUS
 62
     5
 10
-9.2730640145750272
 20
-361.16751548114138
 30
0.0
 11
-9.972849491583645
 21
-361.13849830088247
 31
0.0
  0
LINE
  8
DETAIL
  6
CONTINUOUS
 62
     5
 10
10.585805900337959
 20
-361.15174939777751
 30
0.0
 11
9.9792351452666708
 21
-361.18007367513428
 31
0.0
  0
LINE
  8
DETAIL
  6
CONTINUOUS
 62
     5
 10
9.9792351452666708
 20
-361.18007367513428
 30
0.0
 11
9.2758363500440169
 21
-361.20632040144437
 31
0.0
  0
LINE
  8
DETAIL
  6
CONTINUOUS
 62
     5
 10
9.2758363500440169
 20
-361.20632040144437
 30
0.0
 11
8.4826974973046845
 21
-361.23022250718083
 31
0.0
  0
LINE
  8
DETAIL
  6
CONTINUOUS
 62
     5
 10
8.4826974973046845
 20
-361.23022250718083
 30
0.0
 11
7.6079845051918369
 21
-361.25153890396803
 31
0.0
  0
LINE
  8
DETAIL
  6
CONTINUOUS
 62
     5
 10
7.6079845051918369
 20
-361.25153890396803
 30
0.0
 11
6.6597316562026663
 21
-361.27007809138922
 31
0.0
  0
LINE
  8
DETAIL
  6
CONTINUOUS
 62
     5
 10
6.6597316562026663
 20
-361.27007809138922
 30
0.0
 11
5.6458315421129441
 21
-361.28567843686483
 31
0.0
  0
LINE
  8
DETAIL
  6
CONTINUOUS
 62
     5
 10
5.6458315421129441
 20
-361.28567843686483
 30
0.0
 11
4.578605519257394
 21
-361.29815043604953
 31
0.0
  0
LINE
  8
DETAIL
  6
CONTINUOUS
 62
     5
 10
4.578605519257394
 20
-361.29815043604953
 30
0.0
 11
3.4719828248271938
 21
-361.30736215115189
 31
0.0
  0
LINE
  8
DETAIL
  6
CONTINUOUS
 62
     5
 10
3.4719828248271938
 20
-361.30736215115189
 30
0.0
 11
2.3337514224847382
 21
-361.31328002214002
 31
0.0
  0
LINE
  8
DETAIL
  6
CONTINUOUS
 62
     5
 10
2.3337514224847382
 20
-361.31328002214002
 30
0.0
 11
1.1724563533962851
 21
-361.31586407944292
 31
0.0
  0
LINE
  8
DETAIL
  6
CONTINUOUS
 62
     5
 10
1.1724563533962851
 20
-361.31586407944292
 30
0.0
 11
0.0
 21
-361.31508461116312
 31
0.0
  0
LINE
  8
DETAIL
  6
CONTINUOUS
 62
     5
 10
10.91670357935976
 20
-362.44205608901763
 30
0.0
 11
10.75301837460273
 21
-362.47501288433
 31
0.0
  0
LINE
  8
DETAIL
  6
CONTINUOUS
 62
     5
 10
10.75301837460273
 20
-362.47501288433
 30
0.0
 11
10.49190622553817
 21
-362.50506317008131
 31
0.0
  0
LINE
  8
DETAIL
  6
CONTINUOUS
 62
     5
 10
10.49190622553817
 20
-362.50506317008131
 30
0.0
 11
10.12917998235508
 21
-362.53400085901922
 31
0.0
  0
LINE
  8
DETAIL
  6
CONTINUOUS
 62
     5
 10
10.12917998235508
 20
-362.53400085901922
 30
0.0
 11
9.6685534756373954
 21
-362.56153609827362
 31
0.0
  0
LINE
  8
DETAIL
  6
CONTINUOUS
 62
     5
 10
9.6685534756373954
 20
-362.56153609827362
 30
0.0
 11
9.1143739415920777
 21
-362.58741393867041
 31
0.0
  0
LINE
  8
DETAIL
  6
CONTINUOUS
 62
     5
 10
9.1143739415920777
 20
-362.58741393867041
 30
0.0
 11
8.4717294812714954
 21
-362.61139373255378
 31
0.0
  0
LINE
  8
DETAIL
  6
CONTINUOUS
 62
     5
 10
8.4717294812714954
 20
-362.61139373255378
 30
0.0
 11
7.7470962062031958
 21
-362.6332313871718
 31
0.0
  0
LINE
  8
DETAIL
  6
CONTINUOUS
 62
     5
 10
7.7470962062031958
 20
-362.6332313871718
 30
0.0
 11
6.9479351898820596
 21
-362.65270646721598
 31
0.0
  0
LINE
  8
DETAIL
  6
CONTINUOUS
 62
     5
 10
6.9479351898820596
 20
-362.65270646721598
 30
0.0
 11
6.0815858177775786
 21
-362.66964431278228
 31
0.0
  0
LINE
  8
DETAIL
  6
CONTINUOUS
 62
     5
 10
6.0815858177775786
 20
-362.66964431278228
 30
0.0
 11
5.1552579722097676
 21
-362.68389777194727
 31
0.0
  0
LINE
  8
DETAIL
  6
CONTINUOUS
 62
     5
 10
5.1552579722097676
 20
-362.68389777194727
 30
0.0
 11
4.1802109590605596
 21
-362.69529285240492
 31
0.0
  0
LINE
  8
DETAIL
  6
CONTINUOUS
 62
     5
 10
4.1802109590605596
 20
-362.69529285240492
 30
0.0
 11
3.1691721261788639
 21
-362.70370787244548
 31
0.0
  0
LINE
  8
DETAIL
  6
CONTINUOUS
 62
     5
 10
3.1691721261788639
 20
-362.70370787244548
 30
0.0
 11
2.129253830281471
 21
-362.70911359595999
 31
0.0
  0
LINE
  8
DETAIL
  6
CONTINUOUS
 62
     5
 10
2.129253830281471
 20
-362.70911359595999
 30
0.0
 11
1.0682625666398169
 21
-362.71147466596079
 31
0.0
  0
LINE
  8
DETAIL
  6
CONTINUOUS
 62
     5
 10
1.0682625666398169
 20
-362.71147466596079
 30
0.0
 11
-0.0029257921210046
 21
-362.71076354526559
 31
0.0
  0
LINE
  8
DETAIL
  6
CONTINUOUS
 62
     5
 10
1.530137498836496
 20
-365.45654272817472
 30
0.0
 11
1.512925330057215
 21
-365.46028450863162
 31
0.0
  0
LINE
  8
DETAIL
  6
CONTINUOUS
 62
     5
 10
1.512925330057215
 20
-365.46028450863162
 30
0.0
 11
1.44320283118833
 21
-365.46774181054701
 31
0.0
  0
LINE
  8
DETAIL
  6
CONTINUOUS
 62
     5
 10
1.44320283118833
 20
-365.46774181054701
 30
0.0
 11
1.32936601583998
 21
-365.47463734042952
 31
0.0
  0
LINE
  8
DETAIL
  6
CONTINUOUS
 62
     5
 10
1.32936601583998
 20
-365.47463734042952
 30
0.0
 11
1.174873758226852
 21
-365.48076158091618
 31
0.0
  0
LINE
  8
DETAIL
  6
CONTINUOUS
 62
     5
 10
1.174873758226852
 20
-365.48076158091618
 30
0.0
 11
0.9844202273522456
 21
-365.48592845006522
 31
0.0
  0
LINE
  8
DETAIL
  6
CONTINUOUS
 62
     5
 10
0.9844202273522456
 20
-365.48592845006522
 30
0.0
 11
0.7637922572356501
 21
-365.48998095537092
 31
0.0
  0
LINE
  8
DETAIL
  6
CONTINUOUS
 62
     5
 10
0.7637922572356501
 20
-365.48998095537092
 30
0.0
 11
0.5196935173338488
 21
-365.49279596318041
 31
0.0
  0
LINE
  8
DETAIL
  6
CONTINUOUS
 62
     5
 10
0.5196935173338488
 20
-365.49279596318041
 30
0.0
 11
0.2595408242481199
 21
-365.49428794110543
 31
0.0
  0
LINE
  8
DETAIL
  6
CONTINUOUS
 62
     5
 10
0.2595408242481199
 20
-365.49428794110543
 30
0.0
 11
-0.0087612140214333
 21
-365.49441155621139
 31
0.0
  0
LINE
  8
DETAIL
  6
CONTINUOUS
 62
     5
 10
-258.73194654835748
 20
-336.66755039223148
 30
0.0
 11
-258.71008496506857
 21
-336.66950245713281
 31
0.0
  0
LINE
  8
DETAIL
  6
CONTINUOUS
 62
     5
 10
-258.80151325572859
 20
-336.66536251434218
 30
0.0
 11
-258.72667083209677
 21
-336.66802147144119
 31
0.0
  0
LINE
  8
DETAIL
  6
CONTINUOUS
 62
     5
 10
0.0408545127453408
 20
-341.3714195100182
 30
0.0
 11
-1.022624563557144
 21
-341.36701509330891
 31
0.0
  0
LINE
  8
DETAIL
  6
CONTINUOUS
 62
     5
 10
-1.022624563557144
 20
-341.36701509330891
 30
0.0
 11
-2.075852636020898
 21
-341.35830306789012
 31
0.0
  0
LINE
  8
DETAIL
  6
CONTINUOUS
 62
     5
 10
-2.075852636020898
 20
-341.35830306789012
 30
0.0
 11
-3.108686542243277
 21
-341.34536733543081
 31
0.0
  0
LINE
  8
DETAIL
  6
CONTINUOUS
 62
     5
 10
-3.108686542243277
 20
-341.34536733543081
 30
0.0
 11
-4.111179527523916
 21
-341.32833247395803
 31
0.0
  0
LINE
  8
DETAIL
  6
CONTINUOUS
 62
     5
 10
-4.111179527523916
 20
-341.32833247395803
 30
0.0
 11
-5.0736770361600634
 21
-341.30736253844231
 31
0.0
  0
LINE
  8
DETAIL
  6
CONTINUOUS
 62
     5
 10
-5.0736770361600634
 20
-341.30736253844231
 30
0.0
 11
-5.9869096911409088
 21
-341.28265948108202
 31
0.0
  0
LINE
  8
DETAIL
  6
CONTINUOUS
 62
     5
 10
-5.9869096911409088
 20
-341.28265948108202
 30
0.0
 11
-6.8420825624626218
 21
-341.25446120556211
 31
0.0
  0
LINE
  8
DETAIL
  6
CONTINUOUS
 62
     5
 10
-6.8420825624626218
 20
-341.25446120556211
 30
0.0
 11
-7.6309598683142212
 21
-341.22303927689012
 31
0.0
  0
LINE
  8
DETAIL
  6
CONTINUOUS
 62
     5
 10
-7.6309598683142212
 20
-341.22303927689012
 30
0.0
 11
-8.3459442885712747
 21
-341.18869630532339
 31
0.0
  0
LINE
  8
DETAIL
  6
CONTINUOUS
 62
     5
 10
-8.3459442885712747
 20
-341.18869630532339
 30
0.0
 11
-8.9801501328435052
 21
-341.15176303257982
 31
0.0
  0
LINE
  8
DETAIL
  6
CONTINUOUS
 62
     5
 10
-8.9801501328435052
 20
-341.15176303257982
 30
0.0
 11
-9.5274696517423649
 21
-341.11259514602068
 31
0.0
  0
LINE
  8
DETAIL
  6
CONTINUOUS
 62
     5
 10
-9.5274696517423649
 20
-341.11259514602068
 30
0.0
 11
-9.982631859435628
 21
-341.0715698539326
 31
0.0
  0
LINE
  8
DETAIL
  6
CONTINUOUS
 62
     5
 10
-9.982631859435628
 20
-341.0715698539326
 30
0.0
 11
-10.34125329493685
 21
-341.02908225230823
 31
0.0
  0
LINE
  8
DETAIL
  6
CONTINUOUS
 62
     5
 10
-10.34125329493685
 20
-341.02908225230823
 30
0.0
 11
-10.599880237627129
 21
-340.98554151994063
 31
0.0
  0
LINE
  8
DETAIL
  6
CONTINUOUS
 62
     5
 10
-10.599880237627129
 20
-340.98554151994063
 30
0.0
 11
-10.75602196886331
 21
-340.94136697788718
 31
0.0
  0
LINE
  8
DETAIL
  6
CONTINUOUS
 62
     5
 10
-10.75602196886331
 20
-340.94136697788718
 30
0.0
 11
-10.80816722342183
 21
-340.89755728083372
 31
0.0
  0
LINE
  8
DETAIL
  6
CONTINUOUS
 62
     5
 10
257.91145618752591
 20
-337.75250743607762
 30
0.0
 11
-258.71008496966891
 21
-336.66950245712309
 31
0.0
  0
LINE
  8
DETAIL
  6
CONTINUOUS
 62
     5
 10
-259.89626539495919
 20
-335.48455710269792
 30
0.0
 11
-259.29626671332483
 21
-335.48581489299079
 31
0.0
  0
LINE
  8
DETAIL
  6
CONTINUOUS
 62
     5
 10
259.10259421920108
 20
-336.57254570606648
 30
0.0
 11
258.50259553756598
 21
-336.57128791577372
 31
0.0
  0
LINE
  8
DETAIL
  6
CONTINUOUS
 62
     5
 10
-259.29622993583098
 20
-335.46827107193963
 30
0.0
 11
258.50263231505983
 21
-336.55374409472239
 31
0.0
  0
LINE
  8
DETAIL
  6
CONTINUOUS
 62
     5
 10
-259.8961918399711
 20
-335.44946946039522
 30
0.0
 11
-259.29619315833668
 21
-335.45072725068809
 31
0.0
  0
LINE
  8
DETAIL
  6
CONTINUOUS
 62
     5
 10
259.10266777418929
 20
-336.53745806376389
 30
0.0
 11
258.50266909255402
 21
-336.53620027347108
 31
0.0
  0
LINE
  8
DETAIL
  6
CONTINUOUS
 62
     5
 10
0.0396860821130645
 20
-341.92879130951621
 30
0.0
 11
1.122992438517201
 21
-341.92948820674638
 31
0.0
  0
LINE
  8
DETAIL
  6
CONTINUOUS
 62
     5
 10
1.122992438517201
 20
-341.92948820674638
 30
0.0
 11
2.1856878590425031
 21
-341.92711247336678
 31
0.0
  0
LINE
  8
DETAIL
  6
CONTINUOUS
 62
     5
 10
2.1856878590425031
 20
-341.92711247336678
 30
0.0
 11
3.2327286793127432
 21
-341.92163055755452
 31
0.0
  0
LINE
  8
DETAIL
  6
CONTINUOUS
 62
     5
 10
3.2327286793127432
 20
-341.92163055755452
 30
0.0
 11
4.2492458912510074
 21
-341.91314311577509
 31
0.0
  0
LINE
  8
DETAIL
  6
CONTINUOUS
 62
     5
 10
4.2492458912510074
 20
-341.91314311577509
 30
0.0
 11
5.2249383365298172
 21
-341.90168902161821
 31
0.0
  0
LINE
  8
DETAIL
  6
CONTINUOUS
 62
     5
 10
5.2249383365298172
 20
-341.90168902161821
 30
0.0
 11
6.151058800917383
 21
-341.88742007088229
 31
0.0
  0
LINE
  8
DETAIL
  6
CONTINUOUS
 62
     5
 10
6.151058800917383
 20
-341.88742007088229
 30
0.0
 11
7.0179075578713537
 21
-341.87043397287908
 31
0.0
  0
LINE
  8
DETAIL
  6
CONTINUOUS
 62
     5
 10
7.0179075578713537
 20
-341.87043397287908
 30
0.0
 11
7.8180409843962479
 21
-341.85093186125579
 31
0.0
  0
LINE
  8
DETAIL
  6
CONTINUOUS
 62
     5
 10
7.8180409843962479
 20
-341.85093186125579
 30
0.0
 11
8.5427335412230718
 21
-341.82906652565049
 31
0.0
  0
LINE
  8
DETAIL
  6
CONTINUOUS
 62
     5
 10
8.5427335412230718
 20
-341.82906652565049
 30
0.0
 11
9.1861312512249356
 21
-341.80508070840398
 31
0.0
  0
LINE
  8
DETAIL
  6
CONTINUOUS
 62
     5
 10
9.1861312512249356
 20
-341.80508070840398
 30
0.0
 11
9.7408180796551278
 21
-341.77917640759892
 31
0.0
  0
LINE
  8
DETAIL
  6
CONTINUOUS
 62
     5
 10
9.7408180796551278
 20
-341.77917640759892
 30
0.0
 11
10.202754659902441
 21
-341.7516286460467
 31
0.0
  0
LINE
  8
DETAIL
  6
CONTINUOUS
 62
     5
 10
10.202754659902441
 20
-341.7516286460467
 30
0.0
 11
10.566119455838249
 21
-341.72268086789569
 31
0.0
  0
LINE
  8
DETAIL
  6
CONTINUOUS
 62
     5
 10
10.566119455838249
 20
-341.72268086789569
 30
0.0
 11
10.828842942668359
 21
-341.69262980701768
 31
0.0
  0
LINE
  8
DETAIL
  6
CONTINUOUS
 62
     5
 10
10.828842942668359
 20
-341.69262980701768
 30
0.0
 11
10.98692180098806
 21
-341.66175099839091
 31
0.0
  0
LINE
  8
DETAIL
  6
CONTINUOUS
 62
     5
 10
10.98692180098806
 20
-341.66175099839091
 30
0.0
 11
11.04033587809408
 21
-341.63035148404362
 31
0.0
  0
LINE
  8
DETAIL
  6
CONTINUOUS
 62
     5
 10
0.0396248124758927
 20
-341.95801851989592
 30
0.0
 11
1.391489362878076
 21
-341.95859897401942
 31
0.0
  0
LINE
  8
DETAIL
  6
CONTINUOUS
 62
     5
 10
1.391489362878076
 20
-341.95859897401942
 30
0.0
 11
2.709888586491672
 21
-341.95482276703137
 31
0.0
  0
LINE
  8
DETAIL
  6
CONTINUOUS
 62
     5
 10
2.709888586491672
 20
-341.95482276703137
 30
0.0
 11
4.0027715962684169
 21
-341.94662526845178
 31
0.0
  0
LINE
  8
DETAIL
  6
CONTINUOUS
 62
     5
 10
4.0027715962684169
 20
-341.94662526845178
 30
0.0
 11
5.2462910527497684
 21
-341.93420037031979
 31
0.0
  0
LINE
  8
DETAIL
  6
CONTINUOUS
 62
     5
 10
5.2462910527497684
 20
-341.93420037031979
 30
0.0
 11
6.4237306049292329
 21
-341.91762595983352
 31
0.0
  0
LINE
  8
DETAIL
  6
CONTINUOUS
 62
     5
 10
6.4237306049292329
 20
-341.91762595983352
 30
0.0
 11
7.5216464002023713
 21
-341.89718542243611
 31
0.0
  0
LINE
  8
DETAIL
  6
CONTINUOUS
 62
     5
 10
7.5216464002023713
 20
-341.89718542243611
 30
0.0
 11
8.5246007591825901
 21
-341.87306521066557
 31
0.0
  0
LINE
  8
DETAIL
  6
CONTINUOUS
 62
     5
 10
8.5246007591825901
 20
-341.87306521066557
 30
0.0
 11
9.421858811006814
 21
-341.84563400763813
 31
0.0
  0
LINE
  8
DETAIL
  6
CONTINUOUS
 62
     5
 10
9.421858811006814
 20
-341.84563400763813
 30
0.0
 11
10.20003565721157
 21
-341.81517748258892
 31
0.0
  0
LINE
  8
DETAIL
  6
CONTINUOUS
 62
     5
 10
10.20003565721157
 20
-341.81517748258892
 30
0.0
 11
10.851643700011101
 21
-341.78213112909532
 31
0.0
  0
LINE
  8
DETAIL
  6
CONTINUOUS
 62
     5
 10
10.851643700011101
 20
-341.78213112909532
 30
0.0
 11
11.36602199696819
 21
-341.74686550825521
 31
0.0
  0
LINE
  8
DETAIL
  6
CONTINUOUS
 62
     5
 10
11.36602199696819
 20
-341.74686550825521
 30
0.0
 11
11.739305682779451
 21
-341.70986108634042
 31
0.0
  0
LINE
  8
DETAIL
  6
CONTINUOUS
 62
     5
 10
11.739305682779451
 20
-341.70986108634042
 30
0.0
 11
11.964092354959581
 21
-341.67155473492778
 31
0.0
  0
LINE
  8
DETAIL
  6
CONTINUOUS
 62
     5
 10
11.964092354959581
 20
-341.67155473492778
 30
0.0
 11
12.04033368081889
 21
-341.6324478011984
 31
0.0
  0
LINE
  8
DETAIL
  6
CONTINUOUS
 62
     5
 10
258.00290102724222
 20
-337.74875085420962
 30
0.0
 11
257.92804811359701
 21
-337.75109600171561
 31
0.0
  0
LINE
  8
DETAIL
  6
CONTINUOUS
 62
     5
 10
-10.79294127419092
 20
-341.43396238628168
 30
0.0
 11
-11.285301900926189
 21
-341.46771848242508
 31
0.0
  0
LINE
  8
DETAIL
  6
CONTINUOUS
 62
     5
 10
-11.285301900926189
 20
-341.46771848242508
 30
0.0
 11
-11.658585586536899
 21
-341.50472290414012
 31
0.0
  0
LINE
  8
DETAIL
  6
CONTINUOUS
 62
     5
 10
-11.658585586536899
 20
-341.50472290414012
 30
0.0
 11
-11.883372258716181
 21
-341.54302925555271
 31
0.0
  0
LINE
  8
DETAIL
  6
CONTINUOUS
 62
     5
 10
-11.883372258716181
 20
-341.54302925555271
 30
0.0
 11
-11.95961358457583
 21
-341.58213618948201
 31
0.0
  0
LINE
  8
DETAIL
  6
CONTINUOUS
 62
     5
 10
257.93332575854743
 20
-337.75064704574669
 30
0.0
 11
257.91145618312572
 21
-337.7525074360683
 31
0.0
  0
LINE
  8
DETAIL
  6
CONTINUOUS
 62
     5
 10
-10.79021024989123
 20
-341.53017545278152
 30
0.0
 11
-10.9062017047446
 21
-341.55283299208958
 31
0.0
  0
LINE
  8
DETAIL
  6
CONTINUOUS
 62
     5
 10
-10.9062017047446
 20
-341.55283299208958
 30
0.0
 11
-10.959615781851079
 21
-341.58423250663679
 31
0.0
  0
LINE
  8
DETAIL
  6
CONTINUOUS
 62
     5
 10
1.530137498836496
 20
-365.45654272817472
 30
0.0
 11
1.396985863929046
 21
-365.49726792860258
 31
0.0
  0
LINE
  8
DETAIL
  6
CONTINUOUS
 62
     5
 10
1.396985863929046
 20
-365.49726792860258
 30
0.0
 11
1.276898692521399
 21
-365.53055914255492
 31
0.0
  0
LINE
  8
DETAIL
  6
CONTINUOUS
 62
     5
 10
1.276898692521399
 20
-365.53055914255492
 30
0.0
 11
1.1727551316932929
 21
-365.55684438077782
 31
0.0
  0
LINE
  8
DETAIL
  6
CONTINUOUS
 62
     5
 10
1.1727551316932929
 20
-365.55684438077782
 30
0.0
 11
1.0772617363159609
 21
-365.57887031913202
 31
0.0
  0
LINE
  8
DETAIL
  6
CONTINUOUS
 62
     5
 10
1.0772617363159609
 20
-365.57887031913202
 30
0.0
 11
0.9831709744324257
 21
-365.59865708653058
 31
0.0
  0
LINE
  8
DETAIL
  6
CONTINUOUS
 62
     5
 10
0.9831709744324257
 20
-365.59865708653058
 30
0.0
 11
0.8925087173578277
 21
-365.61594562727362
 31
0.0
  0
LINE
  8
DETAIL
  6
CONTINUOUS
 62
     5
 10
0.8925087173578277
 20
-365.61594562727362
 30
0.0
 11
0.8045015352098517
 21
-365.63107710315597
 31
0.0
  0
LINE
  8
DETAIL
  6
CONTINUOUS
 62
     5
 10
0.8045015352098517
 20
-365.63107710315597
 30
0.0
 11
0.7202666188036346
 21
-365.64405076936242
 31
0.0
  0
LINE
  8
DETAIL
  6
CONTINUOUS
 62
     5
 10
0.7202666188036346
 20
-365.64405076936242
 30
0.0
 11
0.6411064120326273
 21
-365.65490792151888
 31
0.0
  0
LINE
  8
DETAIL
  6
CONTINUOUS
 62
     5
 10
0.6411064120326273
 20
-365.65490792151888
 30
0.0
 11
0.5657018314246898
 21
-365.66405506950201
 31
0.0
  0
LINE
  8
DETAIL
  6
CONTINUOUS
 62
     5
 10
0.5657018314246898
 20
-365.66405506950201
 30
0.0
 11
0.4930464749521661
 21
-365.67177194958782
 31
0.0
  0
LINE
  8
DETAIL
  6
CONTINUOUS
 62
     5
 10
0.4930464749521661
 20
-365.67177194958782
 30
0.0
 11
0.4236587185294525
 21
-365.67814157703953
 31
0.0
  0
LINE
  8
DETAIL
  6
CONTINUOUS
 62
     5
 10
0.4236587185294525
 20
-365.67814157703953
 30
0.0
 11
0.3579092472049865
 21
-365.6832789935832
 31
0.0
  0
LINE
  8
DETAIL
  6
CONTINUOUS
 62
     5
 10
0.3579092472049865
 20
-365.6832789935832
 30
0.0
 11
0.2955061578061873
 21
-365.68734902765942
 31
0.0
  0
LINE
  8
DETAIL
  6
CONTINUOUS
 62
     5
 10
0.2955061578061873
 20
-365.68734902765942
 30
0.0
 11
0.2363774853140512
 21
-365.69048308109541
 31
0.0
  0
LINE
  8
DETAIL
  6
CONTINUOUS
 62
     5
 10
0.2363774853140512
 20
-365.69048308109541
 30
0.0
 11
0.1807841883154424
 21
-365.6927898145816
 31
0.0
  0
LINE
  8
DETAIL
  6
CONTINUOUS
 62
     5
 10
0.1807841883154424
 20
-365.6927898145816
 30
0.0
 11
0.128181586143512
 21
-365.69440216118687
 31
0.0
  0
LINE
  8
DETAIL
  6
CONTINUOUS
 62
     5
 10
0.128181586143512
 20
-365.69440216118687
 30
0.0
 11
0.0800806901136184
 21
-365.69539167702783
 31
0.0
  0
LINE
  8
DETAIL
  6
CONTINUOUS
 62
     5
 10
0.0800806901136184
 20
-365.69539167702783
 30
0.0
 11
0.0356522449348518
 21
-365.69589434762042
 31
0.0
  0
LINE
  8
DETAIL
  6
CONTINUOUS
 62
     5
 10
0.0356522449348518
 20
-365.69589434762042
 30
0.0
 11
-0.0091838112062987
 21
-365.6960014040622
 31
0.0
  0
LINE
  8
DETAIL
  6
CONTINUOUS
 62
     5
 10
1.530137498836496
 20
-365.45654272817472
 30
0.0
 11
10.916703597171651
 21
-362.44205608325478
 31
0.0
  0
LINE
  8
DETAIL
  6
CONTINUOUS
 62
     5
 10
10.916703605977769
 20
-362.44205608047338
 30
0.0
 11
11.02250964177045
 21
-362.40429800211632
 31
0.0
  0
LINE
  8
DETAIL
  6
CONTINUOUS
 62
     5
 10
11.02250964177045
 20
-362.40429800211632
 30
0.0
 11
11.14228452298056
 21
-362.35148241000411
 31
0.0
  0
LINE
  8
DETAIL
  6
CONTINUOUS
 62
     5
 10
11.14228452298056
 20
-362.35148241000411
 30
0.0
 11
11.273362363834339
 21
-362.27940064534721
 31
0.0
  0
LINE
  8
DETAIL
  6
CONTINUOUS
 62
     5
 10
11.273362363834339
 20
-362.27940064534721
 30
0.0
 11
11.41446352241655
 21
-362.18169608584247
 31
0.0
  0
LINE
  8
DETAIL
  6
CONTINUOUS
 62
     5
 10
11.41446352241655
 20
-362.18169608584247
 30
0.0
 11
11.5636444152201
 21
-362.04917080871292
 31
0.0
  0
LINE
  8
DETAIL
  6
CONTINUOUS
 62
     5
 10
11.5636444152201
 20
-362.04917080871292
 30
0.0
 11
11.70550077140928
 21
-361.8832414828334
 31
0.0
  0
LINE
  8
DETAIL
  6
CONTINUOUS
 62
     5
 10
11.70550077140928
 20
-361.8832414828334
 30
0.0
 11
11.82804923228713
 21
-361.68739974015602
 31
0.0
  0
LINE
  8
DETAIL
  6
CONTINUOUS
 62
     5
 10
11.82804923228713
 20
-361.68739974015602
 30
0.0
 11
11.922096512241129
 21
-361.46709438001108
 31
0.0
  0
LINE
  8
DETAIL
  6
CONTINUOUS
 62
     5
 10
11.922096512241129
 20
-361.46709438001108
 30
0.0
 11
11.980357992779769
 21
-361.23336346698079
 31
0.0
  0
LINE
  8
DETAIL
  6
CONTINUOUS
 62
     5
 10
11.980357992779769
 20
-361.23336346698079
 30
0.0
 11
12.00070886834339
 21
-360.98951389226568
 31
0.0
  0
LINE
  8
DETAIL
  6
CONTINUOUS
 62
     5
 10
12.000708868344191
 20
-360.98951389186573
 30
0.0
 11
11.94462375540013
 21
-361.02324462259702
 31
0.0
  0
LINE
  8
DETAIL
  6
CONTINUOUS
 62
     5
 10
11.94462375540013
 20
-361.02324462259702
 30
0.0
 11
11.772794324118371
 21
-361.05704643768479
 31
0.0
  0
LINE
  8
DETAIL
  6
CONTINUOUS
 62
     5
 10
11.772794324118371
 20
-361.05704643768479
 30
0.0
 11
11.48699708959623
 21
-361.08993761870983
 31
0.0
  0
LINE
  8
DETAIL
  6
CONTINUOUS
 62
     5
 10
11.48699708959623
 20
-361.08993761870983
 30
0.0
 11
11.08997931954451
 21
-361.12161102014312
 31
0.0
  0
LINE
  8
DETAIL
  6
CONTINUOUS
 62
     5
 10
11.08997931954451
 20
-361.12161102014312
 30
0.0
 11
10.585805900337959
 21
-361.15174939777751
 31
0.0
  0
LINE
  8
DETAIL
  6
CONTINUOUS
 62
     5
 10
259.10227016379849
 20
-336.59803349554733
 30
0.0
 11
258.50243349353832
 21
-336.58403955109691
 31
0.0
  0
LINE
  8
DETAIL
  6
CONTINUOUS
 62
     5
 10
-260.36464775991283
 20
-320.15509881170073
 30
0.0
 11
-259.86464885855042
 21
-320.15614697027797
 31
0.0
  0
LINE
  8
DETAIL
  6
CONTINUOUS
 62
     5
 10
259.63420965697242
 20
-321.24518373222418
 30
0.0
 11
259.13421075561001
 21
-321.24413557364682
 31
0.0
  0
LINE
  8
DETAIL
  6
CONTINUOUS
 62
     5
 10
259.14825608054753
 20
-314.54415029539081
 30
0.0
 11
259.74825476218172
 21
-314.54540808568368
 31
0.0
  0
LINE
  8
DETAIL
  6
CONTINUOUS
 62
     5
 10
-259.85060353361291
 20
-313.45616169202208
 30
0.0
 11
-260.45060221524813
 21
-313.45490390172921
 31
0.0
  0
LINE
  8
DETAIL
  6
CONTINUOUS
 62
     5
 10
-259.89604820315401
 20
-335.51004602800703
 30
0.0
 11
-259.29615813375108
 21
-335.49856709722798
 31
0.0
  0
LINE
  8
DETAIL
  6
CONTINUOUS
 62
     5
 10
10.891767622344499
 20
-340.94304732646418
 30
0.0
 11
10.839439148660061
 21
-340.98663801296772
 31
0.0
  0
LINE
  8
DETAIL
  6
CONTINUOUS
 62
     5
 10
10.839439148660061
 20
-340.98663801296772
 30
0.0
 11
10.68311358247507
 21
-341.03015752302588
 31
0.0
  0
LINE
  8
DETAIL
  6
CONTINUOUS
 62
     5
 10
10.68311358247507
 20
-341.03015752302588
 30
0.0
 11
10.4243063627132
 21
-341.07261354689888
 31
0.0
  0
LINE
  8
DETAIL
  6
CONTINUOUS
 62
     5
 10
10.4243063627132
 20
-341.07261354689888
 30
0.0
 11
10.06550994458269
 21
-341.11359720986508
 31
0.0
  0
LINE
  8
DETAIL
  6
CONTINUOUS
 62
     5
 10
10.06550994458269
 20
-341.11359720986508
 30
0.0
 11
9.6101797338824326
 21
-341.15271381688302
 31
0.0
  0
LINE
  8
DETAIL
  6
CONTINUOUS
 62
     5
 10
9.6101797338824326
 20
-341.15271381688302
 30
0.0
 11
9.0627008089604146
 21
-341.1895866536405
 31
0.0
  0
LINE
  8
DETAIL
  6
CONTINUOUS
 62
     5
 10
9.0627008089604146
 20
-341.1895866536405
 30
0.0
 11
8.4283456916160162
 21
-341.22386061443518
 31
0.0
  0
LINE
  8
DETAIL
  6
CONTINUOUS
 62
     5
 10
8.4283456916160162
 20
-341.22386061443518
 30
0.0
 11
7.7132235680176109
 21
-341.25520562253331
 31
0.0
  0
LINE
  8
DETAIL
  6
CONTINUOUS
 62
     5
 10
7.7132235680176109
 20
-341.25520562253331
 30
0.0
 11
6.9242214555131341
 21
-341.28331980824419
 31
0.0
  0
LINE
  8
DETAIL
  6
CONTINUOUS
 62
     5
 10
6.9242214555131341
 20
-341.28331980824419
 30
0.0
 11
6.068937875386041
 21
-341.30793241668363
 31
0.0
  0
LINE
  8
DETAIL
  6
CONTINUOUS
 62
     5
 10
6.068937875386041
 20
-341.30793241668363
 30
0.0
 11
5.1556096764321069
 21
-341.32880641477789
 31
0.0
  0
LINE
  8
DETAIL
  6
CONTINUOUS
 62
     5
 10
5.1556096764321069
 20
-341.32880641477789
 30
0.0
 11
4.1930327081964833
 21
-341.34574077477612
 31
0.0
  0
LINE
  8
DETAIL
  6
CONTINUOUS
 62
     5
 10
4.1930327081964833
 20
-341.34574077477612
 30
0.0
 11
3.1904771131303851
 21
-341.35857240927788
 31
0.0
  0
LINE
  8
DETAIL
  6
CONTINUOUS
 62
     5
 10
3.1904771131303851
 20
-341.35857240927788
 30
0.0
 11
2.1575980497027558
 21
-341.36717774268692
 31
0.0
  0
LINE
  8
DETAIL
  6
CONTINUOUS
 62
     5
 10
2.1575980497027558
 20
-341.36717774268692
 30
0.0
 11
1.104342708100319
 21
-341.37147390108538
 31
0.0
  0
LINE
  8
DETAIL
  6
CONTINUOUS
 62
     5
 10
1.104342708100319
 20
-341.37147390108538
 30
0.0
 11
0.0408545127453408
 21
-341.3714195100182
 31
0.0
  0
LINE
  8
DETAIL
  6
CONTINUOUS
 62
     5
 10
258.55245003322187
 20
-312.54289689964838
 30
0.0
 11
259.1524487148572
 21
-312.54415468994119
 31
0.0
  0
LINE
  8
DETAIL
  6
CONTINUOUS
 62
     5
 10
-259.24641221766882
 20
-311.45742387686539
 30
0.0
 11
-259.84641089930318
 21
-311.45616608657252
 31
0.0
  0
LINE
  8
DETAIL
  6
CONTINUOUS
 62
     5
 10
259.15454503201198
 20
-311.54415688721639
 30
0.0
 11
259.75454371364629
 21
-311.54541467750943
 31
0.0
  0
LINE
  8
DETAIL
  6
CONTINUOUS
 62
     5
 10
-259.84431458214829
 20
-310.45616828384772
 30
0.0
 11
-260.44431326378361
 21
-310.45491049355479
 31
0.0
  0
LINE
  8
DETAIL
  6
CONTINUOUS
 62
     5
 10
-260.94011953083628
 20
-308.45386672952787
 30
0.0
 11
-260.34012084920101
 21
-308.4551245198208
 31
0.0
  0
LINE
  8
DETAIL
  6
CONTINUOUS
 62
     5
 10
258.55873898468639
 20
-309.54290349147402
 30
0.0
 11
259.15873766632171
 21
-309.54416128176689
 31
0.0
  0
LINE
  8
DETAIL
  6
CONTINUOUS
 62
     5
 10
259.75873634795607
 20
-309.54541907205981
 30
0.0
 11
259.15873766632171
 21
-309.54416128176689
 31
0.0
  0
LINE
  8
DETAIL
  6
CONTINUOUS
 62
     5
 10
-259.74012216756671
 20
-308.45638231011372
 30
0.0
 11
-260.34012084920101
 21
-308.4551245198208
 31
0.0
  0
LINE
  8
DETAIL
  6
CONTINUOUS
 62
     5
 10
-246.73176546352519
 20
-304.48364322222773
 30
0.0
 11
-245.73176766080039
 21
-304.48573953938262
 31
0.0
  0
LINE
  8
DETAIL
  6
CONTINUOUS
 62
     5
 10
-244.1317711764404
 20
-304.48909364683038
 30
0.0
 11
-167.6319392679948
 21
-304.64946190917658
 31
0.0
  0
LINE
  8
DETAIL
  6
CONTINUOUS
 62
     5
 10
-167.6319392679948
 20
-304.64946190917658
 30
0.0
 11
-165.73194344281811
 21
-304.65344491177069
 31
0.0
  0
LINE
  8
DETAIL
  6
CONTINUOUS
 62
     5
 10
-165.73194344281811
 20
-304.65344491177069
 30
0.0
 11
71.867534484589783
 21
-305.15152986776383
 31
0.0
  0
LINE
  8
DETAIL
  6
CONTINUOUS
 62
     5
 10
246.06715171924611
 20
-305.51670831613922
 30
0.0
 11
256.96712776894577
 21
-305.53955817312698
 31
0.0
  0
LINE
  8
DETAIL
  6
CONTINUOUS
 62
     5
 10
246.06715171924611
 20
-305.51670831613922
 30
0.0
 11
245.06715391652139
 21
-305.51461199898438
 31
0.0
  0
LINE
  8
DETAIL
  6
CONTINUOUS
 62
     5
 10
-246.73176546352519
 20
-304.48364322222773
 30
0.0
 11
-258.13174041458728
 21
-304.45974520666238
 31
0.0
  0
LINE
  8
DETAIL
  6
CONTINUOUS
 62
     5
 10
10.86759155839616
 20
-341.68506072977408
 30
0.0
 11
10.891767622344499
 21
-340.94304732646418
 31
0.0
  0
LINE
  8
DETAIL
  6
CONTINUOUS
 62
     5
 10
10.89177756076009
 20
-340.94247413363883
 30
0.0
 11
10.891767622344499
 21
-340.94304732646418
 31
0.0
  0
LINE
  8
DETAIL
  6
CONTINUOUS
 62
     5
 10
12.04033368081889
 20
-341.6324478011984
 30
0.0
 11
12.00070886834339
 21
-360.98951389226568
 31
0.0
  0
LINE
  8
DETAIL
  6
CONTINUOUS
 62
     5
 10
10.89177756076009
 20
-340.94247413363883
 30
0.0
 11
10.899551614288949
 21
-337.23404841708827
 31
0.0
  0
LINE
  8
DETAIL
  6
CONTINUOUS
 62
     5
 10
-10.80817475836739
 20
-340.89698405137852
 30
0.0
 11
-10.80040070483858
 21
-337.18855833482809
 31
0.0
  0
LINE
  8
DETAIL
  6
CONTINUOUS
 62
     5
 10
-11.95961358457583
 20
-341.58213618948201
 30
0.0
 11
-11.999238397051331
 21
-360.93920228054918
 31
0.0
  0
LINE
  8
DETAIL
  6
CONTINUOUS
 62
     5
 10
-10.80816722342183
 20
-340.89755728083372
 30
0.0
 11
-10.80817475836739
 21
-340.89698405137852
 31
0.0
  0
LINE
  8
DETAIL
  6
CONTINUOUS
 62
     5
 10
-10.78710235597646
 20
-341.63966552369249
 30
0.0
 11
-10.80816722342183
 21
-340.89755728083372
 31
0.0
  0
LINE
  8
DETAIL
  6
CONTINUOUS
 62
     5
 10
-11.999238397051331
 20
-360.93920228054918
 30
0.0
 11
-11.98059508904589
 21
-361.17885740982399
 31
0.0
  0
LINE
  8
DETAIL
  6
CONTINUOUS
 62
     5
 10
-11.98059508904589
 20
-361.17885740982399
 30
0.0
 11
-11.924325392383309
 21
-361.41195733773918
 31
0.0
  0
LINE
  8
DETAIL
  6
CONTINUOUS
 62
     5
 10
-11.924325392383309
 20
-361.41195733773918
 30
0.0
 11
-11.83044999167493
 21
-361.63598382179993
 31
0.0
  0
LINE
  8
DETAIL
  6
CONTINUOUS
 62
     5
 10
-11.83044999167493
 20
-361.63598382179993
 30
0.0
 11
-11.706521206844119
 21
-361.83587908746239
 31
0.0
  0
LINE
  8
DETAIL
  6
CONTINUOUS
 62
     5
 10
-11.706521206844119
 20
-361.83587908746239
 30
0.0
 11
-11.564425462869741
 21
-362.00291919784121
 31
0.0
  0
LINE
  8
DETAIL
  6
CONTINUOUS
 62
     5
 10
-11.564425462869741
 20
-362.00291919784121
 30
0.0
 11
-11.415487094953329
 21
-362.13579715566641
 31
0.0
  0
LINE
  8
DETAIL
  6
CONTINUOUS
 62
     5
 10
-11.415487094953329
 20
-362.13579715566641
 30
0.0
 11
-11.27438926550758
 21
-362.23392943689038
 31
0.0
  0
LINE
  8
DETAIL
  6
CONTINUOUS
 62
     5
 10
-11.27438926550758
 20
-362.23392943689038
 30
0.0
 11
-11.143694918055591
 21
-362.30615930900183
 31
0.0
  0
LINE
  8
DETAIL
  6
CONTINUOUS
 62
     5
 10
-11.143694918055591
 20
-362.30615930900183
 30
0.0
 11
-11.025124283664351
 21
-362.35881438575461
 31
0.0
  0
LINE
  8
DETAIL
  6
CONTINUOUS
 62
     5
 10
-11.025124283664351
 20
-362.35881438575461
 30
0.0
 11
-10.921332639332601
 21
-362.3962765258737
 31
0.0
  0
LINE
  8
DETAIL
  6
CONTINUOUS
 62
     5
 10
11.04033587809408
 20
-341.63035148404362
 30
0.0
 11
10.98705391684155
 21
-341.59872830026922
 31
0.0
  0
LINE
  8
DETAIL
  6
CONTINUOUS
 62
     5
 10
10.98705391684155
 20
-341.59872830026922
 30
0.0
 11
10.87115847601558
 21
-341.57558465141568
 31
0.0
  0
LINE
  8
DETAIL
  6
CONTINUOUS
 62
     5
 10
-10.959615781851079
 20
-341.58423250663679
 30
0.0
 11
-10.906333820598149
 21
-341.61585569021122
 31
0.0
  0
LINE
  8
DETAIL
  6
CONTINUOUS
 62
     5
 10
-10.906333820598149
 20
-341.61585569021122
 30
0.0
 11
-10.748385814916841
 21
-341.64739699283001
 31
0.0
  0
LINE
  8
DETAIL
  6
CONTINUOUS
 62
     5
 10
-10.748385814916841
 20
-341.64739699283001
 30
0.0
 11
-10.485790630019491
 21
-341.67854929067119
 31
0.0
  0
LINE
  8
DETAIL
  6
CONTINUOUS
 62
     5
 10
-10.485790630019491
 20
-341.67854929067119
 30
0.0
 11
-10.12255039491026
 21
-341.70902026676038
 31
0.0
  0
LINE
  8
DETAIL
  6
CONTINUOUS
 62
     5
 10
-10.12255039491026
 20
-341.70902026676038
 30
0.0
 11
-9.6607333721030955
 21
-341.73850451309261
 31
0.0
  0
LINE
  8
DETAIL
  6
CONTINUOUS
 62
     5
 10
-9.6607333721030955
 20
-341.73850451309261
 30
0.0
 11
-9.1061600260878777
 21
-341.76673418014002
 31
0.0
  0
LINE
  8
DETAIL
  6
CONTINUOUS
 62
     5
 10
-9.1061600260878777
 20
-341.76673418014002
 30
0.0
 11
-8.4628685345065264
 21
-341.79341731195939
 31
0.0
  0
LINE
  8
DETAIL
  6
CONTINUOUS
 62
     5
 10
-8.4628685345065264
 20
-341.79341731195939
 30
0.0
 11
-7.7382740202235141
 21
-341.81832081958993
 31
0.0
  0
LINE
  8
DETAIL
  6
CONTINUOUS
 62
     5
 10
-7.7382740202235141
 20
-341.81832081958993
 30
0.0
 11
-6.9382293909868054
 21
-341.84117741929322
 31
0.0
  0
LINE
  8
DETAIL
  6
CONTINUOUS
 62
     5
 10
-6.9382293909868054
 20
-341.84117741929322
 30
0.0
 11
-6.0714594691864363
 21
-341.86179773985782
 31
0.0
  0
LINE
  8
DETAIL
  6
CONTINUOUS
 62
     5
 10
-6.0714594691864363
 20
-341.86179773985782
 30
0.0
 11
-5.1454069691172322
 21
-341.87994944108442
 31
0.0
  0
LINE
  8
DETAIL
  6
CONTINUOUS
 62
     5
 10
-5.1454069691172322
 20
-341.87994944108442
 30
0.0
 11
-4.1697711218108111
 21
-341.89549414720398
 31
0.0
  0
LINE
  8
DETAIL
  6
CONTINUOUS
 62
     5
 10
-4.1697711218108111
 20
-341.89549414720398
 30
0.0
 11
-3.1532984287965178
 21
-341.90824338996123
 31
0.0
  0
LINE
  8
DETAIL
  6
CONTINUOUS
 62
     5
 10
-3.1532984287965178
 20
-341.90824338996123
 30
0.0
 11
-2.106289794681345
 21
-341.91811510721323
 31
0.0
  0
LINE
  8
DETAIL
  6
CONTINUOUS
 62
     5
 10
-2.106289794681345
 20
-341.91811510721323
 30
0.0
 11
-1.043613675042536
 21
-341.92494630320277
 31
0.0
  0
LINE
  8
DETAIL
  6
CONTINUOUS
 62
     5
 10
-1.043613675042536
 20
-341.92494630320277
 30
0.0
 11
0.0396860821130645
 21
-341.92879130951621
 31
0.0
  0
LINE
  8
DETAIL
  6
CONTINUOUS
 62
     5
 10
12.04033368081889
 20
-341.6324478011984
 30
0.0
 11
11.96425698576383
 21
-341.59302155968732
 31
0.0
  0
LINE
  8
DETAIL
  6
CONTINUOUS
 62
     5
 10
11.96425698576383
 20
-341.59302155968732
 30
0.0
 11
11.739632893424529
 21
-341.55377309870943
 31
0.0
  0
LINE
  8
DETAIL
  6
CONTINUOUS
 62
     5
 10
11.739632893424529
 20
-341.55377309870943
 30
0.0
 11
11.36650763410529
 21
-341.51520396368039
 31
0.0
  0
LINE
  8
DETAIL
  6
CONTINUOUS
 62
     5
 10
11.36650763410529
 20
-341.51520396368039
 30
0.0
 11
10.87429286142839
 21
-341.47938388070202
 31
0.0
  0
LINE
  8
DETAIL
  6
CONTINUOUS
 62
     5
 10
-11.95961358457583
 20
-341.58213618948201
 30
0.0
 11
-11.88353688952037
 21
-341.62156243079318
 31
0.0
  0
LINE
  8
DETAIL
  6
CONTINUOUS
 62
     5
 10
-11.88353688952037
 20
-341.62156243079318
 30
0.0
 11
-11.65891279718198
 21
-341.66081089177112
 31
0.0
  0
LINE
  8
DETAIL
  6
CONTINUOUS
 62
     5
 10
-11.65891279718198
 20
-341.66081089177112
 30
0.0
 11
-11.285787538063291
 21
-341.69938002699968
 31
0.0
  0
LINE
  8
DETAIL
  6
CONTINUOUS
 62
     5
 10
-11.285787538063291
 20
-341.69938002699968
 30
0.0
 11
-10.771561617350811
 21
-341.73680193324492
 31
0.0
  0
LINE
  8
DETAIL
  6
CONTINUOUS
 62
     5
 10
-10.771561617350811
 20
-341.73680193324492
 30
0.0
 11
-10.12009785276501
 21
-341.77257994452452
 31
0.0
  0
LINE
  8
DETAIL
  6
CONTINUOUS
 62
     5
 10
-10.12009785276501
 20
-341.77257994452452
 30
0.0
 11
-9.3420555386187516
 21
-341.80629880566448
 31
0.0
  0
LINE
  8
DETAIL
  6
CONTINUOUS
 62
     5
 10
-9.3420555386187516
 20
-341.80629880566448
 30
0.0
 11
-8.4449203818277851
 21
-341.83749163422323
 31
0.0
  0
LINE
  8
DETAIL
  6
CONTINUOUS
 62
     5
 10
-8.4449203818277851
 20
-341.83749163422323
 30
0.0
 11
-7.4420759649091792
 21
-341.86581664561578
 31
0.0
  0
LINE
  8
DETAIL
  6
CONTINUOUS
 62
     5
 10
-7.4420759649091792
 20
-341.86581664561578
 30
0.0
 11
-6.3442555188291294
 21
-341.89086015267748
 31
0.0
  0
LINE
  8
DETAIL
  6
CONTINUOUS
 62
     5
 10
-6.3442555188291294
 20
-341.89086015267748
 30
0.0
 11
-5.1668958053626284
 21
-341.91237098010743
 31
0.0
  0
LINE
  8
DETAIL
  6
CONTINUOUS
 62
     5
 10
-5.1668958053626284
 20
-341.91237098010743
 30
0.0
 11
-3.9234393714270368
 21
-341.93000937991752
 31
0.0
  0
LINE
  8
DETAIL
  6
CONTINUOUS
 62
     5
 10
-3.9234393714270368
 20
-341.93000937991752
 30
0.0
 11
-2.6306020939553041
 21
-341.94362738020322
 31
0.0
  0
LINE
  8
DETAIL
  6
CONTINUOUS
 62
     5
 10
-2.6306020939553041
 20
-341.94362738020322
 30
0.0
 11
-1.312230290092941
 21
-341.95293110767523
 31
0.0
  0
LINE
  8
DETAIL
  6
CONTINUOUS
 62
     5
 10
-1.312230290092941
 20
-341.95293110767523
 30
0.0
 11
0.0396248124758927
 21
-341.95801851989592
 31
0.0
  0
LINE
  8
DETAIL
  6
CONTINUOUS
 62
     5
 10
-1.5474876317594519
 20
-365.45009103564092
 30
0.0
 11
-10.921332618146611
 21
-362.3962765327181
 31
0.0
  0
LINE
  8
DETAIL
  6
CONTINUOUS
 62
     5
 10
-259.29636354935337
 20
-335.53200819709122
 30
0.0
 11
-259.73509100639512
 21
-306.05638758357412
 31
0.0
  0
LINE
  8
DETAIL
  6
CONTINUOUS
 62
     5
 10
-259.89626539495919
 20
-335.48455710269792
 30
0.0
 11
-260.34012084920101
 21
-308.4551245198208
 31
0.0
  0
LINE
  8
DETAIL
  6
CONTINUOUS
 62
     5
 10
-260.36464775991283
 20
-320.15509881170073
 30
0.0
 11
-260.35060243497531
 21
-313.45511353344477
 31
0.0
  0
LINE
  8
DETAIL
  6
CONTINUOUS
 62
     5
 10
-260.94011953083628
 20
-308.45386672952787
 30
0.0
 11
-260.45060221524813
 21
-313.45490390172921
 31
0.0
  0
LINE
  8
DETAIL
  6
CONTINUOUS
 62
     5
 10
-259.89626539495919
 20
-335.48455710269792
 30
0.0
 11
-259.89604820315401
 21
-335.51004602800703
 31
0.0
  0
LINE
  8
DETAIL
  6
CONTINUOUS
 62
     5
 10
-259.89604820315401
 20
-335.51004602800703
 30
0.0
 11
-259.88967049094458
 21
-335.61170211768069
 31
0.0
  0
LINE
  8
DETAIL
  6
CONTINUOUS
 62
     5
 10
-259.88967049094458
 20
-335.61170211768069
 30
0.0
 11
-259.87445732923499
 21
-335.71277094556871
 31
0.0
  0
LINE
  8
DETAIL
  6
CONTINUOUS
 62
     5
 10
-259.87445732923499
 20
-335.71277094556871
 30
0.0
 11
-259.85038607721663
 21
-335.81264880640651
 31
0.0
  0
LINE
  8
DETAIL
  6
CONTINUOUS
 62
     5
 10
-259.85038607721663
 20
-335.81264880640651
 30
0.0
 11
-259.81769069853641
 21
-335.91007211855538
 31
0.0
  0
LINE
  8
DETAIL
  6
CONTINUOUS
 62
     5
 10
-259.81769069853641
 20
-335.91007211855538
 30
0.0
 11
-259.77687833191129
 21
-336.00376750709449
 31
0.0
  0
LINE
  8
DETAIL
  6
CONTINUOUS
 62
     5
 10
-259.77687833191129
 20
-336.00376750709449
 30
0.0
 11
-259.72817290612039
 21
-336.0934640630021
 31
0.0
  0
LINE
  8
DETAIL
  6
CONTINUOUS
 62
     5
 10
-259.72817290612039
 20
-336.0934640630021
 30
0.0
 11
-259.67187150062631
 21
-336.17865394678972
 31
0.0
  0
LINE
  8
DETAIL
  6
CONTINUOUS
 62
     5
 10
-259.67187150062631
 20
-336.17865394678972
 30
0.0
 11
-259.60827636382788
 21
-336.2588324339402
 31
0.0
  0
LINE
  8
DETAIL
  6
CONTINUOUS
 62
     5
 10
-259.60827636382788
 20
-336.2588324339402
 30
0.0
 11
-259.53751456364409
 21
-336.33367115735712
 31
0.0
  0
LINE
  8
DETAIL
  6
CONTINUOUS
 62
     5
 10
-259.53751456364409
 20
-336.33367115735712
 30
0.0
 11
-259.46046646836072
 21
-336.40211824899819
 31
0.0
  0
LINE
  8
DETAIL
  6
CONTINUOUS
 62
     5
 10
-259.46046646836072
 20
-336.40211824899819
 30
0.0
 11
-259.37820496302942
 21
-336.46331758587468
 31
0.0
  0
LINE
  8
DETAIL
  6
CONTINUOUS
 62
     5
 10
-259.37820496302942
 20
-336.46331758587468
 30
0.0
 11
-259.29105659335869
 21
-336.51714361016758
 31
0.0
  0
LINE
  8
DETAIL
  6
CONTINUOUS
 62
     5
 10
-259.29105659335869
 20
-336.51714361016758
 30
0.0
 11
-259.19952974676568
 21
-336.56330118528717
 31
0.0
  0
LINE
  8
DETAIL
  6
CONTINUOUS
 62
     5
 10
-259.19952974676568
 20
-336.56330118528717
 30
0.0
 11
-259.10413584601321
 21
-336.60150039269212
 31
0.0
  0
LINE
  8
DETAIL
  6
CONTINUOUS
 62
     5
 10
-259.10413584601321
 20
-336.60150039269212
 30
0.0
 11
-259.00514563050513
 21
-336.63151789333551
 31
0.0
  0
LINE
  8
DETAIL
  6
CONTINUOUS
 62
     5
 10
-259.00514563050513
 20
-336.63151789333551
 30
0.0
 11
-258.90384716727209
 21
-336.65287436936802
 31
0.0
  0
LINE
  8
DETAIL
  6
CONTINUOUS
 62
     5
 10
-258.90384716727209
 20
-336.65287436936802
 30
0.0
 11
-258.80151325572859
 21
-336.66536251434218
 31
0.0
  0
LINE
  8
DETAIL
  6
CONTINUOUS
 62
     5
 10
-259.29122779425848
 20
-335.56338874941451
 30
0.0
 11
-259.27901324641232
 21
-335.62735454393101
 31
0.0
  0
LINE
  8
DETAIL
  6
CONTINUOUS
 62
     5
 10
-259.27901324641232
 20
-335.62735454393101
 30
0.0
 11
-259.25960935533908
 21
-335.68972361928269
 31
0.0
  0
LINE
  8
DETAIL
  6
CONTINUOUS
 62
     5
 10
-258.8321041060421
 20
-336.61023826809469
 30
0.0
 11
-258.79868109907522
 21
-336.63810278854368
 31
0.0
  0
LINE
  8
DETAIL
  6
CONTINUOUS
 62
     5
 10
-258.79868109907522
 20
-336.63810278854368
 30
0.0
 11
-258.76523986290289
 21
-336.65726396708311
 31
0.0
  0
LINE
  8
DETAIL
  6
CONTINUOUS
 62
     5
 10
-258.76523986290289
 20
-336.65726396708311
 30
0.0
 11
-258.73194654835748
 21
-336.66755039223148
 31
0.0
  0
LINE
  8
DETAIL
  6
CONTINUOUS
 62
     5
 10
-259.29636354935337
 20
-335.53200819709122
 30
0.0
 11
-259.23027181164338
 21
-335.73570948852262
 31
0.0
  0
LINE
  8
DETAIL
  6
CONTINUOUS
 62
     5
 10
-259.23027181164338
 20
-335.73570948852262
 30
0.0
 11
-259.19699989396292
 21
-335.83564018198939
 31
0.0
  0
LINE
  8
DETAIL
  6
CONTINUOUS
 62
     5
 10
-259.19699989396292
 20
-335.83564018198939
 30
0.0
 11
-259.16372223413919
 21
-335.93283687588678
 31
0.0
  0
LINE
  8
DETAIL
  6
CONTINUOUS
 62
     5
 10
-259.16372223413919
 20
-335.93283687588678
 30
0.0
 11
-259.13063045217581
 21
-336.02604373975782
 31
0.0
  0
LINE
  8
DETAIL
  6
CONTINUOUS
 62
     5
 10
-259.13063045217581
 20
-336.02604373975782
 30
0.0
 11
-259.0975852657225
 21
-336.11500296821703
 31
0.0
  0
LINE
  8
DETAIL
  6
CONTINUOUS
 62
     5
 10
-259.0975852657225
 20
-336.11500296821703
 30
0.0
 11
-259.06453015138942
 21
-336.19922090147043
 31
0.0
  0
LINE
  8
DETAIL
  6
CONTINUOUS
 62
     5
 10
-259.06453015138942
 20
-336.19922090147043
 30
0.0
 11
-259.03140857363212
 21
-336.27820714615638
 31
0.0
  0
LINE
  8
DETAIL
  6
CONTINUOUS
 62
     5
 10
-259.03140857363212
 20
-336.27820714615638
 30
0.0
 11
-258.99808111343202
 21
-336.35164366284317
 31
0.0
  0
LINE
  8
DETAIL
  6
CONTINUOUS
 62
     5
 10
-258.99808111343202
 20
-336.35164366284317
 30
0.0
 11
-258.96473987141007
 21
-336.41850684617759
 31
0.0
  0
LINE
  8
DETAIL
  6
CONTINUOUS
 62
     5
 10
-258.96473987141007
 20
-336.41850684617759
 30
0.0
 11
-258.93157736673709
 21
-336.47797370376998
 31
0.0
  0
LINE
  8
DETAIL
  6
CONTINUOUS
 62
     5
 10
-258.93157736673709
 20
-336.47797370376998
 30
0.0
 11
-258.89845462074021
 21
-336.52993405832211
 31
0.0
  0
LINE
  8
DETAIL
  6
CONTINUOUS
 62
     5
 10
-258.89845462074021
 20
-336.52993405832211
 30
0.0
 11
-258.86531555261689
 21
-336.57411234119081
 31
0.0
  0
LINE
  8
DETAIL
  6
CONTINUOUS
 62
     5
 10
-258.86531555261689
 20
-336.57411234119081
 30
0.0
 11
-258.8321041060421
 21
-336.61023826809469
 31
0.0
  0
ARC
  8
DETAIL
  6
CONTINUOUS
 62
     5
 10
255.12157228477739
 20
-316.53571346508488
 30
0.0
 40
6.5225
 50
313.77728795362651
 51
44.675302734823717
  0
ARC
  8
DETAIL
  6
CONTINUOUS
 62
     5
 10
256.96377366149818
 20
-307.1395546574866
 30
0.0
 40
1.6000000000000001
 50
359.87988978653522
 51
89.879889786535202
  0
ARC
  8
DETAIL
  6
CONTINUOUS
 62
     5
 10
259.15873766632171
 20
-309.54416128176689
 30
0.0
 40
0.6
 50
359.87988978653522
 51
179.87988978653519
  0
ARC
  8
DETAIL
  6
CONTINUOUS
 62
     5
 10
-255.83230500646309
 20
-315.46458973322711
 30
0.0
 40
6.5225
 50
135.08447683824451
 51
225.9824916194423
  0
ARC
  8
DETAIL
  6
CONTINUOUS
 62
     5
 10
-258.13509452203488
 20
-306.05974169102188
 30
0.0
 40
1.6000000000000001
 50
89.879889786535202
 51
179.87988978653519
  0
ARC
  8
DETAIL
  6
CONTINUOUS
 62
     5
 10
-260.34012084920101
 20
-308.4551245198208
 30
0.0
 40
0.6
 50
359.87988978653522
 51
179.87988978653519
  0
LINE
  8
OUTLINE
  6
CONTINUOUS
 62
     3
 10
259.10227016379599
 20
-336.59803349674718
 30
0.0
 11
259.09546630176811
 21
-336.69966195360018
 31
0.0
  0
LINE
  8
OUTLINE
  6
CONTINUOUS
 62
     3
 10
259.09546630176811
 20
-336.69966195360018
 30
0.0
 11
259.0798295298639
 21
-336.80066611010108
 31
0.0
  0
LINE
  8
OUTLINE
  6
CONTINUOUS
 62
     3
 10
259.0798295298639
 20
-336.80066611010108
 30
0.0
 11
259.05533973918489
 21
-336.90044217136818
 31
0.0
  0
LINE
  8
OUTLINE
  6
CONTINUOUS
 62
     3
 10
259.05533973918489
 20
-336.90044217136818
 30
0.0
 11
259.0222361882436
 21
-336.99772754778922
 31
0.0
  0
LINE
  8
OUTLINE
  6
CONTINUOUS
 62
     3
 10
259.0222361882436
 20
-336.99772754778922
 30
0.0
 11
258.98103135068391
 21
-337.09125100187822
 31
0.0
  0
LINE
  8
OUTLINE
  6
CONTINUOUS
 62
     3
 10
258.98103135068391
 20
-337.09125100187822
 30
0.0
 11
258.93195028913811
 21
-337.18074256584458
 31
0.0
  0
LINE
  8
OUTLINE
  6
CONTINUOUS
 62
     3
 10
258.93195028913811
 20
-337.18074256584458
 30
0.0
 11
258.87529220923727
 21
-337.26569565020492
 31
0.0
  0
LINE
  8
OUTLINE
  6
CONTINUOUS
 62
     3
 10
258.87529220923727
 20
-337.26569565020492
 30
0.0
 11
258.81136147304483
 21
-337.34560680209268
 31
0.0
  0
LINE
  8
OUTLINE
  6
CONTINUOUS
 62
     3
 10
258.81136147304483
 20
-337.34560680209268
 30
0.0
 11
258.74028652388381
 21
-337.42014819004538
 31
0.0
  0
LINE
  8
OUTLINE
  6
CONTINUOUS
 62
     3
 10
258.74028652388381
 20
-337.42014819004538
 30
0.0
 11
258.66295213298798
 21
-337.48827164632121
 31
0.0
  0
LINE
  8
OUTLINE
  6
CONTINUOUS
 62
     3
 10
258.66295213298798
 20
-337.48827164632121
 30
0.0
 11
258.58043476478502
 21
-337.54912555365928
 31
0.0
  0
LINE
  8
OUTLINE
  6
CONTINUOUS
 62
     3
 10
258.58043476478502
 20
-337.54912555365928
 30
0.0
 11
258.49306148872881
 21
-337.60258572442848
 31
0.0
  0
LINE
  8
OUTLINE
  6
CONTINUOUS
 62
     3
 10
258.49306148872881
 20
-337.60258572442848
 30
0.0
 11
258.40134192516598
 21
-337.64835915611093
 31
0.0
  0
LINE
  8
OUTLINE
  6
CONTINUOUS
 62
     3
 10
258.40134192516598
 20
-337.64835915611093
 30
0.0
 11
258.30578870768318
 21
-337.68615807691663
 31
0.0
  0
LINE
  8
OUTLINE
  6
CONTINUOUS
 62
     3
 10
258.30578870768318
 20
-337.68615807691663
 30
0.0
 11
258.20667351028351
 21
-337.71576028487198
 31
0.0
  0
LINE
  8
OUTLINE
  6
CONTINUOUS
 62
     3
 10
258.20667351028351
 20
-337.71576028487198
 30
0.0
 11
258.10528639747349
 21
-337.73669186672072
 31
0.0
  0
LINE
  8
OUTLINE
  6
CONTINUOUS
 62
     3
 10
258.10528639747349
 20
-337.73669186672072
 30
0.0
 11
258.00290102724222
 21
-337.74875085420962
 31
0.0
  0
LINE
  8
OUTLINE
  6
CONTINUOUS
 62
     3
 10
258.03372272398809
 20
-337.69375534842112
 30
0.0
 11
258.00018318549132
 21
-337.72147949382872
 31
0.0
  0
LINE
  8
OUTLINE
  6
CONTINUOUS
 62
     3
 10
258.00018318549132
 20
-337.72147949382872
 30
0.0
 11
257.96666190739921
 21
-337.74050029739237
 31
0.0
  0
LINE
  8
OUTLINE
  6
CONTINUOUS
 62
     3
 10
257.96666190739921
 20
-337.74050029739237
 30
0.0
 11
257.93332575854743
 21
-337.75064704574669
 31
0.0
  0
LINE
  8
OUTLINE
  6
CONTINUOUS
 62
     3
 10
259.10259421920108
 20
-336.57254570606648
 30
0.0
 11
259.10227016379599
 21
-336.59803349674718
 31
0.0
  0
LINE
  8
OUTLINE
  6
CONTINUOUS
 62
     3
 10
259.74825476218172
 20
-314.54540808568368
 30
0.0
 11
259.75873634795607
 21
-309.54541907205981
 31
0.0
  0
LINE
  8
OUTLINE
  6
CONTINUOUS
 62
     3
 10
259.63420965697242
 20
-321.24518373222418
 30
0.0
 11
259.64825498190987
 21
-314.54519845396823
 31
0.0
  0
LINE
  8
OUTLINE
  6
CONTINUOUS
 62
     3
 10
259.10259421920108
 20
-336.57254570606648
 30
0.0
 11
259.13421075561001
 21
-321.24413557364682
 31
0.0
  0
LINE
  8
OUTLINE
  6
CONTINUOUS
 62
     3
 10
258.55873898468639
 20
-309.54290349147402
 30
0.0
 11
258.56377014585809
 21
-307.14290876493442
 31
0.0
  0
LINE
  8
OUTLINE
  6
CONTINUOUS
 62
     3
 10
-258.73194654835748
 20
-336.66755039223148
 30
0.0
 11
-258.71008496506857
 21
-336.66950245713281
 31
0.0
  0
LINE
  8
OUTLINE
  6
CONTINUOUS
 62
     3
 10
-258.80151325572859
 20
-336.66536251434218
 30
0.0
 11
-258.72667083209677
 21
-336.66802147144119
 31
0.0
  0
LINE
  8
OUTLINE
  6
CONTINUOUS
 62
     3
 10
257.91145618752591
 20
-337.75250743607762
 30
0.0
 11
-258.71008496966891
 21
-336.66950245712309
 31
0.0
  0
LINE
  8
OUTLINE
  6
CONTINUOUS
 62
     3
 10
258.00290102724222
 20
-337.74875085420962
 30
0.0
 11
257.92804811359701
 21
-337.75109600171561
 31
0.0
  0
LINE
  8
OUTLINE
  6
CONTINUOUS
 62
     3
 10
257.93332575854743
 20
-337.75064704574669
 30
0.0
 11
257.91145618312572
 21
-337.7525074360683
 31
0.0
  0
LINE
  8
OUTLINE
  6
CONTINUOUS
 62
     3
 10
-260.36464775991283
 20
-320.15509881170073
 30
0.0
 11
-259.86464885855042
 21
-320.15614697027797
 31
0.0
  0
LINE
  8
OUTLINE
  6
CONTINUOUS
 62
     3
 10
259.63420965697242
 20
-321.24518373222418
 30
0.0
 11
259.13421075561001
 21
-321.24413557364682
 31
0.0
  0
LINE
  8
OUTLINE
  6
CONTINUOUS
 62
     3
 10
-260.94011953083628
 20
-308.45386672952787
 30
0.0
 11
-260.34012084920101
 21
-308.4551245198208
 31
0.0
  0
LINE
  8
OUTLINE
  6
CONTINUOUS
 62
     3
 10
258.55873898468639
 20
-309.54290349147402
 30
0.0
 11
259.15873766632171
 21
-309.54416128176689
 31
0.0
  0
LINE
  8
OUTLINE
  6
CONTINUOUS
 62
     3
 10
259.75873634795607
 20
-309.54541907205981
 30
0.0
 11
259.15873766632171
 21
-309.54416128176689
 31
0.0
  0
LINE
  8
OUTLINE
  6
CONTINUOUS
 62
     3
 10
-259.74012216756671
 20
-308.45638231011372
 30
0.0
 11
-260.34012084920101
 21
-308.4551245198208
 31
0.0
  0
LINE
  8
OUTLINE
  6
CONTINUOUS
 62
     3
 10
-246.73176546352519
 20
-304.48364322222773
 30
0.0
 11
-245.73176766080039
 21
-304.48573953938262
 31
0.0
  0
LINE
  8
OUTLINE
  6
CONTINUOUS
 62
     3
 10
246.06715171924611
 20
-305.51670831613922
 30
0.0
 11
256.96712776894577
 21
-305.53955817312698
 31
0.0
  0
LINE
  8
OUTLINE
  6
CONTINUOUS
 62
     3
 10
246.06715171924611
 20
-305.51670831613922
 30
0.0
 11
245.06715391652139
 21
-305.51461199898438
 31
0.0
  0
LINE
  8
OUTLINE
  6
CONTINUOUS
 62
     3
 10
-246.73176546352519
 20
-304.48364322222773
 30
0.0
 11
-258.13174041458728
 21
-304.45974520666238
 31
0.0
  0
LINE
  8
OUTLINE
  6
CONTINUOUS
 62
     3
 10
-259.7401221675658
 20
-308.45638231011372
 30
0.0
 11
-259.73509100639512
 21
-306.05638758357412
 31
0.0
  0
LINE
  8
OUTLINE
  6
CONTINUOUS
 62
     3
 10
-259.89626539495919
 20
-335.48455710269792
 30
0.0
 11
-260.34012084920101
 21
-308.4551245198208
 31
0.0
  0
LINE
  8
OUTLINE
  6
CONTINUOUS
 62
     3
 10
-260.36464775991283
 20
-320.15509881170073
 30
0.0
 11
-260.35060243497531
 21
-313.45511353344477
 31
0.0
  0
LINE
  8
OUTLINE
  6
CONTINUOUS
 62
     3
 10
-260.94011953083628
 20
-308.45386672952787
 30
0.0
 11
-260.45060221524813
 21
-313.45490390172921
 31
0.0
  0
LINE
  8
OUTLINE
  6
CONTINUOUS
 62
     3
 10
-259.89626539495919
 20
-335.48455710269792
 30
0.0
 11
-259.89604820315401
 21
-335.51004602800703
 31
0.0
  0
LINE
  8
OUTLINE
  6
CONTINUOUS
 62
     3
 10
-259.89604820315401
 20
-335.51004602800703
 30
0.0
 11
-259.88967049094458
 21
-335.61170211768069
 31
0.0
  0
LINE
  8
OUTLINE
  6
CONTINUOUS
 62
     3
 10
-259.88967049094458
 20
-335.61170211768069
 30
0.0
 11
-259.87445732923499
 21
-335.71277094556871
 31
0.0
  0
LINE
  8
OUTLINE
  6
CONTINUOUS
 62
     3
 10
-259.87445732923499
 20
-335.71277094556871
 30
0.0
 11
-259.85038607721663
 21
-335.81264880640651
 31
0.0
  0
LINE
  8
OUTLINE
  6
CONTINUOUS
 62
     3
 10
-259.85038607721663
 20
-335.81264880640651
 30
0.0
 11
-259.81769069853641
 21
-335.91007211855538
 31
0.0
  0
LINE
  8
OUTLINE
  6
CONTINUOUS
 62
     3
 10
-259.81769069853641
 20
-335.91007211855538
 30
0.0
 11
-259.77687833191129
 21
-336.00376750709449
 31
0.0
  0
LINE
  8
OUTLINE
  6
CONTINUOUS
 62
     3
 10
-259.77687833191129
 20
-336.00376750709449
 30
0.0
 11
-259.72817290612039
 21
-336.0934640630021
 31
0.0
  0
LINE
  8
OUTLINE
  6
CONTINUOUS
 62
     3
 10
-259.72817290612039
 20
-336.0934640630021
 30
0.0
 11
-259.67187150062631
 21
-336.17865394678972
 31
0.0
  0
LINE
  8
OUTLINE
  6
CONTINUOUS
 62
     3
 10
-259.67187150062631
 20
-336.17865394678972
 30
0.0
 11
-259.60827636382788
 21
-336.2588324339402
 31
0.0
  0
LINE
  8
OUTLINE
  6
CONTINUOUS
 62
     3
 10
-259.60827636382788
 20
-336.2588324339402
 30
0.0
 11
-259.53751456364409
 21
-336.33367115735712
 31
0.0
  0
LINE
  8
OUTLINE
  6
CONTINUOUS
 62
     3
 10
-259.53751456364409
 20
-336.33367115735712
 30
0.0
 11
-259.46046646836072
 21
-336.40211824899819
 31
0.0
  0
LINE
  8
OUTLINE
  6
CONTINUOUS
 62
     3
 10
-259.46046646836072
 20
-336.40211824899819
 30
0.0
 11
-259.37820496302942
 21
-336.46331758587468
 31
0.0
  0
LINE
  8
OUTLINE
  6
CONTINUOUS
 62
     3
 10
-259.37820496302942
 20
-336.46331758587468
 30
0.0
 11
-259.29105659335869
 21
-336.51714361016758
 31
0.0
  0
LINE
  8
OUTLINE
  6
CONTINUOUS
 62
     3
 10
-259.29105659335869
 20
-336.51714361016758
 30
0.0
 11
-259.19952974676568
 21
-336.56330118528717
 31
0.0
  0
LINE
  8
OUTLINE
  6
CONTINUOUS
 62
     3
 10
-259.19952974676568
 20
-336.56330118528717
 30
0.0
 11
-259.10413584601321
 21
-336.60150039269212
 31
0.0
  0
LINE
  8
OUTLINE
  6
CONTINUOUS
 62
     3
 10
-259.10413584601321
 20
-336.60150039269212
 30
0.0
 11
-259.00514563050513
 21
-336.63151789333551
 31
0.0
  0
LINE
  8
OUTLINE
  6
CONTINUOUS
 62
     3
 10
-259.00514563050513
 20
-336.63151789333551
 30
0.0
 11
-258.90384716727209
 21
-336.65287436936802
 31
0.0
  0
LINE
  8
OUTLINE
  6
CONTINUOUS
 62
     3
 10
-258.90384716727209
 20
-336.65287436936802
 30
0.0
 11
-258.80151325572859
 21
-336.66536251434218
 31
0.0
  0
LINE
  8
OUTLINE
  6
CONTINUOUS
 62
     3
 10
-258.8321041060421
 20
-336.61023826809469
 30
0.0
 11
-258.79868109907522
 21
-336.63810278854368
 31
0.0
  0
LINE
  8
OUTLINE
  6
CONTINUOUS
 62
     3
 10
-258.79868109907522
 20
-336.63810278854368
 30
0.0
 11
-258.76523986290289
 21
-336.65726396708311
 31
0.0
  0
LINE
  8
OUTLINE
  6
CONTINUOUS
 62
     3
 10
-258.76523986290289
 20
-336.65726396708311
 30
0.0
 11
-258.73194654835748
 21
-336.66755039223148
 31
0.0
  0
ARC
  8
OUTLINE
  6
CONTINUOUS
 62
     3
 10
256.96377366149818
 20
-307.1395546574866
 30
0.0
 40
1.6000000000000001
 50
359.87988978653522
 51
89.879889786535202
  0
ARC
  8
OUTLINE
  6
CONTINUOUS
 62
     3
 10
259.15873766632171
 20
-309.54416128176689
 30
0.0
 40
0.6
 50
359.87988978653522
 51
179.87988978653519
  0
ARC
  8
OUTLINE
  6
CONTINUOUS
 62
     3
 10
-258.13509452203488
 20
-306.05974169102188
 30
0.0
 40
1.6000000000000001
 50
89.879889786535202
 51
179.87988978653519
  0
ARC
  8
OUTLINE
  6
CONTINUOUS
 62
     3
 10
-260.34012084920101
 20
-308.4551245198208
 30
0.0
 40
0.6
 50
359.87988978653522
 51
179.87988978653519
  0
LINE
  8
SIZE
  6
CONTINUOUS
 62
    30
 10
378.15281599999997
 20
0.0000000000001137
 30
0.0
 11
562.60956688405633
 21
0.0000000000001705
 31
0.0
  0
LINE
  8
SIZE
  6
CONTINUOUS
 62
    30
 10
277.91145618312538
 20
-337.75250743606853
 30
0.0
 11
562.60956688405645
 21
-337.75250743606841
 31
0.0
  0
LINE
  8
SIZE
  6
CONTINUOUS
 62
    30
 10
542.60956688405633
 20
-11.99999999999989
 30
0.0
 11
542.60956688405645
 21
-325.75250743606841
 31
0.0
  0
CIRCLE
  8
SIZE
  6
CONTINUOUS
 62
    30
 10
542.60956688405633
 20
0.0000000000001705
 30
0.0
 40
6.0
  0
LINE
  8
SIZE
  6
CONTINUOUS
 62
    30
 10
542.60956688405633
 20
0.0000000000001705
 30
0.0
 11
542.60956688405633
 21
-11.999999999999829
 31
0.0
  0
CIRCLE
  8
SIZE
  6
CONTINUOUS
 62
    30
 10
542.60956688405645
 20
-337.75250743606841
 30
0.0
 40
6.0
  0
LINE
  8
SIZE
  6
CONTINUOUS
 62
    30
 10
542.60956688405645
 20
-337.75250743606841
 30
0.0
 11
542.60956688405645
 21
-325.75250743606841
 31
0.0
  0
TEXT
  8
SIZE
  6
CONTINUOUS
 62
    30
 10
517.60956688405622
 20
-242.93339657517711
 30
0.0
 40
64.0
  1
338
 50
90.0
 41
0.9
 72
     1
 11
517.60956688405622
 21
-168.87625371803429
 31
0.0
  0
POINT
  8
DEFPOINTS
  6
CONTINUOUS
 62
    30
 10
358.15281599999997
 20
0.0000000000001137
 30
0.0
  0
POINT
  8
DEFPOINTS
  6
CONTINUOUS
 62
    30
 10
542.60956688405645
 20
-337.75250743606841
 30
0.0
  0
LINE
  8
DETAIL
  6
CONTINUOUS
 62
     5
 10
173.4242496745504
 20
-298.0644120444594
 30
0.0
 11
173.66886360854889
 21
-181.3772037429342
 31
0.0
  0
LINE
  8
DETAIL
  6
CONTINUOUS
 62
     5
 10
173.66886360854889
 20
-181.3772037429342
 30
0.0
 11
174.03092385916489
 21
-8.6650479359082624
 31
0.0
  0
LINE
  8
DETAIL
  6
CONTINUOUS
 62
     5
 10
172.4631892990634
 20
-303.06240833908078
 30
0.0
 11
172.69553064386281
 21
-181.37521102393171
 31
0.0
  0
LINE
  8
DETAIL
  6
CONTINUOUS
 62
     5
 10
172.71828481883611
 20
-181.37521102393171
 30
0.0
 11
173.09082665522629
 21
-3.663066203281915
 31
0.0
  0
LINE
  8
DETAIL
  6
CONTINUOUS
 62
     5
 10
170.07213917087051
 20
-303.05739592866541
 30
0.0
 11
170.32723469064319
 21
-181.37019861351621
 31
0.0
  0
LINE
  8
DETAIL
  6
CONTINUOUS
 62
     5
 10
170.32723469064319
 20
-181.37019861351621
 30
0.0
 11
170.69977652703341
 21
-3.658053792866383
 31
0.0
  0
LINE
  8
DETAIL
  6
CONTINUOUS
 62
     5
 10
169.67214004978089
 20
-303.05655740180327
 30
0.0
 11
169.92723556955369
 21
-181.3693600866543
 31
0.0
  0
LINE
  8
DETAIL
  6
CONTINUOUS
 62
     5
 10
169.92723556955369
 20
-181.3693600866543
 30
0.0
 11
170.2997774059439
 21
-3.6572152660044712
 31
0.0
  0
LINE
  8
SIZE
  6
CONTINUOUS
 62
    30
 10
277.91145618312538
 20
-337.75250743606853
 30
0.0
 11
562.60956688405258
 21
-337.75250743606841
 31
0.0
  0
LINE
  8
SIZE
  6
CONTINUOUS
 62
    30
 10
39.999956054501922
 20
-362.75269140200618
 30
0.0
 11
562.60956688405258
 21
-362.75269140200612
 31
0.0
  0
LINE
  8
SIZE
  6
CONTINUOUS
 62
    30
 10
542.60956688405258
 20
-325.75250743606841
 30
0.0
 11
542.60956688405258
 21
-313.75250743606841
 31
0.0
  0
LINE
  8
SIZE
  6
CONTINUOUS
 62
    30
 10
542.60956688405258
 20
-374.75269140200612
 30
0.0
 11
542.60956688405258
 21
-531.38126283057761
 31
0.0
  0
LINE
  8
SIZE
  6
CONTINUOUS
 62
    30
 10
542.60956688405258
 20
-337.75250743606841
 30
0.0
 11
542.60956688405258
 21
-362.75269140200612
 31
0.0
  0
CIRCLE
  8
SIZE
  6
CONTINUOUS
 62
    30
 10
542.60956688405258
 20
-337.75250743606841
 30
0.0
 40
6.0
  0
LINE
  8
SIZE
  6
CONTINUOUS
 62
    30
 10
542.60956688405258
 20
-337.75250743606841
 30
0.0
 11
542.60956688405258
 21
-325.75250743606841
 31
0.0
  0
CIRCLE
  8
SIZE
  6
CONTINUOUS
 62
    30
 10
542.60956688405258
 20
-362.75269140200612
 30
0.0
 40
6.0
  0
LINE
  8
SIZE
  6
CONTINUOUS
 62
    30
 10
542.60956688405258
 20
-362.75269140200612
 30
0.0
 11
542.60956688405258
 21
-374.75269140200612
 31
0.0
  0
TEXT
  8
SIZE
  6
CONTINUOUS
 62
    30
 10
517.60956688405236
 20
-506.38126283057773
 30
0.0
 40
64.0
  1
25
 50
90.0
 41
0.9
 72
     1
 11
517.60956688405236
 21
-459.75269140200618
 31
0.0
  0
POINT
  8
DEFPOINTS
  6
CONTINUOUS
 62
    30
 10
257.91145618312538
 20
-337.75250743606853
 30
0.0
  0
POINT
  8
DEFPOINTS
  6
CONTINUOUS
 62
    30
 10
19.999956054501919
 20
-362.75269140200618
 30
0.0
  0
POINT
  8
DEFPOINTS
  6
CONTINUOUS
 62
    30
 10
542.60956688405258
 20
-362.75269140200612
 30
0.0
  0
TEXT
  8
NOTE
  6
CONTINUOUS
 62
     4
 10
457.82710091660903
 20
41.667353777844312
 30
0.0
 40
64.0
  1
AH
 41
0.9
  0
LINE
  8
NOTE
  6
CONTINUOUS
 62
     4
 10
457.73710091660922
 20
28.867353777844301
 30
0.0
 11
553.8271009166092
 21
28.867353777844301
 31
0.0
  0
LINE
  8
NOTE
  6
CONTINUOUS
 62
     4
 10
251.3154686197586
 20
-132.47495555527871
 30
0.0
 11
227.25
 21
-142.0
 31
0.0
  0
LINE
  8
NOTE
  6
CONTINUOUS
 62
     4
 10
227.25
 20
-142.0
 30
0.0
 11
243.32875439298161
 21
-121.718310999015
 31
0.0
  0
LINE
  8
NOTE
  6
CONTINUOUS
 62
     4
 10
227.25
 20
-142.0
 30
0.0
 11
267.3942230127401
 21
-112.1932665542937
 31
0.0
  0
LINE
  8
NOTE
  6
CONTINUOUS
 62
     4
 10
267.3942230127401
 20
-112.1932665542936
 30
0.0
 11
457.37710091660921
 21
28.867353777844301
 31
0.0
  0
LINE
  8
NOTE
  6
CONTINUOUS
 62
     4
 10
457.37710091660921
 20
28.867353777844301
 30
0.0
 11
457.73710091660922
 21
28.867353777844301
 31
0.0
  0
TEXT
  8
NOTE
  6
CONTINUOUS
 62
     4
 10
426.84984595886772
 20
-612.94366779285451
 30
0.0
 40
64.0
  1
D φ21.7
 41
0.9
  0
LINE
  8
NOTE
  6
CONTINUOUS
 62
     4
 10
426.7598459588678
 20
-625.74366779285458
 30
0.0
 11
764.22127453029634
 21
-625.74366779285435
 31
0.0
  0
LINE
  8
NOTE
  6
CONTINUOUS
 62
     4
 10
17.76041241820349
 20
-381.53736863730433
 30
0.0
 11
0.0000000000063665
 21
-362.71076505890892
 31
0.0
  0
LINE
  8
NOTE
  6
CONTINUOUS
 62
     4
 10
0.0000000000063665
 20
-362.71076505890892
 30
0.0
 11
24.794281312740399
 21
-370.13483845210129
 31
0.0
  0
LINE
  8
NOTE
  6
CONTINUOUS
 62
     4
 10
0.0000000000063665
 20
-362.71076505890892
 30
0.0
 11
42.554693730937522
 21
-388.9614420304967
 31
0.0
  0
LINE
  8
NOTE
  6
CONTINUOUS
 62
     4
 10
42.554693730937522
 20
-388.96144203049681
 30
0.0
 11
426.39984595886767
 21
-625.74366779285458
 31
0.0
  0
LINE
  8
NOTE
  6
CONTINUOUS
 62
     4
 10
426.39984595886767
 20
-625.74366779285458
 30
0.0
 11
426.7598459588678
 21
-625.74366779285458
 31
0.0
  0
LINE
  8
OUTLINE
  6
CONTINUOUS
 62
     3
 10
-329.21419020791973
 20
-248.31061047264919
 30
0.0
 11
-328.81169731418782
 21
-56.311032349491597
 31
0.0
  0
LINE
  8
OUTLINE
  6
CONTINUOUS
 62
     3
 10
-245.23114531627701
 20
-256.48668353545509
 30
0.0
 11
-329.21419020791973
 21
-248.31061047264919
 31
0.0
  0
LINE
  8
OUTLINE
  6
CONTINUOUS
 62
     3
 10
-244.79511134806759
 20
-48.487140568701022
 30
0.0
 11
-328.81169731418782
 21
-56.311032349491597
 31
0.0
  0
LINE
  8
OUTLINE
  6
CONTINUOUS
 62
     3
 10
328.28436508362279
 20
-249.688939001965
 30
0.0
 11
328.68685797735441
 21
-57.689360878807413
 31
0.0
  0
LINE
  8
OUTLINE
  6
CONTINUOUS
 62
     3
 10
243.70381528298699
 20
-49.511191498846642
 30
0.0
 11
328.68685797735441
 21
-57.689360878807413
 31
0.0
  0
LINE
  8
OUTLINE
  6
CONTINUOUS
 62
     3
 10
243.26778131477761
 20
-257.51073446560082
 30
0.0
 11
328.28436508362279
 21
-249.688939001965
 31
0.0
  0
LINE
  8
OUTLINE
  6
CONTINUOUS
 62
     3
 10
-0.0091838112062987
 20
-365.69600140406209
 30
0.0
 11
-0.0534012099108168
 21
-365.69571315893722
 31
0.0
  0
LINE
  8
OUTLINE
  6
CONTINUOUS
 62
     3
 10
-0.0534012099108168
 20
-365.69571315893722
 30
0.0
 11
-0.096994013075232
 21
-365.69504616953071
 31
0.0
  0
LINE
  8
OUTLINE
  6
CONTINUOUS
 62
     3
 10
-0.096994013075232
 20
-365.69504616953071
 30
0.0
 11
-0.1437029761091253
 21
-365.69390941483249
 31
0.0
  0
LINE
  8
OUTLINE
  6
CONTINUOUS
 62
     3
 10
-0.1437029761091253
 20
-365.69390941483249
 30
0.0
 11
-0.1946030816982329
 21
-365.69217320185288
 31
0.0
  0
LINE
  8
OUTLINE
  6
CONTINUOUS
 62
     3
 10
-0.1946030816982329
 20
-365.69217320185288
 30
0.0
 11
-0.2485894171259133
 21
-365.68976412207837
 31
0.0
  0
LINE
  8
OUTLINE
  6
CONTINUOUS
 62
     3
 10
-0.2485894171259133
 20
-365.68976412207837
 30
0.0
 11
-0.3062338598845145
 21
-365.68654585817279
 31
0.0
  0
LINE
  8
OUTLINE
  6
CONTINUOUS
 62
     3
 10
-0.3062338598845145
 20
-365.68654585817279
 30
0.0
 11
-0.3675465977501062
 21
-365.68238920889519
 31
0.0
  0
LINE
  8
OUTLINE
  6
CONTINUOUS
 62
     3
 10
-0.3675465977501062
 20
-365.68238920889519
 30
0.0
 11
-0.4321835407188246
 21
-365.67718634333062
 31
0.0
  0
LINE
  8
OUTLINE
  6
CONTINUOUS
 62
     3
 10
-0.4321835407188246
 20
-365.67718634333062
 30
0.0
 11
-0.4997328563243855
 21
-365.67084588141012
 31
0.0
  0
LINE
  8
OUTLINE
  6
CONTINUOUS
 62
     3
 10
-0.4997328563243855
 20
-365.67084588141012
 30
0.0
 11
-0.5707813432875355
 21
-365.66317712319761
 31
0.0
  0
LINE
  8
OUTLINE
  6
CONTINUOUS
 62
     3
 10
-0.5707813432875355
 20
-365.66317712319761
 30
0.0
 11
-0.6458735507671918
 21
-365.65395241284568
 31
0.0
  0
LINE
  8
OUTLINE
  6
CONTINUOUS
 62
     3
 10
-0.6458735507671918
 20
-365.65395241284568
 30
0.0
 11
-0.7250893443078894
 21
-365.64296718628123
 31
0.0
  0
LINE
  8
OUTLINE
  6
CONTINUOUS
 62
     3
 10
-0.7250893443078894
 20
-365.64296718628123
 30
0.0
 11
-0.8088371662486225
 21
-365.62994402506968
 31
0.0
  0
LINE
  8
OUTLINE
  6
CONTINUOUS
 62
     3
 10
-0.8088371662486225
 20
-365.62994402506968
 30
0.0
 11
-0.8967747954422976
 21
-365.61469774920897
 31
0.0
  0
LINE
  8
OUTLINE
  6
CONTINUOUS
 62
     3
 10
-0.8967747954422976
 20
-365.61469774920897
 30
0.0
 11
-0.9886083808139574
 21
-365.59704144569258
 31
0.0
  0
LINE
  8
OUTLINE
  6
CONTINUOUS
 62
     3
 10
-0.9886083808139574
 20
-365.59704144569258
 30
0.0
 11
-1.0846046667286371
 21
-365.57666971166941
 31
0.0
  0
LINE
  8
OUTLINE
  6
CONTINUOUS
 62
     3
 10
-1.0846046667286371
 20
-365.57666971166941
 30
0.0
 11
-1.1826475437158019
 21
-365.55381780689248
 31
0.0
  0
LINE
  8
OUTLINE
  6
CONTINUOUS
 62
     3
 10
-1.1826475437158019
 20
-365.55381780689248
 30
0.0
 11
-1.289543942421574
 21
-365.52651212253988
 31
0.0
  0
LINE
  8
OUTLINE
  6
CONTINUOUS
 62
     3
 10
-1.289543942421574
 20
-365.52651212253988
 30
0.0
 11
-1.4120651019683239
 21
-365.49209468410692
 31
0.0
  0
LINE
  8
OUTLINE
  6
CONTINUOUS
 62
     3
 10
-1.4120651019683239
 20
-365.49209468410692
 30
0.0
 11
-1.5474876317593951
 21
-365.45009103564098
 31
0.0
  0
LINE
  8
OUTLINE
  6
CONTINUOUS
 62
     3
 10
-10.79294127419098
 20
-341.43396238628168
 30
0.0
 11
-11.285301900926241
 21
-341.46771848242508
 31
0.0
  0
LINE
  8
OUTLINE
  6
CONTINUOUS
 62
     3
 10
-11.285301900926241
 20
-341.46771848242508
 30
0.0
 11
-11.658585586536899
 21
-341.50472290414012
 31
0.0
  0
LINE
  8
OUTLINE
  6
CONTINUOUS
 62
     3
 10
-11.658585586536899
 20
-341.50472290414012
 30
0.0
 11
-11.883372258716239
 21
-341.54302925555271
 31
0.0
  0
LINE
  8
OUTLINE
  6
CONTINUOUS
 62
     3
 10
-11.883372258716239
 20
-341.54302925555271
 30
0.0
 11
-11.959613584575891
 21
-341.58213618948213
 31
0.0
  0
LINE
  8
OUTLINE
  6
CONTINUOUS
 62
     3
 10
1.5301374988364389
 20
-365.45654272817478
 30
0.0
 11
1.3969858639291031
 21
-365.49726792860258
 31
0.0
  0
LINE
  8
OUTLINE
  6
CONTINUOUS
 62
     3
 10
1.3969858639291031
 20
-365.49726792860258
 30
0.0
 11
1.276898692521399
 21
-365.53055914255492
 31
0.0
  0
LINE
  8
OUTLINE
  6
CONTINUOUS
 62
     3
 10
1.276898692521399
 20
-365.53055914255492
 30
0.0
 11
1.1727551316932929
 21
-365.55684438077787
 31
0.0
  0
LINE
  8
OUTLINE
  6
CONTINUOUS
 62
     3
 10
1.1727551316932929
 20
-365.55684438077787
 30
0.0
 11
1.0772617363159041
 21
-365.57887031913202
 31
0.0
  0
LINE
  8
OUTLINE
  6
CONTINUOUS
 62
     3
 10
1.0772617363159041
 20
-365.57887031913202
 30
0.0
 11
0.9831709744323689
 21
-365.59865708653069
 31
0.0
  0
LINE
  8
OUTLINE
  6
CONTINUOUS
 62
     3
 10
0.9831709744323689
 20
-365.59865708653069
 30
0.0
 11
0.8925087173578277
 21
-365.61594562727362
 31
0.0
  0
LINE
  8
OUTLINE
  6
CONTINUOUS
 62
     3
 10
0.8925087173578277
 20
-365.61594562727362
 30
0.0
 11
0.8045015352098517
 21
-365.63107710315597
 31
0.0
  0
LINE
  8
OUTLINE
  6
CONTINUOUS
 62
     3
 10
0.8045015352098517
 20
-365.63107710315597
 30
0.0
 11
0.7202666188036346
 21
-365.64405076936242
 31
0.0
  0
LINE
  8
OUTLINE
  6
CONTINUOUS
 62
     3
 10
0.7202666188036346
 20
-365.64405076936242
 30
0.0
 11
0.6411064120326273
 21
-365.65490792151888
 31
0.0
  0
LINE
  8
OUTLINE
  6
CONTINUOUS
 62
     3
 10
0.6411064120326273
 20
-365.65490792151888
 30
0.0
 11
0.5657018314246898
 21
-365.66405506950201
 31
0.0
  0
LINE
  8
OUTLINE
  6
CONTINUOUS
 62
     3
 10
0.5657018314246898
 20
-365.66405506950201
 30
0.0
 11
0.4930464749521661
 21
-365.67177194958782
 31
0.0
  0
LINE
  8
OUTLINE
  6
CONTINUOUS
 62
     3
 10
0.4930464749521661
 20
-365.67177194958782
 30
0.0
 11
0.4236587185293956
 21
-365.67814157703953
 31
0.0
  0
LINE
  8
OUTLINE
  6
CONTINUOUS
 62
     3
 10
0.4236587185293956
 20
-365.67814157703953
 30
0.0
 11
0.3579092472050434
 21
-365.68327899358309
 31
0.0
  0
LINE
  8
OUTLINE
  6
CONTINUOUS
 62
     3
 10
0.3579092472050434
 20
-365.68327899358309
 30
0.0
 11
0.2955061578061304
 21
-365.68734902765942
 31
0.0
  0
LINE
  8
OUTLINE
  6
CONTINUOUS
 62
     3
 10
0.2955061578061304
 20
-365.68734902765942
 30
0.0
 11
0.2363774853140512
 21
-365.69048308109541
 31
0.0
  0
LINE
  8
OUTLINE
  6
CONTINUOUS
 62
     3
 10
0.2363774853140512
 20
-365.69048308109541
 30
0.0
 11
0.1807841883154424
 21
-365.6927898145816
 31
0.0
  0
LINE
  8
OUTLINE
  6
CONTINUOUS
 62
     3
 10
0.1807841883154424
 20
-365.6927898145816
 30
0.0
 11
0.1281815861434552
 21
-365.69440216118687
 31
0.0
  0
LINE
  8
OUTLINE
  6
CONTINUOUS
 62
     3
 10
0.1281815861434552
 20
-365.69440216118687
 30
0.0
 11
0.0800806901136184
 21
-365.69539167702783
 31
0.0
  0
LINE
  8
OUTLINE
  6
CONTINUOUS
 62
     3
 10
0.0800806901136184
 20
-365.69539167702783
 30
0.0
 11
0.0356522449349086
 21
-365.69589434762042
 31
0.0
  0
LINE
  8
OUTLINE
  6
CONTINUOUS
 62
     3
 10
0.0356522449349086
 20
-365.69589434762042
 30
0.0
 11
-0.0091838112062987
 21
-365.69600140406209
 31
0.0
  0
LINE
  8
OUTLINE
  6
CONTINUOUS
 62
     3
 10
1.5301374988364389
 20
-365.45654272817478
 30
0.0
 11
10.91670359717159
 21
-362.44205608325478
 31
0.0
  0
LINE
  8
OUTLINE
  6
CONTINUOUS
 62
     3
 10
10.916703605977769
 20
-362.44205608047332
 30
0.0
 11
11.02250964177051
 21
-362.40429800211632
 31
0.0
  0
LINE
  8
OUTLINE
  6
CONTINUOUS
 62
     3
 10
11.02250964177051
 20
-362.40429800211632
 30
0.0
 11
11.142284522980621
 21
-362.35148241000411
 31
0.0
  0
LINE
  8
OUTLINE
  6
CONTINUOUS
 62
     3
 10
11.142284522980621
 20
-362.35148241000411
 30
0.0
 11
11.273362363834391
 21
-362.27940064534721
 31
0.0
  0
LINE
  8
OUTLINE
  6
CONTINUOUS
 62
     3
 10
11.273362363834391
 20
-362.27940064534721
 30
0.0
 11
11.41446352241655
 21
-362.18169608584247
 31
0.0
  0
LINE
  8
OUTLINE
  6
CONTINUOUS
 62
     3
 10
11.41446352241655
 20
-362.18169608584247
 30
0.0
 11
11.5636444152201
 21
-362.04917080871292
 31
0.0
  0
LINE
  8
OUTLINE
  6
CONTINUOUS
 62
     3
 10
11.5636444152201
 20
-362.04917080871292
 30
0.0
 11
11.70550077140933
 21
-361.88324148283351
 31
0.0
  0
LINE
  8
OUTLINE
  6
CONTINUOUS
 62
     3
 10
11.70550077140933
 20
-361.88324148283351
 30
0.0
 11
11.82804923228719
 21
-361.68739974015602
 31
0.0
  0
LINE
  8
OUTLINE
  6
CONTINUOUS
 62
     3
 10
11.82804923228719
 20
-361.68739974015602
 30
0.0
 11
11.922096512241071
 21
-361.46709438001108
 31
0.0
  0
LINE
  8
OUTLINE
  6
CONTINUOUS
 62
     3
 10
11.922096512241071
 20
-361.46709438001108
 30
0.0
 11
11.980357992779769
 21
-361.23336346698079
 31
0.0
  0
LINE
  8
OUTLINE
  6
CONTINUOUS
 62
     3
 10
11.980357992779769
 20
-361.23336346698079
 30
0.0
 11
12.00070886834339
 21
-360.98951389226568
 31
0.0
  0
LINE
  8
OUTLINE
  6
CONTINUOUS
 62
     3
 10
10.86759155839616
 20
-341.68506072977402
 30
0.0
 11
10.89176762234456
 21
-340.94304732646418
 31
0.0
  0
LINE
  8
OUTLINE
  6
CONTINUOUS
 62
     3
 10
12.04033368081889
 20
-341.6324478011984
 30
0.0
 11
12.00070886834339
 21
-360.98951389226568
 31
0.0
  0
LINE
  8
OUTLINE
  6
CONTINUOUS
 62
     3
 10
10.891777560760151
 20
-340.94247413363883
 30
0.0
 11
10.899551614288949
 21
-337.23404841708839
 31
0.0
  0
LINE
  8
OUTLINE
  6
CONTINUOUS
 62
     3
 10
-10.80817475836739
 20
-340.89698405137852
 30
0.0
 11
-10.80040070483858
 21
-337.18855833482797
 31
0.0
  0
LINE
  8
OUTLINE
  6
CONTINUOUS
 62
     3
 10
-11.959613584575891
 20
-341.58213618948213
 30
0.0
 11
-11.999238397051389
 21
-360.93920228054913
 31
0.0
  0
LINE
  8
OUTLINE
  6
CONTINUOUS
 62
     3
 10
-10.78710235597646
 20
-341.63966552369237
 30
0.0
 11
-10.80816722342183
 21
-340.89755728083378
 31
0.0
  0
LINE
  8
OUTLINE
  6
CONTINUOUS
 62
     3
 10
-11.999238397051389
 20
-360.93920228054913
 30
0.0
 11
-11.98059508904589
 21
-361.17885740982399
 31
0.0
  0
LINE
  8
OUTLINE
  6
CONTINUOUS
 62
     3
 10
-11.98059508904589
 20
-361.17885740982399
 30
0.0
 11
-11.924325392383251
 21
-361.41195733773918
 31
0.0
  0
LINE
  8
OUTLINE
  6
CONTINUOUS
 62
     3
 10
-11.924325392383251
 20
-361.41195733773918
 30
0.0
 11
-11.83044999167487
 21
-361.63598382179993
 31
0.0
  0
LINE
  8
OUTLINE
  6
CONTINUOUS
 62
     3
 10
-11.83044999167487
 20
-361.63598382179993
 30
0.0
 11
-11.706521206844171
 21
-361.83587908746239
 31
0.0
  0
LINE
  8
OUTLINE
  6
CONTINUOUS
 62
     3
 10
-11.706521206844171
 20
-361.83587908746239
 30
0.0
 11
-11.564425462869741
 21
-362.00291919784132
 31
0.0
  0
LINE
  8
OUTLINE
  6
CONTINUOUS
 62
     3
 10
-11.564425462869741
 20
-362.00291919784132
 30
0.0
 11
-11.41548709495328
 21
-362.1357971556663
 31
0.0
  0
LINE
  8
OUTLINE
  6
CONTINUOUS
 62
     3
 10
-11.41548709495328
 20
-362.1357971556663
 30
0.0
 11
-11.27438926550758
 21
-362.23392943689038
 31
0.0
  0
LINE
  8
OUTLINE
  6
CONTINUOUS
 62
     3
 10
-11.27438926550758
 20
-362.23392943689038
 30
0.0
 11
-11.14369491805564
 21
-362.30615930900171
 31
0.0
  0
LINE
  8
OUTLINE
  6
CONTINUOUS
 62
     3
 10
-11.14369491805564
 20
-362.30615930900171
 30
0.0
 11
-11.025124283664351
 21
-362.35881438575461
 31
0.0
  0
LINE
  8
OUTLINE
  6
CONTINUOUS
 62
     3
 10
-11.025124283664351
 20
-362.35881438575461
 30
0.0
 11
-10.921332639332601
 21
-362.39627652587359
 31
0.0
  0
LINE
  8
OUTLINE
  6
CONTINUOUS
 62
     3
 10
12.04033368081889
 20
-341.6324478011984
 30
0.0
 11
11.96425698576377
 21
-341.59302155968732
 31
0.0
  0
LINE
  8
OUTLINE
  6
CONTINUOUS
 62
     3
 10
11.96425698576377
 20
-341.59302155968732
 30
0.0
 11
11.739632893424529
 21
-341.55377309870943
 31
0.0
  0
LINE
  8
OUTLINE
  6
CONTINUOUS
 62
     3
 10
11.739632893424529
 20
-341.55377309870943
 30
0.0
 11
11.36650763410535
 21
-341.51520396368039
 31
0.0
  0
LINE
  8
OUTLINE
  6
CONTINUOUS
 62
     3
 10
11.36650763410535
 20
-341.51520396368039
 30
0.0
 11
10.87429286142833
 21
-341.47938388070202
 31
0.0
  0
LINE
  8
OUTLINE
  6
CONTINUOUS
 62
     3
 10
-1.5474876317593951
 20
-365.45009103564098
 30
0.0
 11
-10.921332618146611
 21
-362.39627653271799
 31
0.0
  0
ENDSEC
  0
EOF
